  0
SECTION
  2
HEADER
  9
$ACADVER
  1
AC1014
  9
$ACADMAINTVER
 70
     9
  9
$DWGCODEPAGE
  3
ANSI_932
  9
$INSBASE
 10
0.0
 20
0.0
 30
0.0
  9
$EXTMIN
 10
30.30245931997592
 20
40.32299554773977
 30
0.0
  9
$EXTMAX
 10
625.248237323804
 20
338.0905036541123
 30
0.0
  9
$LIMMIN
 10
0.0
 20
0.0
  9
$LIMMAX
 10
297.0
 20
210.0
  9
$ORTHOMODE
 70
     1
  9
$REGENMODE
 70
     1
  9
$FILLMODE
 70
     1
  9
$QTEXTMODE
 70
     0
  9
$MIRRTEXT
 70
     0
  9
$DRAGMODE
 70
     2
  9
$LTSCALE
 40
2.0
  9
$OSMODE
 70
    37
  9
$ATTMODE
 70
     1
  9
$TEXTSIZE
 40
2.0
  9
$TRACEWID
 40
1.0
  9
$TEXTSTYLE
  7
STANDARD
  9
$CLAYER
  8
0
  9
$CELTYPE
  6
BYLAYER
  9
$CECOLOR
 62
   256
  9
$CELTSCALE
 40
1.0
  9
$DELOBJ
 70
     1
  9
$DISPSILH
 70
     0
  9
$DIMSCALE
 40
2.0
  9
$DIMASZ
 40
1.8
  9
$DIMEXO
 40
0.625
  9
$DIMDLI
 40
3.75
  9
$DIMRND
 40
0.0
  9
$DIMDLE
 40
0.0
  9
$DIMEXE
 40
0.8
  9
$DIMTP
 40
0.0
  9
$DIMTM
 40
0.0
  9
$DIMTXT
 40
1.8
  9
$DIMCEN
 40
2.5
  9
$DIMTSZ
 40
0.0
  9
$DIMTOL
 70
     0
  9
$DIMLIM
 70
     0
  9
$DIMTIH
 70
     0
  9
$DIMTOH
 70
     0
  9
$DIMSE1
 70
     0
  9
$DIMSE2
 70
     0
  9
$DIMTAD
 70
     1
  9
$DIMZIN
 70
     8
  9
$DIMBLK
  1

  9
$DIMASO
 70
     1
  9
$DIMSHO
 70
     1
  9
$DIMPOST
  1

  9
$DIMAPOST
  1

  9
$DIMALT
 70
     0
  9
$DIMALTD
 70
     4
  9
$DIMALTF
 40
0.0394
  9
$DIMLFAC
 40
1.0
  9
$DIMTOFL
 70
     1
  9
$DIMTVP
 40
0.0
  9
$DIMTIX
 70
     0
  9
$DIMSOXD
 70
     0
  9
$DIMSAH
 70
     0
  9
$DIMBLK1
  1

  9
$DIMBLK2
  1

  9
$DIMSTYLE
  2
STANDARD
  9
$DIMCLRD
 70
     0
  9
$DIMCLRE
 70
     0
  9
$DIMCLRT
 70
     0
  9
$DIMTFAC
 40
1.0
  9
$DIMGAP
 40
0.75
  9
$DIMJUST
 70
     0
  9
$DIMSD1
 70
     0
  9
$DIMSD2
 70
     0
  9
$DIMTOLJ
 70
     1
  9
$DIMTZIN
 70
     0
  9
$DIMALTZ
 70
     0
  9
$DIMALTTZ
 70
     0
  9
$DIMFIT
 70
     3
  9
$DIMUPT
 70
     0
  9
$DIMUNIT
 70
     8
  9
$DIMDEC
 70
     2
  9
$DIMTDEC
 70
     2
  9
$DIMALTU
 70
     8
  9
$DIMALTTD
 70
     4
  9
$DIMTXSTY
  7
STANDARD
  9
$DIMAUNIT
 70
     0
  9
$LUNITS
 70
     2
  9
$LUPREC
 70
     3
  9
$SKETCHINC
 40
1.0
  9
$FILLETRAD
 40
10.0
  9
$AUNITS
 70
     0
  9
$AUPREC
 70
     2
  9
$MENU
  1
.
  9
$ELEVATION
 40
0.0
  9
$PELEVATION
 40
0.0
  9
$THICKNESS
 40
0.0
  9
$LIMCHECK
 70
     0
  9
$BLIPMODE
 70
     0
  9
$CHAMFERA
 40
0.0
  9
$CHAMFERB
 40
0.0
  9
$CHAMFERC
 40
20.0
  9
$CHAMFERD
 40
0.0
  9
$SKPOLY
 70
     0
  9
$TDCREATE
 40
2453752.641022858
  9
$TDUPDATE
 40
2454399.550609618
  9
$TDINDWG
 40
0.1594156944
  9
$TDUSRTIMER
 40
0.1594155093
  9
$USRTIMER
 70
     1
  9
$ANGBASE
 50
0.0
  9
$ANGDIR
 70
     0
  9
$PDMODE
 70
     0
  9
$PDSIZE
 40
-10.0
  9
$PLINEWID
 40
0.0
  9
$COORDS
 70
     1
  9
$SPLFRAME
 70
     0
  9
$SPLINETYPE
 70
     6
  9
$SPLINESEGS
 70
     8
  9
$ATTDIA
 70
     0
  9
$ATTREQ
 70
     1
  9
$HANDLING
 70
-16383
  9
$HANDSEED
  5
1A39
  9
$SURFTAB1
 70
     6
  9
$SURFTAB2
 70
     6
  9
$SURFTYPE
 70
     6
  9
$SURFU
 70
     6
  9
$SURFV
 70
     6
  9
$UCSNAME
  2

  9
$UCSORG
 10
0.0
 20
0.0
 30
0.0
  9
$UCSXDIR
 10
1.0
 20
0.0
 30
0.0
  9
$UCSYDIR
 10
0.0
 20
1.0
 30
0.0
  9
$PUCSNAME
  2

  9
$PUCSORG
 10
0.0
 20
0.0
 30
0.0
  9
$PUCSXDIR
 10
1.0
 20
0.0
 30
0.0
  9
$PUCSYDIR
 10
0.0
 20
1.0
 30
0.0
  9
$USERI1
 70
     0
  9
$USERI2
 70
     0
  9
$USERI3
 70
     0
  9
$USERI4
 70
     0
  9
$USERI5
 70
     0
  9
$USERR1
 40
0.0
  9
$USERR2
 40
0.0
  9
$USERR3
 40
0.0
  9
$USERR4
 40
0.0
  9
$USERR5
 40
0.0
  9
$WORLDVIEW
 70
     1
  9
$SHADEDGE
 70
     3
  9
$SHADEDIF
 70
    70
  9
$TILEMODE
 70
     1
  9
$MAXACTVP
 70
    48
  9
$PINSBASE
 10
0.0
 20
0.0
 30
0.0
  9
$PLIMCHECK
 70
     0
  9
$PEXTMIN
 10
0.0
 20
0.0
 30
0.0
  9
$PEXTMAX
 10
0.0
 20
0.0
 30
0.0
  9
$PLIMMIN
 10
0.0
 20
0.0
  9
$PLIMMAX
 10
12.0
 20
9.0
  9
$UNITMODE
 70
     0
  9
$VISRETAIN
 70
     1
  9
$PLINEGEN
 70
     0
  9
$PSLTSCALE
 70
     1
  9
$TREEDEPTH
 70
  3020
  9
$PICKSTYLE
 70
     1
  9
$CMLSTYLE
  2
STANDARD
  9
$CMLJUST
 70
     0
  9
$CMLSCALE
 40
1.0
  9
$PROXYGRAPHICS
 70
     1
  9
$MEASUREMENT
 70
     0
  0
ENDSEC
  0
SECTION
  2
CLASSES
  0
CLASS
  1
DICTIONARYVAR
  2
AcDbDictionaryVar
  3
AutoCAD 2000
 90
        0
280
     0
281
     0
  0
CLASS
  1
ACDBDICTIONARYWDFLT
  2
AcDbDictionaryWithDefault
  3
AutoCAD 2000
 90
        0
280
     0
281
     0
  0
CLASS
  1
ACDBPLACEHOLDER
  2
AcDbPlaceHolder
  3
AutoCAD 2000
 90
        0
280
     0
281
     0
  0
CLASS
  1
LAYOUT
  2
AcDbLayout
  3
AutoCAD 2000
 90
        0
280
     0
281
     0
  0
CLASS
  1
LONG_TRANSACTION
  2
AcDbLongTransaction
  3
AutoCAD 2000
 90
        0
280
     0
281
     0
  0
CLASS
  1
LWPOLYLINE
  2
AcDbPolyline
  3
AutoCAD 2000
 90
        0
280
     0
281
     1
  0
CLASS
  1
HATCH
  2
AcDbHatch
  3
AutoCAD 2000
 90
        0
280
     0
281
     1
  0
CLASS
  1
XRECORD
  2
AcDbXrecord
  3
AutoCAD 2000
 90
        0
280
     0
281
     0
  0
ENDSEC
  0
SECTION
  2
TABLES
  0
TABLE
  2
VPORT
  5
6E
330
0
100
AcDbSymbolTable
 70
     2
  0
VPORT
  5
1A13
330
6E
100
AcDbSymbolTableRecord
100
AcDbViewportTableRecord
  2
*ACTIVE
 70
     0
 10
0.0
 20
0.0
 11
1.0
 21
1.0
 12
321.1390440138679
 22
177.5315636365499
 13
0.0
 23
0.0
 14
10.0
 24
10.0
 15
10.0
 25
10.0
 16
0.0
 26
0.0
 36
1.0
 17
0.0
 27
0.0
 37
0.0
 40
396.698766241867
 41
1.540920716112531
 42
50.0
 43
0.0
 44
0.0
 50
0.0
 51
0.0
 71
     0
 72
   100
 73
     1
 74
     3
 75
     0
 76
     0
 77
     0
 78
     0
  0
ENDTAB
  0
TABLE
  2
LTYPE
  5
69
330
0
100
AcDbSymbolTable
 70
     4
  0
LTYPE
  5
6A
330
69
100
AcDbSymbolTableRecord
100
AcDbLinetypeTableRecord
  2
BYBLOCK
 70
     0
  3

 72
    65
 73
     0
 40
0.0
  0
LTYPE
  5
6B
330
69
100
AcDbSymbolTableRecord
100
AcDbLinetypeTableRecord
  2
BYLAYER
 70
     0
  3

 72
    65
 73
     0
 40
0.0
  0
LTYPE
  5
8
330
69
100
AcDbSymbolTableRecord
100
AcDbLinetypeTableRecord
  2
CONTINUOUS
 70
     0
  3
Solid line
 72
    65
 73
     0
 40
0.0
  0
LTYPE
  5
27C
330
69
100
AcDbSymbolTableRecord
100
AcDbLinetypeTableRecord
  2
SEKKEI_A2_
 70
     0
  3
center(A2)  ____ _ ____ _ ____ _ ____ _ ____ _ 
 72
    65
 73
     4
 40
14.28749999999999
 49
9.525
 74
     0
 49
-1.587499999999999
 74
     0
 49
1.587499999999999
 74
     0
 49
-1.587499999999999
 74
     0
  0
LTYPE
  5
2B4
330
69
100
AcDbSymbolTableRecord
100
AcDbLinetypeTableRecord
  2
HIDDEN2
 70
     0
  3
Hidden (.5x) _ _ _ _ _ _ _ _ _ _ _ _ _ _ _ _ _
 72
    65
 73
     2
 40
4.762499999999999
 49
3.174999999999999
 74
     0
 49
-1.587499999999999
 74
     0
  0
LTYPE
  5
48F
330
69
100
AcDbSymbolTableRecord
100
AcDbLinetypeTableRecord
  2
SEKKEI_H
 70
     0
  3
Hidden-S _ _ _ _ _ _ _ _ _ _ _ _ _ _ _ _ _
 72
    65
 73
     2
 40
2.381249999999999
 49
1.587499999999999
 74
     0
 49
-0.79375
 74
     0
  0
ENDTAB
  0
TABLE
  2
LAYER
  5
66
330
0
100
AcDbSymbolTable
 70
     9
  0
LAYER
  5
5E
330
66
100
AcDbSymbolTableRecord
100
AcDbLayerTableRecord
  2
0
 70
     0
 62
     7
  6
CONTINUOUS
  0
LAYER
  5
3E
330
66
100
AcDbSymbolTableRecord
100
AcDbLayerTableRecord
  2
CENTER
 70
     0
 62
     3
  6
SEKKEI_A2_
  0
LAYER
  5
2B5
330
66
100
AcDbSymbolTableRecord
100
AcDbLayerTableRecord
  2
HIDS
 70
     0
 62
     1
  6
HIDDEN2
  0
LAYER
  5
2BA
330
66
100
AcDbSymbolTableRecord
100
AcDbLayerTableRecord
  2
HOJO
 70
     0
 62
     4
  6
CONTINUOUS
  0
LAYER
  5
3FA
330
66
100
AcDbSymbolTableRecord
100
AcDbLayerTableRecord
  2
TITLE
 70
     0
 62
     4
  6
CONTINUOUS
  0
ENDTAB
  0
TABLE
  2
STYLE
  5
67
330
0
100
AcDbSymbolTable
 70
     1
  0
STYLE
  5
16
330
67
100
AcDbSymbolTableRecord
100
AcDbTextStyleTableRecord
  2
STANDARD
 70
     0
 40
0.0
 41
1.0
 50
0.0
 71
     0
 42
2.0
  3
simplex.shx
  4
extfont.shx
  0
ENDTAB
  0
TABLE
  2
VIEW
  5
6C
330
0
100
AcDbSymbolTable
 70
     0
  0
ENDTAB
  0
TABLE
  2
UCS
  5
6D
330
0
100
AcDbSymbolTable
 70
     0
  0
ENDTAB
  0
TABLE
  2
APPID
  5
70
330
0
100
AcDbSymbolTable
 70
     1
  0
APPID
  5
71
330
70
100
AcDbSymbolTableRecord
100
AcDbRegAppTableRecord
  2
ACAD
 70
     0
  0
ENDTAB
  0
TABLE
  2
DIMSTYLE
  5
72
330
0
100
AcDbSymbolTable
 70
     2
  0
DIMSTYLE
105
73
330
72
100
AcDbSymbolTableRecord
100
AcDbDimStyleTableRecord
  2
STANDARD
 70
     0
  3

  4

  5

  6

  7

 40
2.0
 41
1.8
 42
0.625
 43
3.75
 44
0.8
 45
0.0
 46
0.0
 47
0.0
 48
0.0
140
1.8
141
2.5
142
0.0
143
0.0394
144
1.0
145
0.0
146
1.0
147
0.75
 71
     0
 72
     0
 73
     0
 74
     0
 75
     0
 76
     0
 77
     1
 78
     8
170
     0
171
     4
172
     1
173
     0
174
     0
175
     0
176
     0
177
     0
178
     0
270
     8
271
     2
272
     2
273
     8
274
     4
340
16
275
     0
280
     0
281
     0
282
     0
283
     1
284
     0
285
     0
286
     0
287
     3
288
     0
  0
ENDTAB
  0
TABLE
  2
BLOCK_RECORD
  5
1
330
0
100
AcDbSymbolTable
 70
    63
  0
BLOCK_RECORD
  5
2
102
{ACAD_XDICTIONARY
360
1A35
102
}
330
1
100
AcDbSymbolTableRecord
100
AcDbBlockTableRecord
  2
*MODEL_SPACE
  0
BLOCK_RECORD
  5
1A0E
102
{ACAD_XDICTIONARY
360
1A37
102
}
330
1
100
AcDbSymbolTableRecord
100
AcDbBlockTableRecord
  2
*PAPER_SPACE
  0
ENDTAB
  0
ENDSEC
  0
SECTION
  2
BLOCKS
  0
BLOCK
  5
5D
330
2
100
AcDbEntity
  8
0
100
AcDbBlockBegin
  2
*MODEL_SPACE
 70
     0
 10
0.0
 20
0.0
 30
0.0
  3
*MODEL_SPACE
  1

  0
ENDBLK
  5
5F
330
2
100
AcDbEntity
  8
0
100
AcDbBlockEnd
  0
BLOCK
  5
1A10
330
1A0E
100
AcDbEntity
 67
     1
  8
0
100
AcDbBlockBegin
  2
*PAPER_SPACE
 70
     0
 10
0.0
 20
0.0
 30
0.0
  3
*PAPER_SPACE
  1

  0
ENDBLK
  5
1A11
330
1A0E
100
AcDbEntity
 67
     1
  8
0
100
AcDbBlockEnd
  0
ENDSEC
  0
SECTION
  2
ENTITIES
  0
TEXT
  5
5FB
330
2
100
AcDbEntity
  8
TITLE
100
AcDbText
 10
241.295934652656
 20
276.4772647690773
 30
0.0
 40
5.0
  1
HLM-15L-10~240-T15
 41
0.8
100
AcDbText
  0
ARC
  5
5FC
330
2
100
AcDbEntity
  8
0
100
AcDbCircle
 10
319.1969186544389
 20
90.02299554773975
 30
0.0
 40
38.0
100
AcDbArc
 50
324.7998999999996
 51
21.29424099999966
  0
ARC
  5
5FD
330
2
100
AcDbEntity
  8
0
100
AcDbCircle
 10
319.1969186544389
 20
90.02299554773975
 30
0.0
 40
38.0
100
AcDbArc
 50
157.0805049999997
 51
215.3343960000001
  0
LINE
  5
5FE
330
2
100
AcDbEntity
  8
0
100
AcDbLine
 10
350.196918654439
 20
58.32299654773976
 30
0.0
 11
350.196918654439
 21
142.4165045477397
 31
0.0
  0
LINE
  5
5FF
330
2
100
AcDbEntity
  8
0
100
AcDbLine
 10
288.1969306544389
 20
58.32299654773976
 30
0.0
 11
288.196918654439
 21
142.4163975477397
 31
0.0
  0
LINE
  5
600
330
2
100
AcDbEntity
  8
CENTER
100
AcDbLine
 10
319.1969186544389
 20
40.32299554773977
 30
0.0
 11
319.1969186544389
 21
151.9230045477397
 31
0.0
  0
LINE
  5
601
330
2
100
AcDbEntity
  8
CENTER
100
AcDbLine
 10
274.196918654439
 20
90.02299554773975
 30
0.0
 11
364.196918654439
 21
90.02299554773975
 31
0.0
  0
LINE
  5
602
330
2
100
AcDbEntity
  8
0
100
AcDbLine
 10
272.196919654439
 20
47.32299554773976
 30
0.0
 11
366.196918654439
 21
47.32299554773976
 31
0.0
  0
LINE
  5
603
330
2
100
AcDbEntity
  8
HIDS
  6
SEKKEI_H
100
AcDbLine
 10
275.946919654439
 20
55.32299654773976
 30
0.0
 11
275.946919654439
 21
47.32299554773976
 31
0.0
  0
LINE
  5
604
330
2
100
AcDbEntity
  8
HIDS
  6
SEKKEI_H
100
AcDbLine
 10
282.446919654439
 20
55.32299654773976
 30
0.0
 11
282.446919654439
 21
47.32299554773976
 31
0.0
  0
LINE
  5
605
330
2
100
AcDbEntity
  8
CENTER
100
AcDbLine
 10
279.196919654439
 20
58.82299654773976
 30
0.0
 11
279.196919654439
 21
43.82299554773976
 31
0.0
  0
LINE
  5
606
330
2
100
AcDbEntity
  8
0
100
AcDbLine
 10
272.196919654439
 20
53.32299554773976
 30
0.0
 11
272.196919654439
 21
47.32299554773976
 31
0.0
  0
LINE
  5
607
330
2
100
AcDbEntity
  8
0
100
AcDbLine
 10
285.1969376544389
 20
55.32299654773976
 30
0.0
 11
274.196919654439
 21
55.32299654773976
 31
0.0
  0
ARC
  5
608
330
2
100
AcDbEntity
  8
0
100
AcDbCircle
 10
274.1969306544389
 20
53.32300554773977
 30
0.0
 40
2.0
100
AcDbArc
 50
90.0
 51
180.0
  0
ARC
  5
609
330
2
100
AcDbEntity
  8
0
100
AcDbCircle
 10
285.1969306544389
 20
58.32299654773976
 30
0.0
 40
3.0
100
AcDbArc
 50
270.0
 51
0.0
  0
LINE
  5
60A
330
2
100
AcDbEntity
  8
HIDS
  6
SEKKEI_H
100
AcDbLine
 10
355.946918654439
 20
55.32299654773976
 30
0.0
 11
355.946918654439
 21
47.32299554773976
 31
0.0
  0
LINE
  5
60B
330
2
100
AcDbEntity
  8
HIDS
  6
SEKKEI_H
100
AcDbLine
 10
362.446918654439
 20
55.32299654773976
 30
0.0
 11
362.446918654439
 21
47.32299554773976
 31
0.0
  0
LINE
  5
60C
330
2
100
AcDbEntity
  8
CENTER
100
AcDbLine
 10
359.1969186544389
 20
58.82299654773976
 30
0.0
 11
359.1969186544389
 21
43.82299554773976
 31
0.0
  0
LINE
  5
60D
330
2
100
AcDbEntity
  8
0
100
AcDbLine
 10
366.196918654439
 20
53.32299554773976
 30
0.0
 11
366.196918654439
 21
47.32299554773976
 31
0.0
  0
ARC
  5
60E
330
2
100
AcDbEntity
  8
0
100
AcDbCircle
 10
353.196918654439
 20
58.32299654773976
 30
0.0
 40
3.0
100
AcDbArc
 50
180.0
 51
270.0
  0
LINE
  5
60F
330
2
100
AcDbEntity
  8
0
100
AcDbLine
 10
353.196918654439
 20
55.32299654773976
 30
0.0
 11
364.196918654439
 21
55.32299654773976
 31
0.0
  0
ARC
  5
610
330
2
100
AcDbEntity
  8
0
100
AcDbCircle
 10
364.196941654439
 20
53.32298554773976
 30
0.0
 40
2.0
100
AcDbArc
 50
0.0
 51
90.0
  0
LINE
  5
611
330
2
100
AcDbEntity
  8
0
100
AcDbLine
 10
289.5887286544389
 20
125.6230085477397
 30
0.0
 11
348.838695654439
 21
125.6230085477397
 31
0.0
  0
LINE
  5
612
330
2
100
AcDbEntity
  8
0
100
AcDbLine
 10
348.231815654439
 20
144.4162065477397
 30
0.0
 11
319.1969186544389
 21
144.9230045477397
 31
0.0
  0
LINE
  5
613
330
2
100
AcDbEntity
  8
CENTER
100
AcDbLine
 10
277.196919654439
 20
112.3229985477397
 30
0.0
 11
390.1969186544389
 21
112.3229985477397
 31
0.0
  0
LINE
  5
614
330
2
100
AcDbEntity
  8
0
100
AcDbLine
 10
284.1969196544389
 20
93.32299454773977
 30
0.0
 11
284.1969196544389
 21
131.3229985477397
 31
0.0
  0
LINE
  5
615
330
2
100
AcDbEntity
  8
0
100
AcDbLine
 10
285.196918654439
 20
92.32299454773977
 30
0.0
 11
286.200918652434
 21
92.32299454773977
 31
0.0
  0
ARC
  5
616
330
2
100
AcDbEntity
  8
0
100
AcDbCircle
 10
285.196918654439
 20
93.32299054773974
 30
0.0
 40
1.0
100
AcDbArc
 50
180.0
 51
270.0
  0
LINE
  5
617
330
2
100
AcDbEntity
  8
0
100
AcDbLine
 10
285.196918654439
 20
132.3229985477397
 30
0.0
 11
286.196918654439
 21
132.3229985477397
 31
0.0
  0
ARC
  5
618
330
2
100
AcDbEntity
  8
0
100
AcDbCircle
 10
285.196918654439
 20
131.3229985477397
 30
0.0
 40
1.0
100
AcDbArc
 50
90.0
 51
180.0
  0
LINE
  5
619
330
2
100
AcDbEntity
  8
0
100
AcDbLine
 10
290.1620086544389
 20
144.4160925477397
 30
0.0
 11
319.1969186544389
 21
144.9230045477397
 31
0.0
  0
ARC
  5
61A
330
2
100
AcDbEntity
  8
0
100
AcDbCircle
 10
290.1969306544389
 20
142.4164045477397
 30
0.0
 40
2.0
100
AcDbArc
 50
91.00064099999967
 51
180.0
  0
LINE
  5
61B
330
2
100
AcDbEntity
  8
0
100
AcDbLine
 10
383.196918654439
 20
109.8229985477397
 30
0.0
 11
361.696941654439
 21
109.8229985477397
 31
0.0
  0
LINE
  5
61C
330
2
100
AcDbEntity
  8
0
100
AcDbLine
 10
383.196918654439
 20
114.8229985477397
 30
0.0
 11
361.696895654439
 21
114.8229985477397
 31
0.0
  0
LINE
  5
61D
330
2
100
AcDbEntity
  8
0
100
AcDbLine
 10
383.196918654439
 20
104.8229985477397
 30
0.0
 11
356.196918654439
 21
104.8229985477397
 31
0.0
  0
LINE
  5
61E
330
2
100
AcDbEntity
  8
0
100
AcDbLine
 10
383.196918654439
 20
119.8229985477397
 30
0.0
 11
356.196918654439
 21
119.8229985477397
 31
0.0
  0
ARC
  5
61F
330
2
100
AcDbEntity
  8
0
100
AcDbCircle
 10
361.696895654439
 20
112.3229825477397
 30
0.0
 40
2.5
100
AcDbArc
 50
90.0
 51
180.0
  0
LINE
  5
620
330
2
100
AcDbEntity
  8
0
100
AcDbLine
 10
356.196918654439
 20
120.8229985477397
 30
0.0
 11
356.196918654439
 21
103.8229985477397
 31
0.0
  0
LINE
  5
621
330
2
100
AcDbEntity
  8
0
100
AcDbLine
 10
354.196918654439
 20
93.32299454773977
 30
0.0
 11
354.196918654439
 21
131.3229985477397
 31
0.0
  0
LINE
  5
622
330
2
100
AcDbEntity
  8
0
100
AcDbLine
 10
353.196918654439
 20
92.32299454773977
 30
0.0
 11
352.1929186564439
 21
92.32299454773977
 31
0.0
  0
ARC
  5
623
330
2
100
AcDbEntity
  8
0
100
AcDbCircle
 10
353.196918654439
 20
93.32299054773974
 30
0.0
 40
1.0
100
AcDbArc
 50
270.0
 51
0.0
  0
ARC
  5
624
330
2
100
AcDbEntity
  8
0
100
AcDbCircle
 10
361.696918654439
 20
112.3229985477397
 30
0.0
 40
2.5
100
AcDbArc
 50
180.0
 51
270.0
  0
LINE
  5
625
330
2
100
AcDbEntity
  8
0
100
AcDbLine
 10
354.196918654439
 20
103.8229985477397
 30
0.0
 11
356.196918654439
 21
103.8229985477397
 31
0.0
  0
LINE
  5
626
330
2
100
AcDbEntity
  8
0
100
AcDbLine
 10
353.196918654439
 20
132.3229985477397
 30
0.0
 11
352.1969186544389
 21
132.3229985477397
 31
0.0
  0
LINE
  5
627
330
2
100
AcDbEntity
  8
0
100
AcDbLine
 10
354.196918654439
 20
120.8229985477397
 30
0.0
 11
356.196918654439
 21
120.8229985477397
 31
0.0
  0
ARC
  5
628
330
2
100
AcDbEntity
  8
0
100
AcDbCircle
 10
353.196918654439
 20
131.3229985477397
 30
0.0
 40
1.0
100
AcDbArc
 50
0.0
 51
90.0
  0
LINE
  5
629
330
2
100
AcDbEntity
  8
0
100
AcDbLine
 10
383.196918654439
 20
119.8229985477397
 30
0.0
 11
383.196918654439
 21
104.8229985477397
 31
0.0
  0
ARC
  5
62A
330
2
100
AcDbEntity
  8
0
100
AcDbCircle
 10
348.1969266544389
 20
142.4165045477397
 30
0.0
 40
2.0
100
AcDbArc
 50
0.0
 51
89.00013700000007
  0
LINE
  5
62B
330
2
100
AcDbEntity
  8
0
100
AcDbLine
 10
525.9594493238041
 20
59.77399454773976
 30
0.0
 11
597.7482373238039
 21
59.77399454773976
 31
0.0
  0
LINE
  5
62C
330
2
100
AcDbEntity
  8
0
100
AcDbLine
 10
525.632346323804
 20
120.2719955477397
 30
0.0
 11
597.7482373238039
 21
120.2719955477397
 31
0.0
  0
LINE
  5
62D
330
2
100
AcDbEntity
  8
0
100
AcDbLine
 10
597.7482373238039
 20
52.02299554773976
 30
0.0
 11
525.248252323804
 21
52.02299554773976
 31
0.0
  0
LINE
  5
62E
330
2
100
AcDbEntity
  8
0
100
AcDbLine
 10
597.7482373238039
 20
128.0229955477397
 30
0.0
 11
521.8285443238041
 21
128.0229955477397
 31
0.0
  0
LINE
  5
62F
330
2
100
AcDbEntity
  8
CENTER
100
AcDbLine
 10
625.248237323804
 20
90.02299554773975
 30
0.0
 11
509.5655433238041
 21
90.02299554773975
 31
0.0
  0
LINE
  5
630
330
2
100
AcDbEntity
  8
CENTER
100
AcDbLine
 10
482.7482523238041
 20
151.9229965477397
 30
0.0
 11
482.7482523238041
 21
40.32299554773977
 31
0.0
  0
LINE
  5
631
330
2
100
AcDbEntity
  8
0
100
AcDbLine
 10
525.248252323804
 20
123.0235975477397
 30
0.0
 11
525.248252323804
 21
47.32299554773976
 31
0.0
  0
LINE
  5
632
330
2
100
AcDbEntity
  8
0
100
AcDbLine
 10
440.2482523238041
 20
123.0235755477397
 30
0.0
 11
440.2482523238041
 21
47.32299554773976
 31
0.0
  0
LINE
  5
633
330
2
100
AcDbEntity
  8
0
100
AcDbLine
 10
479.560752323804
 20
85.88549454773977
 30
0.0
 11
485.935752323804
 21
85.88549454773977
 31
0.0
  0
LINE
  5
634
330
2
100
AcDbEntity
  8
0
100
AcDbLine
 10
479.560752323804
 20
83.89330654773976
 30
0.0
 11
480.268348323804
 21
83.89330654773976
 31
0.0
  0
LINE
  5
635
330
2
100
AcDbEntity
  8
0
100
AcDbLine
 10
523.248252323804
 20
55.32299654773976
 30
0.0
 11
442.248252323804
 21
55.32299654773976
 31
0.0
  0
LINE
  5
636
330
2
100
AcDbEntity
  8
0
100
AcDbLine
 10
525.248252323804
 20
47.32299554773976
 30
0.0
 11
440.2482523238041
 21
47.32299554773976
 31
0.0
  0
LINE
  5
637
330
2
100
AcDbEntity
  8
HIDS
  6
SEKKEI_H
100
AcDbLine
 10
451.9982523238041
 20
55.32299654773976
 30
0.0
 11
451.9982523238041
 21
47.32299554773976
 31
0.0
  0
LINE
  5
638
330
2
100
AcDbEntity
  8
HIDS
  6
SEKKEI_H
100
AcDbLine
 10
445.498252323804
 20
55.32299654773976
 30
0.0
 11
445.498252323804
 21
47.32299554773976
 31
0.0
  0
LINE
  5
639
330
2
100
AcDbEntity
  8
CENTER
100
AcDbLine
 10
448.7482523238041
 20
58.82299654773976
 30
0.0
 11
448.7482523238039
 21
43.82299554773976
 31
0.0
  0
ARC
  5
63A
330
2
100
AcDbEntity
  8
0
100
AcDbCircle
 10
442.248252323804
 20
53.32298554773976
 30
0.0
 40
2.0
100
AcDbArc
 50
90.0
 51
180.0
  0
LINE
  5
63B
330
2
100
AcDbEntity
  8
0
100
AcDbLine
 10
475.451850323804
 20
80.83031454773976
 30
0.0
 11
475.451850323804
 21
79.43577554773975
 31
0.0
  0
LINE
  5
63C
330
2
100
AcDbEntity
  8
0
100
AcDbLine
 10
475.451850323804
 20
79.83422454773975
 30
0.0
 11
475.451850323804
 21
80.63109654773976
 31
0.0
  0
LINE
  5
63D
330
2
100
AcDbEntity
  8
0
100
AcDbLine
 10
471.069053323804
 20
83.72297354773976
 30
0.0
 11
471.069053323804
 21
78.21390554773976
 31
0.0
  0
LINE
  5
63E
330
2
100
AcDbEntity
  8
0
100
AcDbLine
 10
469.998252323804
 20
84.40349254773975
 30
0.0
 11
469.998252323804
 21
77.56384654773976
 31
0.0
  0
LINE
  5
63F
330
2
100
AcDbEntity
  8
0
100
AcDbLine
 10
476.373252323804
 20
81.87621354773975
 30
0.0
 11
476.373252323804
 21
76.32299454773977
 31
0.0
  0
LINE
  5
640
330
2
100
AcDbEntity
  8
0
100
AcDbLine
 10
471.2280493238041
 20
76.32299454773977
 30
0.0
 11
474.5433423238041
 21
76.32299454773977
 31
0.0
  0
LINE
  5
641
330
2
100
AcDbEntity
  8
0
100
AcDbLine
 10
471.069053323804
 20
78.21390554773976
 30
0.0
 11
471.800346323804
 21
77.44359654773976
 31
0.0
  0
LINE
  5
642
330
2
100
AcDbEntity
  8
0
100
AcDbLine
 10
469.998252323804
 20
77.56384654773976
 30
0.0
 11
471.2280493238041
 21
76.32299454773977
 31
0.0
  0
LINE
  5
643
330
2
100
AcDbEntity
  8
0
100
AcDbLine
 10
475.451850323804
 20
76.32299454773977
 30
0.0
 11
476.373252323804
 21
76.32299454773977
 31
0.0
  0
LINE
  5
644
330
2
100
AcDbEntity
  8
0
100
AcDbLine
 10
475.451850323804
 20
77.08525454773976
 30
0.0
 11
474.5433423238041
 21
76.32299454773977
 31
0.0
  0
LINE
  5
645
330
2
100
AcDbEntity
  8
0
100
AcDbLine
 10
475.451850323804
 20
77.08525454773976
 30
0.0
 11
475.451850323804
 21
76.32299454773977
 31
0.0
  0
ARC
  5
646
330
2
100
AcDbEntity
  8
0
100
AcDbCircle
 10
473.459647323804
 20
79.43577554773975
 30
0.0
 40
1.992186999999999
100
AcDbArc
 50
270.0002139999998
 51
0.0001089999998967
  0
LINE
  5
647
330
2
100
AcDbEntity
  8
0
100
AcDbLine
 10
473.459647323804
 20
77.44359654773976
 30
0.0
 11
471.800346323804
 21
77.44359654773976
 31
0.0
  0
LINE
  5
648
330
2
100
AcDbEntity
  8
0
100
AcDbLine
 10
471.155646323804
 20
85.88549454773977
 30
0.0
 11
475.4422523238041
 21
85.88549454773977
 31
0.0
  0
LINE
  5
649
330
2
100
AcDbEntity
  8
0
100
AcDbLine
 10
471.788856323804
 20
84.61547454773976
 30
0.0
 11
471.069053323804
 21
83.72297354773976
 31
0.0
  0
LINE
  5
64A
330
2
100
AcDbEntity
  8
0
100
AcDbLine
 10
471.155646323804
 20
85.88549454773977
 30
0.0
 11
469.998252323804
 21
84.40349254773975
 31
0.0
  0
LINE
  5
64B
330
2
100
AcDbEntity
  8
0
100
AcDbLine
 10
473.783454323804
 20
81.87621354773975
 30
0.0
 11
476.373252323804
 21
81.87621354773975
 31
0.0
  0
LINE
  5
64C
330
2
100
AcDbEntity
  8
0
100
AcDbLine
 10
475.451850323804
 20
83.89330654773976
 30
0.0
 11
476.373252323804
 21
83.89330654773976
 31
0.0
  0
LINE
  5
64D
330
2
100
AcDbEntity
  8
0
100
AcDbLine
 10
475.4422523238041
 20
85.88549454773977
 30
0.0
 11
476.373252323804
 21
84.85235254773977
 31
0.0
  0
LINE
  5
64E
330
2
100
AcDbEntity
  8
0
100
AcDbLine
 10
475.451850323804
 20
84.04402554773975
 30
0.0
 11
475.451850323804
 21
83.89330654773976
 31
0.0
  0
LINE
  5
64F
330
2
100
AcDbEntity
  8
0
100
AcDbLine
 10
473.783454323804
 20
81.87621354773975
 30
0.0
 11
473.783454323804
 21
80.83031454773976
 31
0.0
  0
LINE
  5
650
330
2
100
AcDbEntity
  8
0
100
AcDbLine
 10
475.451850323804
 20
80.83031454773976
 30
0.0
 11
473.783454323804
 21
80.83031454773976
 31
0.0
  0
LINE
  5
651
330
2
100
AcDbEntity
  8
0
100
AcDbLine
 10
475.451850323804
 20
84.04402554773975
 30
0.0
 11
474.848655323804
 21
84.61547454773976
 31
0.0
  0
LINE
  5
652
330
2
100
AcDbEntity
  8
0
100
AcDbLine
 10
474.860755323804
 20
84.61547454773976
 30
0.0
 11
471.788856323804
 21
84.61547454773976
 31
0.0
  0
LINE
  5
653
330
2
100
AcDbEntity
  8
0
100
AcDbLine
 10
476.373252323804
 20
84.85235254773977
 30
0.0
 11
476.373252323804
 21
83.89330654773976
 31
0.0
  0
LINE
  5
654
330
2
100
AcDbEntity
  8
0
100
AcDbLine
 10
479.560752323804
 20
83.89330654773976
 30
0.0
 11
479.560752323804
 21
85.88549454773977
 31
0.0
  0
LINE
  5
655
330
2
100
AcDbEntity
  8
HIDS
  6
SEKKEI_H
100
AcDbLine
 10
519.998252323804
 20
55.32299654773976
 30
0.0
 11
519.998252323804
 21
47.32299554773976
 31
0.0
  0
LINE
  5
656
330
2
100
AcDbEntity
  8
HIDS
  6
SEKKEI_H
100
AcDbLine
 10
513.4982523238041
 20
55.32299654773976
 30
0.0
 11
513.4982523238041
 21
47.32299554773976
 31
0.0
  0
LINE
  5
657
330
2
100
AcDbEntity
  8
CENTER
100
AcDbLine
 10
516.7482523238038
 20
58.82299654773976
 30
0.0
 11
516.7482523238041
 21
43.82299554773976
 31
0.0
  0
LINE
  5
658
330
2
100
AcDbEntity
  8
0
100
AcDbLine
 10
492.7325513238041
 20
80.79296154773976
 30
0.0
 11
494.227653323804
 21
77.31908454773975
 31
0.0
  0
LINE
  5
659
330
2
100
AcDbEntity
  8
0
100
AcDbLine
 10
493.6500463238041
 20
80.87960854773976
 30
0.0
 11
495.2299423238041
 21
77.31908454773975
 31
0.0
  0
LINE
  5
65A
330
2
100
AcDbEntity
  8
0
100
AcDbLine
 10
490.692054323804
 20
80.79296154773976
 30
0.0
 11
490.692054323804
 21
77.31908454773975
 31
0.0
  0
LINE
  5
65B
330
2
100
AcDbEntity
  8
0
100
AcDbLine
 10
489.596351323804
 20
84.71508454773976
 30
0.0
 11
489.596351323804
 21
77.31908454773975
 31
0.0
  0
LINE
  5
65C
330
2
100
AcDbEntity
  8
0
100
AcDbLine
 10
483.321052323804
 20
84.71508454773976
 30
0.0
 11
483.321052323804
 21
77.36888554773975
 31
0.0
  0
LINE
  5
65D
330
2
100
AcDbEntity
  8
0
100
AcDbLine
 10
482.1256483238041
 20
84.71508454773976
 30
0.0
 11
482.1256483238041
 21
77.36888554773975
 31
0.0
  0
LINE
  5
65E
330
2
100
AcDbEntity
  8
0
100
AcDbLine
 10
481.6525493238041
 20
77.36888554773975
 30
0.0
 11
482.1256483238041
 21
77.36888554773975
 31
0.0
  0
LINE
  5
65F
330
2
100
AcDbEntity
  8
0
100
AcDbLine
 10
481.6525493238041
 20
76.32299454773977
 30
0.0
 11
483.7194433238041
 21
76.32299454773977
 31
0.0
  0
LINE
  5
660
330
2
100
AcDbEntity
  8
0
100
AcDbLine
 10
483.7194433238041
 20
77.36888554773975
 30
0.0
 11
483.7194433238041
 21
76.32299454773977
 31
0.0
  0
LINE
  5
661
330
2
100
AcDbEntity
  8
0
100
AcDbLine
 10
481.6525493238041
 20
77.36888554773975
 30
0.0
 11
481.6525493238041
 21
76.32299454773977
 31
0.0
  0
LINE
  5
662
330
2
100
AcDbEntity
  8
0
100
AcDbLine
 10
483.321052323804
 20
77.36888554773975
 30
0.0
 11
483.7194433238041
 21
77.36888554773975
 31
0.0
  0
LINE
  5
663
330
2
100
AcDbEntity
  8
0
100
AcDbLine
 10
489.123252323804
 20
77.31908454773975
 30
0.0
 11
489.123252323804
 21
76.32299454773977
 31
0.0
  0
LINE
  5
664
330
2
100
AcDbEntity
  8
0
100
AcDbLine
 10
491.1278453238041
 20
77.31908454773975
 30
0.0
 11
491.1278453238041
 21
76.32299454773977
 31
0.0
  0
LINE
  5
665
330
2
100
AcDbEntity
  8
0
100
AcDbLine
 10
491.1278453238041
 20
76.32299454773977
 30
0.0
 11
489.123252323804
 21
76.32299454773977
 31
0.0
  0
LINE
  5
666
330
2
100
AcDbEntity
  8
0
100
AcDbLine
 10
490.692054323804
 20
77.31908454773975
 30
0.0
 11
491.1278453238041
 21
77.31908454773975
 31
0.0
  0
LINE
  5
667
330
2
100
AcDbEntity
  8
0
100
AcDbLine
 10
489.123252323804
 20
77.31908454773975
 30
0.0
 11
489.596351323804
 21
77.31908454773975
 31
0.0
  0
LINE
  5
668
330
2
100
AcDbEntity
  8
0
100
AcDbLine
 10
494.0290443238041
 20
77.31908454773975
 30
0.0
 11
494.0290443238041
 21
76.32299454773977
 31
0.0
  0
LINE
  5
669
330
2
100
AcDbEntity
  8
0
100
AcDbLine
 10
495.498252323804
 20
77.31908454773975
 30
0.0
 11
495.498252323804
 21
76.32299454773977
 31
0.0
  0
LINE
  5
66A
330
2
100
AcDbEntity
  8
0
100
AcDbLine
 10
494.0290443238041
 20
76.32299454773977
 30
0.0
 11
495.498252323804
 21
76.32299454773977
 31
0.0
  0
LINE
  5
66B
330
2
100
AcDbEntity
  8
0
100
AcDbLine
 10
495.2299423238041
 20
77.31908454773975
 30
0.0
 11
495.498252323804
 21
77.31908454773975
 31
0.0
  0
LINE
  5
66C
330
2
100
AcDbEntity
  8
0
100
AcDbLine
 10
494.0290443238041
 20
77.31908454773975
 30
0.0
 11
494.227653323804
 21
77.31908454773975
 31
0.0
  0
LINE
  5
66D
330
2
100
AcDbEntity
  8
0
100
AcDbLine
 10
483.321052323804
 20
84.71508454773976
 30
0.0
 11
484.982047323804
 21
84.71508454773976
 31
0.0
  0
LINE
  5
66E
330
2
100
AcDbEntity
  8
0
100
AcDbLine
 10
482.1256483238041
 20
84.71508454773976
 30
0.0
 11
480.610847323804
 21
84.71508454773976
 31
0.0
  0
LINE
  5
66F
330
2
100
AcDbEntity
  8
0
100
AcDbLine
 10
480.610847323804
 20
84.71508454773976
 30
0.0
 11
480.268348323804
 21
83.89330654773976
 31
0.0
  0
LINE
  5
670
330
2
100
AcDbEntity
  8
0
100
AcDbLine
 10
484.982047323804
 20
84.71508454773976
 30
0.0
 11
485.270744323804
 21
83.89330654773976
 31
0.0
  0
LINE
  5
671
330
2
100
AcDbEntity
  8
0
100
AcDbLine
 10
485.270744323804
 20
83.89330654773976
 30
0.0
 11
485.935752323804
 21
83.89330654773976
 31
0.0
  0
LINE
  5
672
330
2
100
AcDbEntity
  8
0
100
AcDbLine
 10
485.935752323804
 20
83.89330654773976
 30
0.0
 11
485.935752323804
 21
85.88549454773977
 31
0.0
  0
ARC
  5
673
330
2
100
AcDbEntity
  8
0
100
AcDbCircle
 10
492.945747323804
 20
83.33300454773976
 30
0.0
 40
2.55249
100
AcDbArc
 50
286.0181269999995
 51
90.00350999999964
  0
LINE
  5
674
330
2
100
AcDbEntity
  8
0
100
AcDbLine
 10
490.692054323804
 20
81.78882654773975
 30
0.0
 11
493.146751323804
 21
81.78882654773975
 31
0.0
  0
LINE
  5
675
330
2
100
AcDbEntity
  8
0
100
AcDbLine
 10
490.692054323804
 20
84.71508454773976
 30
0.0
 11
493.666953323804
 21
84.71314654773976
 31
0.0
  0
LINE
  5
676
330
2
100
AcDbEntity
  8
0
100
AcDbLine
 10
490.692054323804
 20
80.79296154773976
 30
0.0
 11
492.7325513238041
 21
80.79296154773976
 31
0.0
  0
LINE
  5
677
330
2
100
AcDbEntity
  8
0
100
AcDbLine
 10
489.123252323804
 20
84.71508454773976
 30
0.0
 11
489.596351323804
 21
84.71508454773976
 31
0.0
  0
LINE
  5
678
330
2
100
AcDbEntity
  8
0
100
AcDbLine
 10
490.692054323804
 20
84.71508454773976
 30
0.0
 11
490.692054323804
 21
81.78882654773975
 31
0.0
  0
LINE
  5
679
330
2
100
AcDbEntity
  8
0
100
AcDbLine
 10
489.123252323804
 20
85.88549454773977
 30
0.0
 11
489.123252323804
 21
84.71508454773976
 31
0.0
  0
LINE
  5
67A
330
2
100
AcDbEntity
  8
0
100
AcDbLine
 10
489.123252323804
 20
85.88549454773977
 30
0.0
 11
492.945747323804
 21
85.88549454773977
 31
0.0
  0
ARC
  5
67B
330
2
100
AcDbEntity
  8
0
100
AcDbCircle
 10
492.945747323804
 20
83.33300454773976
 30
0.0
 40
1.557193
100
AcDbArc
 50
277.4147260000004
 51
62.41184999999949
  0
ARC
  5
67C
330
2
100
AcDbEntity
  8
0
100
AcDbCircle
 10
523.248252323804
 20
53.32300554773977
 30
0.0
 40
2.0
100
AcDbArc
 50
0.0
 51
90.0
  0
CIRCLE
  5
67D
330
2
100
AcDbEntity
  8
0
100
AcDbCircle
 10
482.7482523238041
 20
112.3229985477397
 30
0.0
 40
20.0
  0
ARC
  5
67E
330
2
100
AcDbEntity
  8
0
100
AcDbCircle
 10
482.7482523238041
 20
112.3229985477397
 30
0.0
 40
7.5
100
AcDbArc
 50
199.4712070000002
 51
160.5287929999997
  0
LINE
  5
67F
330
2
100
AcDbEntity
  8
0
100
AcDbLine
 10
496.168754323804
 20
144.9229965477397
 30
0.0
 11
469.327750323804
 21
144.9229965477397
 31
0.0
  0
LINE
  5
680
330
2
100
AcDbEntity
  8
CENTER
100
AcDbLine
 10
509.748252323804
 20
112.3229985477397
 30
0.0
 11
455.748252323804
 21
112.3229985477397
 31
0.0
  0
LINE
  5
681
330
2
100
AcDbEntity
  8
0
100
AcDbLine
 10
442.375953323804
 20
127.1162565477397
 30
0.0
 11
466.4554513238041
 21
144.0156555477397
 31
0.0
  0
ARC
  5
682
330
2
100
AcDbEntity
  8
0
100
AcDbCircle
 10
445.2482523238041
 20
123.0235755477397
 30
0.0
 40
5.0
100
AcDbArc
 50
125.0615999999999
 51
180.0
  0
LINE
  5
683
330
2
100
AcDbEntity
  8
0
100
AcDbLine
 10
478.2482523238041
 20
109.8229985477397
 30
0.0
 11
478.2482523238041
 21
114.8229985477397
 31
0.0
  0
LINE
  5
684
330
2
100
AcDbEntity
  8
0
100
AcDbLine
 10
473.248252323804
 20
114.8229985477397
 30
0.0
 11
473.248252323804
 21
109.8229985477397
 31
0.0
  0
LINE
  5
685
330
2
100
AcDbEntity
  8
0
100
AcDbLine
 10
478.2482523238041
 20
109.8229985477397
 30
0.0
 11
473.248252323804
 21
109.8229985477397
 31
0.0
  0
LINE
  5
686
330
2
100
AcDbEntity
  8
0
100
AcDbLine
 10
478.2482523238041
 20
114.8229985477397
 30
0.0
 11
473.248252323804
 21
114.8229985477397
 31
0.0
  0
ARC
  5
687
330
2
100
AcDbEntity
  8
0
100
AcDbCircle
 10
469.327644323804
 20
139.9229895477397
 30
0.0
 40
5.0
100
AcDbArc
 50
90.0
 51
125.0615999999999
  0
LINE
  5
688
330
2
100
AcDbEntity
  8
0
100
AcDbLine
 10
523.1205513238039
 20
127.1162565477397
 30
0.0
 11
499.0410533238041
 21
144.0156485477397
 31
0.0
  0
ARC
  5
689
330
2
100
AcDbEntity
  8
0
100
AcDbCircle
 10
520.2482523238041
 20
123.0236135477397
 30
0.0
 40
5.0
100
AcDbArc
 50
0.0
 51
54.93769800000007
  0
ARC
  5
68A
330
2
100
AcDbEntity
  8
0
100
AcDbCircle
 10
496.168754323804
 20
139.9230045477397
 30
0.0
 40
5.0
100
AcDbArc
 50
54.93780099999962
 51
90.0
  0
LINE
  5
68B
330
2
100
AcDbEntity
  8
0
100
AcDbLine
 10
617.7482373238039
 20
55.02299554773975
 30
0.0
 11
617.7482373238039
 21
125.0229955477397
 31
0.0
  0
LINE
  5
68C
330
2
100
AcDbEntity
  8
0
100
AcDbLine
 10
618.2482373238039
 20
58.02299554773975
 30
0.0
 11
618.2482373238039
 21
122.0229955477397
 31
0.0
  0
LINE
  5
68D
330
2
100
AcDbEntity
  8
0
100
AcDbLine
 10
597.7482373238039
 20
52.02299554773976
 30
0.0
 11
597.7482373238039
 21
128.0229955477397
 31
0.0
  0
ARC
  5
68E
330
2
100
AcDbEntity
  8
0
100
AcDbCircle
 10
614.2841563238039
 20
55.02298554773978
 30
0.0
 40
3.0
100
AcDbArc
 50
270.0
 51
330.0003969999997
  0
LINE
  5
68F
330
2
100
AcDbEntity
  8
0
100
AcDbLine
 10
597.7482373238039
 20
59.77399454773976
 30
0.0
 11
616.166663323804
 21
59.77399454773976
 31
0.0
  0
LINE
  5
690
330
2
100
AcDbEntity
  8
0
100
AcDbLine
 10
614.2841563238039
 20
52.02299554773976
 30
0.0
 11
597.7482373238039
 21
52.02299554773976
 31
0.0
  0
LINE
  5
691
330
2
100
AcDbEntity
  8
0
100
AcDbLine
 10
616.8822393238039
 20
53.52300554773975
 30
0.0
 11
617.7482373238039
 21
55.02299554773975
 31
0.0
  0
LINE
  5
692
330
2
100
AcDbEntity
  8
0
100
AcDbLine
 10
618.2482373238039
 20
58.02299554773975
 30
0.0
 11
617.7482373238039
 21
57.52299554773975
 31
0.0
  0
ARC
  5
693
330
2
100
AcDbEntity
  8
0
100
AcDbCircle
 10
614.2841563238039
 20
125.0230025477397
 30
0.0
 40
3.0
100
AcDbArc
 50
29.99959900000014
 51
90.0
  0
LINE
  5
694
330
2
100
AcDbEntity
  8
0
100
AcDbLine
 10
598.0482553238041
 20
141.8979955477397
 30
0.0
 11
598.0482553238041
 21
129.5229955477397
 31
0.0
  0
LINE
  5
695
330
2
100
AcDbEntity
  8
0
100
AcDbLine
 10
603.448249323804
 20
141.0854955477397
 30
0.0
 11
603.448249323804
 21
129.5229955477397
 31
0.0
  0
LINE
  5
696
330
2
100
AcDbEntity
  8
0
100
AcDbLine
 10
601.648261323804
 20
143.1479955477397
 30
0.0
 11
601.648261323804
 21
129.5229955477397
 31
0.0
  0
LINE
  5
697
330
2
100
AcDbEntity
  8
0
100
AcDbLine
 10
599.8482433238041
 20
142.5229955477397
 30
0.0
 11
599.8482433238041
 21
129.5229955477397
 31
0.0
  0
LINE
  5
698
330
2
100
AcDbEntity
  8
0
100
AcDbLine
 10
604.248237323804
 20
129.5229955477397
 30
0.0
 11
597.2482373238039
 21
129.5229955477397
 31
0.0
  0
LINE
  5
699
330
2
100
AcDbEntity
  8
0
100
AcDbLine
 10
616.166663323804
 20
120.2719955477397
 30
0.0
 11
597.7482373238039
 21
120.2719955477397
 31
0.0
  0
LINE
  5
69A
330
2
100
AcDbEntity
  8
0
100
AcDbLine
 10
614.2841563238039
 20
128.0229955477397
 30
0.0
 11
597.7482373238039
 21
128.0229955477397
 31
0.0
  0
LINE
  5
69B
330
2
100
AcDbEntity
  8
0
100
AcDbLine
 10
597.2482373238039
 20
129.5229955477397
 30
0.0
 11
597.2482373238039
 21
128.0229955477397
 31
0.0
  0
LINE
  5
69C
330
2
100
AcDbEntity
  8
0
100
AcDbLine
 10
604.248237323804
 20
129.5229955477397
 30
0.0
 11
604.248237323804
 21
128.0229955477397
 31
0.0
  0
LINE
  5
69D
330
2
100
AcDbEntity
  8
HOJO
100
AcDbLine
 10
598.0482553238041
 20
141.8979955477397
 30
0.0
 11
599.8472363238041
 21
141.4502875477397
 31
0.0
  0
LINE
  5
69E
330
2
100
AcDbEntity
  8
HOJO
100
AcDbLine
 10
603.448249323804
 20
141.0854955477397
 30
0.0
 11
601.648261323804
 21
141.7104955477397
 31
0.0
  0
LINE
  5
69F
330
2
100
AcDbEntity
  8
HOJO
100
AcDbLine
 10
601.648261323804
 20
143.1479955477397
 30
0.0
 11
599.8482433238041
 21
142.5229955477397
 31
0.0
  0
LINE
  5
6A0
330
2
100
AcDbEntity
  8
0
100
AcDbLine
 10
618.2482373238039
 20
122.0229955477397
 30
0.0
 11
617.7482373238039
 21
122.5229955477397
 31
0.0
  0
LINE
  5
6A1
330
2
100
AcDbEntity
  8
0
100
AcDbLine
 10
616.8822393238039
 20
126.5229875477397
 30
0.0
 11
617.7482373238039
 21
125.0229955477397
 31
0.0
  0
LINE
  5
6A2
330
2
100
AcDbEntity
  8
0
100
AcDbLine
 10
57.80248131997587
 20
244.0905036541124
 30
0.0
 11
133.7221443199759
 21
244.0905036541124
 31
0.0
  0
LINE
  5
6A3
330
2
100
AcDbEntity
  8
0
100
AcDbLine
 10
57.80248131997587
 20
229.0904886541123
 30
0.0
 11
128.302466319976
 21
229.0904886541123
 31
0.0
  0
LINE
  5
6A4
330
2
100
AcDbEntity
  8
0
100
AcDbLine
 10
57.80248131997587
 20
290.0905036541124
 30
0.0
 11
133.7221443199759
 21
290.0905036541124
 31
0.0
  0
LINE
  5
6A5
330
2
100
AcDbEntity
  8
0
100
AcDbLine
 10
128.302466319976
 20
305.0905036541124
 30
0.0
 11
57.80248131997587
 21
305.0905036541124
 31
0.0
  0
LINE
  5
6A6
330
2
100
AcDbEntity
  8
CENTER
100
AcDbLine
 10
30.30248131997601
 20
267.0905036541124
 30
0.0
 11
222.3024663199758
 21
267.0905036541124
 31
0.0
  0
LINE
  5
6A7
330
2
100
AcDbEntity
  8
0
100
AcDbLine
 10
133.7221443199759
 20
246.0905036541124
 30
0.0
 11
133.7221443199759
 21
288.0907776541123
 31
0.0
  0
LINE
  5
6A8
330
2
100
AcDbEntity
  8
0
100
AcDbLine
 10
157.8024663199759
 20
296.1254006541124
 30
0.0
 11
157.8024663199759
 21
238.0555916541123
 31
0.0
  0
LINE
  5
6A9
330
2
100
AcDbEntity
  8
0
100
AcDbLine
 10
187.8024663199759
 20
296.1254006541124
 30
0.0
 11
187.8024663199759
 21
238.0555916541123
 31
0.0
  0
LINE
  5
6AA
330
2
100
AcDbEntity
  8
0
100
AcDbLine
 10
214.5335303199759
 20
223.0381506541123
 30
0.0
 11
215.3024663199758
 21
267.0905036541124
 31
0.0
  0
LINE
  5
6AB
330
2
100
AcDbEntity
  8
CENTER
100
AcDbLine
 10
172.8024663199759
 20
338.0905036541123
 30
0.0
 11
172.8024663199759
 21
213.0904886541124
 31
0.0
  0
LINE
  5
6AC
330
2
100
AcDbEntity
  8
0
100
AcDbLine
 10
164.3024663199759
 20
304.0905036541124
 30
0.0
 11
181.3024663199758
 21
304.0905036541124
 31
0.0
  0
LINE
  5
6AD
330
2
100
AcDbEntity
  8
0
100
AcDbLine
 10
165.302466319976
 20
331.0905036541123
 30
0.0
 11
182.3024663199759
 21
331.0905036541123
 31
0.0
  0
LINE
  5
6AE
330
2
100
AcDbEntity
  8
0
100
AcDbLine
 10
191.8024663199759
 20
302.0905036541124
 30
0.0
 11
153.8024663199759
 21
302.0905036541124
 31
0.0
  0
LINE
  5
6AF
330
2
100
AcDbEntity
  8
0
100
AcDbLine
 10
132.8089663199759
 20
298.0905036541124
 30
0.0
 11
212.7959663199758
 21
298.0905036541124
 31
0.0
  0
LINE
  5
6B0
330
2
100
AcDbEntity
  8
0
100
AcDbLine
 10
181.3024663199758
 20
304.0905036541124
 30
0.0
 11
181.3024663199758
 21
302.0905036541124
 31
0.0
  0
LINE
  5
6B2
330
2
100
AcDbEntity
  8
0
100
AcDbLine
 10
214.5335303199759
 20
311.1428566541123
 30
0.0
 11
215.3024663199758
 21
267.0905036541124
 31
0.0
  0
LINE
  5
6B3
330
2
100
AcDbEntity
  8
0
100
AcDbLine
 10
182.3024663199759
 20
314.0905036541123
 30
0.0
 11
211.5339883199758
 21
314.0905036541123
 31
0.0
  0
CIRCLE
  5
6B5
330
2
100
AcDbEntity
  8
0
100
AcDbCircle
 10
206.8024663199758
 20
307.0905036541124
 30
0.0
 40
3.25
  0
ARC
  5
6B6
330
2
100
AcDbEntity
  8
0
100
AcDbCircle
 10
211.5339883199758
 20
311.0905036541124
 30
0.0
 40
3.0
100
AcDbArc
 50
1.000000000000156
 51
90.0
  0
LINE
  5
6B7
330
2
100
AcDbEntity
  8
0
100
AcDbLine
 10
179.8734653199758
 20
307.0905036541123
 30
0.0
 11
179.8734653199759
 21
331.0905036541123
 31
0.0
  0
LINE
  5
6B8
330
2
100
AcDbEntity
  8
0
100
AcDbLine
 10
182.3024663199759
 20
307.0905036541123
 30
0.0
 11
182.3024663199759
 21
331.0905036541123
 31
0.0
  0
LINE
  5
6B9
330
2
100
AcDbEntity
  8
0
100
AcDbLine
 10
180.3024663199759
 20
307.0905036541123
 30
0.0
 11
180.3024663199759
 21
304.0905036541124
 31
0.0
  0
LINE
  5
6BA
330
2
100
AcDbEntity
  8
0
100
AcDbLine
 10
179.8734653199758
 20
307.0905036541123
 30
0.0
 11
182.3024663199759
 21
307.0905036541123
 31
0.0
  0
ARC
  5
6BB
330
2
100
AcDbEntity
  8
0
100
AcDbCircle
 10
212.7959663199758
 20
296.0905036541124
 30
0.0
 40
2.0
100
AcDbArc
 50
1.000000000000156
 51
90.0
  0
ARC
  5
6BC
330
2
100
AcDbEntity
  8
0
100
AcDbCircle
 10
191.8024663199759
 20
301.0905036541124
 30
0.0
 40
1.0
100
AcDbArc
 50
0.0
 51
90.0
  0
LINE
  5
6BD
330
2
100
AcDbEntity
  8
0
100
AcDbLine
 10
192.8024663199759
 20
301.0905036541124
 30
0.0
 11
192.8024663199759
 21
300.0905036541123
 31
0.0
  0
LINE
  5
6BE
330
2
100
AcDbEntity
  8
0
100
AcDbLine
 10
130.302466319976
 20
303.0905036541124
 30
0.0
 11
130.302466319976
 21
299.4426606541123
 31
0.0
  0
LINE
  5
6BF
330
2
100
AcDbEntity
  8
0
100
AcDbLine
 10
164.3024663199759
 20
304.0905036541124
 30
0.0
 11
164.3024663199759
 21
302.0905036541124
 31
0.0
  0
LINE
  5
6C1
330
2
100
AcDbEntity
  8
0
100
AcDbLine
 10
131.0712953199759
 20
311.1428566541123
 30
0.0
 11
130.8469153199758
 21
298.2864106541124
 31
0.0
  0
CIRCLE
  5
6C2
330
2
100
AcDbEntity
  8
0
100
AcDbCircle
 10
138.8024663199759
 20
307.0905036541124
 30
0.0
 40
3.25
  0
LINE
  5
6C4
330
2
100
AcDbEntity
  8
0
100
AcDbLine
 10
134.0708383199759
 20
314.0905036541123
 30
0.0
 11
165.3024663199759
 21
314.0905036541123
 31
0.0
  0
LINE
  5
6C5
330
2
100
AcDbEntity
  8
0
100
AcDbLine
 10
165.302466319976
 20
331.0905036541123
 30
0.0
 11
165.3024663199759
 21
304.0905036541124
 31
0.0
  0
ARC
  5
6C6
330
2
100
AcDbEntity
  8
0
100
AcDbCircle
 10
134.0708383199759
 20
311.0905036541124
 30
0.0
 40
3.0
100
AcDbArc
 50
90.0
 51
179.0001529999997
  0
ARC
  5
6C7
330
2
100
AcDbEntity
  8
0
100
AcDbCircle
 10
128.302466319976
 20
303.0905036541124
 30
0.0
 40
2.0
100
AcDbArc
 50
0.0
 51
90.0
  0
ARC
  5
6C8
330
2
100
AcDbEntity
  8
0
100
AcDbCircle
 10
153.8024663199759
 20
301.0905036541124
 30
0.0
 40
1.0
100
AcDbArc
 50
90.0
 51
180.0
  0
LINE
  5
6C9
330
2
100
AcDbEntity
  8
0
100
AcDbLine
 10
152.8024663199759
 20
301.0905036541124
 30
0.0
 11
152.8024663199759
 21
300.0905036541123
 31
0.0
  0
LINE
  5
6CA
330
2
100
AcDbEntity
  8
0
100
AcDbLine
 10
130.8091953199759
 20
296.1254006541124
 30
0.0
 11
130.7038793199758
 21
290.0905036541124
 31
0.0
  0
ARC
  5
6CB
330
2
100
AcDbEntity
  8
0
100
AcDbCircle
 10
132.8089663199759
 20
296.0905036541124
 30
0.0
 40
2.0
100
AcDbArc
 50
90.0
 51
178.9999999999998
  0
ARC
  5
6CC
330
2
100
AcDbEntity
  8
0
100
AcDbCircle
 10
131.802466319976
 20
299.4426606541123
 30
0.0
 40
1.5
100
AcDbArc
 50
180.0
 51
286.7126539999996
  0
LINE
  5
6CD
330
2
100
AcDbEntity
  8
0
100
AcDbLine
 10
134.0708383199759
 20
220.0904886541124
 30
0.0
 11
211.5339883199758
 21
220.0904886541124
 31
0.0
  0
LINE
  5
6CE
330
2
100
AcDbEntity
  8
0
100
AcDbLine
 10
132.8089663199759
 20
236.0905036541124
 30
0.0
 11
212.7959663199758
 21
236.0905036541124
 31
0.0
  0
CIRCLE
  5
6D0
330
2
100
AcDbEntity
  8
0
100
AcDbCircle
 10
206.8024663199758
 20
227.0904886541123
 30
0.0
 40
3.25
  0
ARC
  5
6D1
330
2
100
AcDbEntity
  8
0
100
AcDbCircle
 10
212.7959663199758
 20
238.0905036541124
 30
0.0
 40
2.0
100
AcDbArc
 50
270.0
 51
358.9999999999998
  0
ARC
  5
6D2
330
2
100
AcDbEntity
  8
0
100
AcDbCircle
 10
211.5339883199758
 20
223.0904886541123
 30
0.0
 40
3.0
100
AcDbArc
 50
270.0
 51
358.9999999999998
  0
CIRCLE
  5
6D4
330
2
100
AcDbEntity
  8
0
100
AcDbCircle
 10
138.8024663199759
 20
227.0904886541123
 30
0.0
 40
3.25
  0
LINE
  5
6D5
330
2
100
AcDbEntity
  8
CENTER
100
AcDbLine
 10
133.052466319976
 20
227.0904886541123
 30
0.0
 11
144.5524663199759
 21
227.0904886541123
 31
0.0
  0
ARC
  5
6D7
330
2
100
AcDbEntity
  8
0
100
AcDbCircle
 10
132.8089663199759
 20
238.0905036541124
 30
0.0
 40
2.0
100
AcDbArc
 50
181.0000000000001
 51
270.0
  0
LINE
  5
6D8
330
2
100
AcDbEntity
  8
0
100
AcDbLine
 10
130.8091953199759
 20
238.0556066541123
 30
0.0
 11
130.7038793199758
 21
244.0905036541124
 31
0.0
  0
LINE
  5
6D9
330
2
100
AcDbEntity
  8
CENTER
100
AcDbLine
 10
138.8024663199759
 20
221.3404886541123
 30
0.0
 11
138.8024663199759
 21
232.8404886541123
 31
0.0
  0
LINE
  5
6DA
330
2
100
AcDbEntity
  8
0
100
AcDbLine
 10
131.0712953199759
 20
223.0381506541123
 30
0.0
 11
130.8469153199758
 21
235.8945956541123
 31
0.0
  0
LINE
  5
6DB
330
2
100
AcDbEntity
  8
0
100
AcDbLine
 10
130.302466319976
 20
231.0905036541124
 30
0.0
 11
130.302466319976
 21
234.7383456541123
 31
0.0
  0
ARC
  5
6DC
330
2
100
AcDbEntity
  8
0
100
AcDbCircle
 10
131.802466319976
 20
234.7383456541123
 30
0.0
 40
1.5
100
AcDbArc
 50
73.28734600000043
 51
180.0
  0
ARC
  5
6DD
330
2
100
AcDbEntity
  8
0
100
AcDbCircle
 10
128.302466319976
 20
231.0905036541124
 30
0.0
 40
2.0
100
AcDbArc
 50
270.0
 51
0.0
  0
ARC
  5
6DE
330
2
100
AcDbEntity
  8
0
100
AcDbCircle
 10
134.0708383199759
 20
223.0904886541123
 30
0.0
 40
3.0
100
AcDbArc
 50
180.999848
 51
270.0
  0
LINE
  5
6DF
330
2
100
AcDbEntity
  8
0
100
AcDbLine
 10
57.80248131997587
 20
229.0904886541123
 30
0.0
 11
57.80248131997587
 21
260.2244756541123
 31
0.0
  0
LINE
  5
6E0
330
2
100
AcDbEntity
  8
0
100
AcDbLine
 10
37.80248131997586
 20
232.0905036541124
 30
0.0
 11
37.80248131997586
 21
302.0905036541124
 31
0.0
  0
LINE
  5
6E1
330
2
100
AcDbEntity
  8
0
100
AcDbLine
 10
37.30248131997598
 20
235.0905036541124
 30
0.0
 11
37.30248131997598
 21
299.0905036541123
 31
0.0
  0
ARC
  5
6E2
330
2
100
AcDbEntity
  8
0
100
AcDbCircle
 10
41.26656231997595
 20
302.0905186541123
 30
0.0
 40
3.0
100
AcDbArc
 50
90.0
 51
150.0003969999997
  0
LINE
  5
6E3
330
2
100
AcDbEntity
  8
0
100
AcDbLine
 10
57.80248131997587
 20
273.9565316541123
 30
0.0
 11
57.80248131997587
 21
305.0905036541124
 31
0.0
  0
LINE
  5
6E4
330
2
100
AcDbEntity
  8
0
100
AcDbLine
 10
41.26656231997595
 20
305.0905036541124
 30
0.0
 11
57.80248131997587
 21
305.0905036541124
 31
0.0
  0
LINE
  5
6E5
330
2
100
AcDbEntity
  8
0
100
AcDbLine
 10
39.38411631997587
 20
290.0905036541124
 30
0.0
 11
57.80248131997587
 21
290.0905036541124
 31
0.0
  0
ARC
  5
6E6
330
2
100
AcDbEntity
  8
0
100
AcDbCircle
 10
54.80248131997587
 20
263.5905036541124
 30
0.0
 40
1.0
100
AcDbArc
 50
270.0
 51
0.0
  0
ARC
  5
6E7
330
2
100
AcDbEntity
  8
0
100
AcDbCircle
 10
54.80248131997587
 20
270.5905036541124
 30
0.0
 40
1.0
100
AcDbArc
 50
0.0
 51
90.0
  0
LINE
  5
6E8
330
2
100
AcDbEntity
  8
0
100
AcDbLine
 10
57.30248131997587
 20
260.0905036541124
 30
0.0
 11
52.30248131997587
 21
260.0905036541124
 31
0.0
  0
LINE
  5
6E9
330
2
100
AcDbEntity
  8
0
100
AcDbLine
 10
52.30248131997587
 20
274.0905036541124
 30
0.0
 11
57.30248131997587
 21
274.0905036541124
 31
0.0
  0
LINE
  5
6EA
330
2
100
AcDbEntity
  8
0
100
AcDbLine
 10
58.30248131997587
 20
261.0905036541124
 30
0.0
 11
58.30248131997587
 21
273.0905036541124
 31
0.0
  0
ARC
  5
6EB
330
2
100
AcDbEntity
  8
0
100
AcDbCircle
 10
57.30248131997587
 20
273.0905036541124
 30
0.0
 40
1.0
100
AcDbArc
 50
0.0
 51
90.0
  0
ARC
  5
6EC
330
2
100
AcDbEntity
  8
0
100
AcDbCircle
 10
57.30248131997587
 20
261.0905036541124
 30
0.0
 40
1.0
100
AcDbArc
 50
270.0
 51
0.0
  0
LINE
  5
6ED
330
2
100
AcDbEntity
  8
0
100
AcDbLine
 10
53.80248131997587
 20
263.5905036541124
 30
0.0
 11
53.80248131997587
 21
270.5905036541124
 31
0.0
  0
LINE
  5
6EE
330
2
100
AcDbEntity
  8
0
100
AcDbLine
 10
55.80248131997587
 20
263.5905036541124
 30
0.0
 11
55.80248131997587
 21
270.5905036541124
 31
0.0
  0
LINE
  5
6EF
330
2
100
AcDbEntity
  8
0
100
AcDbLine
 10
51.30248131997587
 20
261.0905036541124
 30
0.0
 11
51.30248131997587
 21
273.0905036541124
 31
0.0
  0
ARC
  5
6F0
330
2
100
AcDbEntity
  8
0
100
AcDbCircle
 10
52.30248131997587
 20
273.0905036541124
 30
0.0
 40
1.0
100
AcDbArc
 50
90.0
 51
180.0
  0
ARC
  5
6F1
330
2
100
AcDbEntity
  8
0
100
AcDbCircle
 10
54.80248131997587
 20
270.5905036541124
 30
0.0
 40
1.0
100
AcDbArc
 50
90.0
 51
180.0
  0
ARC
  5
6F2
330
2
100
AcDbEntity
  8
0
100
AcDbCircle
 10
52.30248131997587
 20
261.0905036541124
 30
0.0
 40
1.0
100
AcDbArc
 50
180.0
 51
270.0
  0
ARC
  5
6F3
330
2
100
AcDbEntity
  8
0
100
AcDbCircle
 10
54.80248131997587
 20
263.5905036541124
 30
0.0
 40
1.0
100
AcDbArc
 50
180.0
 51
270.0
  0
LINE
  5
6F4
330
2
100
AcDbEntity
  8
0
100
AcDbLine
 10
38.66847931997586
 20
303.5904886541124
 30
0.0
 11
37.80248131997586
 21
302.0905036541124
 31
0.0
  0
LINE
  5
6F5
330
2
100
AcDbEntity
  8
0
100
AcDbLine
 10
37.30248131997598
 20
299.0905036541123
 30
0.0
 11
37.80248131997586
 21
299.5905036541124
 31
0.0
  0
ARC
  5
6F6
330
2
100
AcDbEntity
  8
0
100
AcDbCircle
 10
41.26656231997595
 20
232.0904886541124
 30
0.0
 40
3.0
100
AcDbArc
 50
209.9995990000001
 51
270.0
  0
LINE
  5
6F7
330
2
100
AcDbEntity
  8
0
100
AcDbLine
 10
39.38411631997587
 20
244.0905036541124
 30
0.0
 11
57.80248131997587
 21
244.0905036541124
 31
0.0
  0
LINE
  5
6F8
330
2
100
AcDbEntity
  8
0
100
AcDbLine
 10
41.26656231997595
 20
229.0904886541123
 30
0.0
 11
57.80248131997587
 21
229.0904886541123
 31
0.0
  0
LINE
  5
6F9
330
2
100
AcDbEntity
  8
0
100
AcDbLine
 10
37.30248131997598
 20
235.0905036541124
 30
0.0
 11
37.80248131997586
 21
234.5905036541124
 31
0.0
  0
LINE
  5
6FA
330
2
100
AcDbEntity
  8
0
100
AcDbLine
 10
38.66847931997586
 20
230.5905186541123
 30
0.0
 11
37.80248131997586
 21
232.0905036541124
 31
0.0
  0
LINE
  5
902
330
2
100
AcDbEntity
  8
CENTER
100
AcDbLine
 10
201.0524663199759
 20
227.0904886541123
 30
0.0
 11
212.5524663199759
 21
227.0904886541123
 31
0.0
  0
LINE
  5
903
330
2
100
AcDbEntity
  8
CENTER
100
AcDbLine
 10
206.8024663199758
 20
221.3404886541123
 30
0.0
 11
206.8024663199758
 21
232.8404886541123
 31
0.0
  0
LINE
  5
904
330
2
100
AcDbEntity
  8
CENTER
100
AcDbLine
 10
201.0524663199759
 20
307.0905036541123
 30
0.0
 11
212.5524663199759
 21
307.0905036541123
 31
0.0
  0
LINE
  5
905
330
2
100
AcDbEntity
  8
CENTER
100
AcDbLine
 10
206.8024663199758
 20
301.3405036541124
 30
0.0
 11
206.8024663199758
 21
312.8405036541123
 31
0.0
  0
LINE
  5
906
330
2
100
AcDbEntity
  8
CENTER
100
AcDbLine
 10
133.052466319976
 20
307.0905036541123
 30
0.0
 11
144.5524663199759
 21
307.0905036541123
 31
0.0
  0
LINE
  5
907
330
2
100
AcDbEntity
  8
CENTER
100
AcDbLine
 10
138.8024663199759
 20
301.3405036541124
 30
0.0
 11
138.8024663199759
 21
312.8405036541123
 31
0.0
  0
LINE
  5
98F
330
2
100
AcDbEntity
  8
0
100
AcDbLine
 10
132.4301513199759
 20
127.1162565477397
 30
0.0
 11
156.5095583199759
 21
144.0156475477397
 31
0.0
  0
LINE
  5
990
330
2
100
AcDbEntity
  8
CENTER
100
AcDbLine
 10
146.0525288300739
 20
112.3229985477397
 30
0.0
 11
200.0524038098778
 21
112.3229985477397
 31
0.0
  0
LINE
  5
991
330
2
100
AcDbEntity
  8
0
100
AcDbLine
 10
130.3024583199758
 20
47.32299654773976
 30
0.0
 11
215.3024663199758
 21
47.32299654773976
 31
0.0
  0
LINE
  5
992
330
2
100
AcDbEntity
  8
0
100
AcDbLine
 10
132.3024663199759
 20
55.32299654773976
 30
0.0
 11
213.3024663199758
 21
55.32299654773976
 31
0.0
  0
ARC
  5
993
330
2
100
AcDbEntity
  8
0
100
AcDbCircle
 10
172.8024663199759
 20
99.32299454773975
 30
0.0
 40
42.5
100
AcDbArc
 50
199.7498930000002
 51
340.2500920000002
  0
ARC
  5
994
330
2
100
AcDbEntity
  8
0
100
AcDbCircle
 10
172.8024663199759
 20
99.32299454773975
 30
0.0
 40
42.5
100
AcDbArc
 50
19.74990099999923
 51
160.2501069999997
  0
LINE
  5
995
330
2
100
AcDbEntity
  8
0
100
AcDbLine
 10
58.30245831997593
 20
129.5229945477397
 30
0.0
 11
58.30245831997593
 21
128.0229945477397
 31
0.0
  0
LINE
  5
996
330
2
100
AcDbEntity
  8
0
100
AcDbLine
 10
51.30245931997592
 20
129.5229945477397
 30
0.0
 11
51.30245931997592
 21
128.0229945477397
 31
0.0
  0
LINE
  5
997
330
2
100
AcDbEntity
  8
CENTER
100
AcDbLine
 10
30.30245931997592
 20
90.02299454773973
 30
0.0
 11
149.5524583199758
 21
90.02299454773975
 31
0.0
  0
LINE
  5
998
330
2
100
AcDbEntity
  8
0
100
AcDbLine
 10
57.80245831997593
 20
128.0229945477397
 30
0.0
 11
133.7221363199759
 21
128.0229945477397
 31
0.0
  0
LINE
  5
999
330
2
100
AcDbEntity
  8
0
100
AcDbLine
 10
57.80245831997593
 20
52.02299654773975
 30
0.0
 11
130.3024583199758
 21
52.02299654773975
 31
0.0
  0
LINE
  5
99A
330
2
100
AcDbEntity
  8
0
100
AcDbLine
 10
57.80240831997594
 20
120.2719955477397
 30
0.0
 11
130.3024503199758
 21
120.2719955477397
 31
0.0
  0
LINE
  5
99B
330
2
100
AcDbEntity
  8
0
100
AcDbLine
 10
57.80240831997594
 20
59.77399654773975
 30
0.0
 11
130.3024503199758
 21
59.77399654773975
 31
0.0
  0
LINE
  5
99C
330
2
100
AcDbEntity
  8
0
100
AcDbLine
 10
37.30245931997592
 20
58.02299654773975
 30
0.0
 11
37.30245931997592
 21
122.0229945477397
 31
0.0
  0
LINE
  5
99D
330
2
100
AcDbEntity
  8
0
100
AcDbLine
 10
37.80245931997592
 20
55.02299654773975
 30
0.0
 11
37.80245931997592
 21
125.0229945477397
 31
0.0
  0
LINE
  5
99E
330
2
100
AcDbEntity
  8
0
100
AcDbLine
 10
57.80245831997593
 20
52.02299654773975
 30
0.0
 11
57.80245831997593
 21
128.0229945477397
 31
0.0
  0
LINE
  5
99F
330
2
100
AcDbEntity
  8
0
100
AcDbLine
 10
41.26656231997595
 20
52.02299654773975
 30
0.0
 11
57.80245831997593
 21
52.02299654773975
 31
0.0
  0
LINE
  5
9A0
330
2
100
AcDbEntity
  8
0
100
AcDbLine
 10
57.80245831997593
 20
59.77399654773975
 30
0.0
 11
39.38409531997581
 21
59.77399654773975
 31
0.0
  0
LINE
  5
9A1
330
2
100
AcDbEntity
  8
0
100
AcDbLine
 10
38.66847731997586
 20
53.52300654773975
 30
0.0
 11
37.80245931997592
 21
55.02299654773975
 31
0.0
  0
ARC
  5
9A2
330
2
100
AcDbEntity
  8
0
100
AcDbCircle
 10
41.26656731997582
 20
55.02298754773978
 30
0.0
 40
3.0
100
AcDbArc
 50
209.9996030000009
 51
270.0
  0
LINE
  5
9A3
330
2
100
AcDbEntity
  8
0
100
AcDbLine
 10
37.30245931997592
 20
58.02299654773975
 30
0.0
 11
37.80245931997592
 21
57.52299654773975
 31
0.0
  0
LINE
  5
9A4
330
2
100
AcDbEntity
  8
0
100
AcDbLine
 10
41.26655631997595
 20
128.0229945477397
 30
0.0
 11
57.80245831997593
 21
128.0229945477397
 31
0.0
  0
LINE
  5
9A5
330
2
100
AcDbEntity
  8
0
100
AcDbLine
 10
39.38409531997581
 20
120.2719955477397
 30
0.0
 11
57.80245831997593
 21
120.2719955477397
 31
0.0
  0
LINE
  5
9A6
330
2
100
AcDbEntity
  8
0
100
AcDbLine
 10
38.66847731997586
 20
126.5229875477397
 30
0.0
 11
37.80245931997592
 21
125.0229945477397
 31
0.0
  0
LINE
  5
9A7
330
2
100
AcDbEntity
  8
0
100
AcDbLine
 10
37.30245931997592
 20
122.0229945477397
 30
0.0
 11
37.80245931997592
 21
122.5229945477397
 31
0.0
  0
ARC
  5
9A8
330
2
100
AcDbEntity
  8
0
100
AcDbCircle
 10
41.26656731997582
 20
125.0230105477397
 30
0.0
 40
3.0
100
AcDbArc
 50
90.0
 51
150.000396999999
  0
LINE
  5
9A9
330
2
100
AcDbEntity
  8
0
100
AcDbLine
 10
130.3024583199758
 20
123.0235975477397
 30
0.0
 11
130.3024583199758
 21
47.32299654773976
 31
0.0
  0
ARC
  5
9AA
330
2
100
AcDbEntity
  8
0
100
AcDbCircle
 10
132.3024663199759
 20
53.32300654773973
 30
0.0
 40
2.0
100
AcDbArc
 50
90.0
 51
180.0
  0
LINE
  5
9AB
330
2
100
AcDbEntity
  8
CENTER
100
AcDbLine
 10
138.8024583199758
 20
58.82299654773976
 30
0.0
 11
138.8024583199758
 21
43.82299654773976
 31
0.0
  0
LINE
  5
9AC
330
2
100
AcDbEntity
  8
HIDS
  6
SEKKEI_H
100
AcDbLine
 10
135.5524583199758
 20
55.32299654773976
 30
0.0
 11
135.5524583199758
 21
47.32299654773976
 31
0.0
  0
LINE
  5
9AD
330
2
100
AcDbEntity
  8
HIDS
  6
SEKKEI_H
100
AcDbLine
 10
142.0524583199758
 20
55.32299654773976
 30
0.0
 11
142.0524583199758
 21
47.32299654773976
 31
0.0
  0
LINE
  5
9AE
330
2
100
AcDbEntity
  8
0
100
AcDbLine
 10
132.8024583199758
 20
113.6842655477397
 30
0.0
 11
132.8024583199758
 21
84.96145654773973
 31
0.0
  0
ARC
  5
9AF
330
2
100
AcDbEntity
  8
0
100
AcDbCircle
 10
135.3024813199758
 20
123.0236125477397
 30
0.0
 40
5.0
100
AcDbArc
 50
125.0623020000004
 51
180.0
  0
LINE
  5
9B0
330
2
100
AcDbEntity
  8
0
100
AcDbLine
 10
135.6842713199758
 20
120.0229945477397
 30
0.0
 11
135.6842793199758
 21
120.0229945477397
 31
0.0
  0
LINE
  5
9B1
330
2
100
AcDbEntity
  8
HOJO
100
AcDbLine
 10
53.90245831997595
 20
143.1479945477397
 30
0.0
 11
55.7024603199759
 21
142.5229945477397
 31
0.0
  0
LINE
  5
9B2
330
2
100
AcDbEntity
  8
0
100
AcDbLine
 10
51.30245931997592
 20
129.5229945477397
 30
0.0
 11
58.30245831997593
 21
129.5229945477397
 31
0.0
  0
LINE
  5
9B3
330
2
100
AcDbEntity
  8
0
100
AcDbLine
 10
53.90245831997595
 20
143.1479945477397
 30
0.0
 11
53.90245831997595
 21
129.5229945477397
 31
0.0
  0
LINE
  5
9B4
330
2
100
AcDbEntity
  8
0
100
AcDbLine
 10
52.10245931997588
 20
141.0854945477397
 30
0.0
 11
52.10245931997588
 21
129.5229945477397
 31
0.0
  0
LINE
  5
9B5
330
2
100
AcDbEntity
  8
HOJO
100
AcDbLine
 10
52.10245931997588
 20
141.0854945477397
 30
0.0
 11
53.90245831997595
 21
141.7104945477397
 31
0.0
  0
LINE
  5
9B6
330
2
100
AcDbEntity
  8
0
100
AcDbLine
 10
55.7024603199759
 20
142.5229945477397
 30
0.0
 11
55.7024603199759
 21
129.5229945477397
 31
0.0
  0
LINE
  5
9B7
330
2
100
AcDbEntity
  8
0
100
AcDbLine
 10
57.50245931997586
 20
141.8979945477397
 30
0.0
 11
57.50245931997586
 21
129.5229945477397
 31
0.0
  0
LINE
  5
9B8
330
2
100
AcDbEntity
  8
HOJO
100
AcDbLine
 10
57.50245931997586
 20
141.8979945477397
 30
0.0
 11
55.70346931997585
 21
141.4502865477397
 31
0.0
  0
CIRCLE
  5
9B9
330
2
100
AcDbEntity
  8
0
100
AcDbCircle
 10
172.8024663199759
 20
112.3229985477397
 30
0.0
 40
20.0
  0
LINE
  5
9BA
330
2
100
AcDbEntity
  8
CENTER
100
AcDbLine
 10
172.8024663199759
 20
151.9229965477397
 30
0.0
 11
172.8024663199759
 21
40.32299654773976
 31
0.0
  0
LINE
  5
9BB
330
2
100
AcDbEntity
  8
0
100
AcDbLine
 10
213.1747653199759
 20
127.1162565477397
 30
0.0
 11
189.0952673199759
 21
144.0156555477397
 31
0.0
  0
LINE
  5
9BC
330
2
100
AcDbEntity
  8
0
100
AcDbLine
 10
215.3024663199758
 20
123.0235745477397
 30
0.0
 11
215.3024663199758
 21
47.32299654773976
 31
0.0
  0
LINE
  5
9BD
330
2
100
AcDbEntity
  8
CENTER
100
AcDbLine
 10
206.8024663199759
 20
58.82299654773976
 30
0.0
 11
206.8024663199758
 21
43.82299654773976
 31
0.0
  0
LINE
  5
9BE
330
2
100
AcDbEntity
  8
HIDS
  6
SEKKEI_H
100
AcDbLine
 10
210.0524663199759
 20
55.32299654773976
 30
0.0
 11
210.0524663199759
 21
47.32299654773976
 31
0.0
  0
LINE
  5
9BF
330
2
100
AcDbEntity
  8
HIDS
  6
SEKKEI_H
100
AcDbLine
 10
203.5524663199759
 20
55.32299654773976
 30
0.0
 11
203.5524663199759
 21
47.32299654773976
 31
0.0
  0
ARC
  5
9C0
330
2
100
AcDbEntity
  8
0
100
AcDbCircle
 10
213.3024663199758
 20
53.32298654773976
 30
0.0
 40
2.0
100
AcDbArc
 50
0.0
 51
90.0
  0
ARC
  5
9C1
330
2
100
AcDbEntity
  8
0
100
AcDbCircle
 10
182.9999603199759
 20
83.33300354773976
 30
0.0
 40
2.55249
100
AcDbArc
 50
286.0181270000003
 51
90.00351000000046
  0
LINE
  5
9C2
330
2
100
AcDbEntity
  8
0
100
AcDbLine
 10
185.2841553199758
 20
77.31908754773977
 30
0.0
 11
185.5524663199759
 21
77.31908754773977
 31
0.0
  0
LINE
  5
9C3
330
2
100
AcDbEntity
  8
0
100
AcDbLine
 10
184.0832583199759
 20
76.32299854773975
 30
0.0
 11
185.5524663199759
 21
76.32299854773975
 31
0.0
  0
LINE
  5
9C4
330
2
100
AcDbEntity
  8
0
100
AcDbLine
 10
161.2098603199758
 20
85.88549454773973
 30
0.0
 11
160.0524583199758
 21
84.40349554773977
 31
0.0
  0
LINE
  5
9C5
330
2
100
AcDbEntity
  8
0
100
AcDbLine
 10
165.4964663199758
 20
85.88549454773973
 30
0.0
 11
166.4274663199759
 21
84.85235254773973
 31
0.0
  0
LINE
  5
9C6
330
2
100
AcDbEntity
  8
0
100
AcDbLine
 10
161.1232593199758
 20
78.21391654773975
 30
0.0
 11
161.8545593199759
 21
77.44359554773976
 31
0.0
  0
LINE
  5
9C7
330
2
100
AcDbEntity
  8
0
100
AcDbLine
 10
166.4274663199759
 20
81.87621654773975
 30
0.0
 11
166.4274663199759
 21
76.32299854773975
 31
0.0
  0
LINE
  5
9C8
330
2
100
AcDbEntity
  8
0
100
AcDbLine
 10
160.0524583199758
 20
84.40349554773977
 30
0.0
 11
160.0524583199758
 21
77.56385854773975
 31
0.0
  0
ARC
  5
9C9
330
2
100
AcDbEntity
  8
0
100
AcDbCircle
 10
163.5138613199758
 20
79.43578754773975
 30
0.0
 40
1.992186999999999
100
AcDbArc
 50
270.0002140000007
 51
0.0001089999998967
  0
LINE
  5
9CA
330
2
100
AcDbEntity
  8
0
100
AcDbLine
 10
161.2822553199758
 20
76.32299854773975
 30
0.0
 11
164.5975553199758
 21
76.32299854773975
 31
0.0
  0
LINE
  5
9CB
330
2
100
AcDbEntity
  8
0
100
AcDbLine
 10
160.0524583199758
 20
77.56385854773975
 30
0.0
 11
161.2822553199758
 21
76.32299854773975
 31
0.0
  0
LINE
  5
9CC
330
2
100
AcDbEntity
  8
0
100
AcDbLine
 10
163.5138613199758
 20
77.44359554773976
 30
0.0
 11
161.8545593199759
 21
77.44359554773976
 31
0.0
  0
LINE
  5
9CD
330
2
100
AcDbEntity
  8
0
100
AcDbLine
 10
165.5060643199758
 20
77.08525454773976
 30
0.0
 11
165.5060643199758
 21
76.32299854773975
 31
0.0
  0
LINE
  5
9CE
330
2
100
AcDbEntity
  8
0
100
AcDbLine
 10
165.5060643199758
 20
77.08525454773976
 30
0.0
 11
164.5975553199758
 21
76.32299854773975
 31
0.0
  0
LINE
  5
9CF
330
2
100
AcDbEntity
  8
0
100
AcDbLine
 10
165.5060643199758
 20
76.32299854773975
 30
0.0
 11
166.4274663199759
 21
76.32299854773975
 31
0.0
  0
LINE
  5
9D0
330
2
100
AcDbEntity
  8
0
100
AcDbLine
 10
164.9149543199758
 20
84.61547454773976
 30
0.0
 11
161.8430623199758
 21
84.61547454773976
 31
0.0
  0
LINE
  5
9D1
330
2
100
AcDbEntity
  8
0
100
AcDbLine
 10
161.8430623199758
 20
84.61547454773976
 30
0.0
 11
161.1232593199758
 21
83.72297254773977
 31
0.0
  0
LINE
  5
9D2
330
2
100
AcDbEntity
  8
0
100
AcDbLine
 10
161.1232593199758
 20
83.72297254773977
 30
0.0
 11
161.1232593199758
 21
78.21391654773975
 31
0.0
  0
LINE
  5
9D3
330
2
100
AcDbEntity
  8
0
100
AcDbLine
 10
166.4274663199759
 20
84.85235254773973
 30
0.0
 11
166.4274663199759
 21
83.89330654773974
 31
0.0
  0
LINE
  5
9D4
330
2
100
AcDbEntity
  8
0
100
AcDbLine
 10
165.5060643199758
 20
80.83031854773976
 30
0.0
 11
163.8376523199758
 21
80.83031854773976
 31
0.0
  0
LINE
  5
9D5
330
2
100
AcDbEntity
  8
0
100
AcDbLine
 10
165.5060643199758
 20
79.83422454773975
 30
0.0
 11
165.5060643199758
 21
80.63109954773976
 31
0.0
  0
LINE
  5
9D6
330
2
100
AcDbEntity
  8
0
100
AcDbLine
 10
165.5060643199758
 20
80.83031854773976
 30
0.0
 11
165.5060643199758
 21
79.43578754773975
 31
0.0
  0
LINE
  5
9D7
330
2
100
AcDbEntity
  8
0
100
AcDbLine
 10
163.8376523199758
 20
81.87621654773975
 30
0.0
 11
163.8376523199758
 21
80.83031854773976
 31
0.0
  0
LINE
  5
9D8
330
2
100
AcDbEntity
  8
0
100
AcDbLine
 10
165.5060643199758
 20
84.04402954773976
 30
0.0
 11
165.5060643199758
 21
83.89330654773974
 31
0.0
  0
LINE
  5
9D9
330
2
100
AcDbEntity
  8
0
100
AcDbLine
 10
165.5060643199758
 20
84.04402954773976
 30
0.0
 11
164.9028533199758
 21
84.61547454773976
 31
0.0
  0
LINE
  5
9DA
330
2
100
AcDbEntity
  8
0
100
AcDbLine
 10
165.5060643199758
 20
83.89330654773974
 30
0.0
 11
166.4274663199759
 21
83.89330654773974
 31
0.0
  0
LINE
  5
9DB
330
2
100
AcDbEntity
  8
0
100
AcDbLine
 10
163.8376523199758
 20
81.87621654773975
 30
0.0
 11
166.4274663199759
 21
81.87621654773975
 31
0.0
  0
LINE
  5
9DC
330
2
100
AcDbEntity
  8
0
100
AcDbLine
 10
161.2098603199758
 20
85.88549454773973
 30
0.0
 11
165.4964663199758
 21
85.88549454773973
 31
0.0
  0
LINE
  5
9DD
330
2
100
AcDbEntity
  8
0
100
AcDbLine
 10
179.1774663199759
 20
85.88549454773973
 30
0.0
 11
179.1774663199759
 21
84.71508454773976
 31
0.0
  0
LINE
  5
9DE
330
2
100
AcDbEntity
  8
0
100
AcDbLine
 10
175.9899663199758
 20
83.89330654773974
 30
0.0
 11
175.9899663199758
 21
85.88549454773973
 31
0.0
  0
LINE
  5
9DF
330
2
100
AcDbEntity
  8
0
100
AcDbLine
 10
169.6149663199759
 20
83.89330654773974
 30
0.0
 11
169.6149663199759
 21
85.88549454773973
 31
0.0
  0
LINE
  5
9E0
330
2
100
AcDbEntity
  8
0
100
AcDbLine
 10
173.3752653199758
 20
84.71508454773976
 30
0.0
 11
173.3752653199758
 21
77.36889654773975
 31
0.0
  0
LINE
  5
9E1
330
2
100
AcDbEntity
  8
0
100
AcDbLine
 10
172.1798613199758
 20
84.71508454773976
 30
0.0
 11
172.1798613199758
 21
77.36889654773975
 31
0.0
  0
LINE
  5
9E2
330
2
100
AcDbEntity
  8
0
100
AcDbLine
 10
171.7067633199758
 20
76.32299854773975
 30
0.0
 11
173.7736573199758
 21
76.32299854773975
 31
0.0
  0
LINE
  5
9E3
330
2
100
AcDbEntity
  8
0
100
AcDbLine
 10
171.7067633199758
 20
77.36889654773975
 30
0.0
 11
171.7067633199758
 21
76.32299854773975
 31
0.0
  0
LINE
  5
9E4
330
2
100
AcDbEntity
  8
0
100
AcDbLine
 10
171.7067633199758
 20
77.36889654773975
 30
0.0
 11
172.1798613199758
 21
77.36889654773975
 31
0.0
  0
LINE
  5
9E5
330
2
100
AcDbEntity
  8
0
100
AcDbLine
 10
173.3752653199758
 20
77.36889654773975
 30
0.0
 11
173.7736573199758
 21
77.36889654773975
 31
0.0
  0
LINE
  5
9E6
330
2
100
AcDbEntity
  8
0
100
AcDbLine
 10
173.7736573199758
 20
77.36889654773975
 30
0.0
 11
173.7736573199758
 21
76.32299854773975
 31
0.0
  0
LINE
  5
9E7
330
2
100
AcDbEntity
  8
0
100
AcDbLine
 10
172.1798613199758
 20
84.71508454773976
 30
0.0
 11
170.6649543199759
 21
84.71508454773976
 31
0.0
  0
LINE
  5
9E8
330
2
100
AcDbEntity
  8
0
100
AcDbLine
 10
169.6149663199759
 20
83.89330654773974
 30
0.0
 11
170.3225623199758
 21
83.89330654773974
 31
0.0
  0
LINE
  5
9E9
330
2
100
AcDbEntity
  8
0
100
AcDbLine
 10
170.6649543199759
 20
84.71508454773976
 30
0.0
 11
170.3225623199758
 21
83.89330654773974
 31
0.0
  0
LINE
  5
9EA
330
2
100
AcDbEntity
  8
0
100
AcDbLine
 10
173.3752653199758
 20
84.71508454773976
 30
0.0
 11
175.0362613199758
 21
84.71508454773976
 31
0.0
  0
LINE
  5
9EB
330
2
100
AcDbEntity
  8
0
100
AcDbLine
 10
175.3249573199758
 20
83.89330654773974
 30
0.0
 11
175.9899663199758
 21
83.89330654773974
 31
0.0
  0
LINE
  5
9EC
330
2
100
AcDbEntity
  8
0
100
AcDbLine
 10
175.0362613199758
 20
84.71508454773976
 30
0.0
 11
175.3249573199758
 21
83.89330654773974
 31
0.0
  0
LINE
  5
9ED
330
2
100
AcDbEntity
  8
0
100
AcDbLine
 10
179.6505643199759
 20
84.71508454773976
 30
0.0
 11
179.6505643199759
 21
77.31908754773977
 31
0.0
  0
LINE
  5
9EE
330
2
100
AcDbEntity
  8
0
100
AcDbLine
 10
180.7462523199759
 20
80.79296454773976
 30
0.0
 11
180.7462523199759
 21
77.31908754773977
 31
0.0
  0
LINE
  5
9EF
330
2
100
AcDbEntity
  8
0
100
AcDbLine
 10
183.7042603199759
 20
80.87961554773974
 30
0.0
 11
185.2841553199758
 21
77.31908754773977
 31
0.0
  0
LINE
  5
9F0
330
2
100
AcDbEntity
  8
0
100
AcDbLine
 10
182.7867643199758
 20
80.79296454773976
 30
0.0
 11
184.2817603199758
 21
77.31908754773977
 31
0.0
  0
LINE
  5
9F1
330
2
100
AcDbEntity
  8
0
100
AcDbLine
 10
180.7462523199759
 20
77.31908754773977
 30
0.0
 11
181.1820593199758
 21
77.31908754773977
 31
0.0
  0
LINE
  5
9F2
330
2
100
AcDbEntity
  8
0
100
AcDbLine
 10
181.1820593199758
 20
76.32299854773975
 30
0.0
 11
179.1774663199759
 21
76.32299854773975
 31
0.0
  0
LINE
  5
9F3
330
2
100
AcDbEntity
  8
0
100
AcDbLine
 10
179.1774663199759
 20
77.31908754773977
 30
0.0
 11
179.1774663199759
 21
76.32299854773975
 31
0.0
  0
LINE
  5
9F4
330
2
100
AcDbEntity
  8
0
100
AcDbLine
 10
179.1774663199759
 20
77.31908754773977
 30
0.0
 11
179.6505643199759
 21
77.31908754773977
 31
0.0
  0
LINE
  5
9F5
330
2
100
AcDbEntity
  8
0
100
AcDbLine
 10
184.0832583199759
 20
77.31908754773977
 30
0.0
 11
184.2817603199758
 21
77.31908754773977
 31
0.0
  0
LINE
  5
9F6
330
2
100
AcDbEntity
  8
0
100
AcDbLine
 10
184.0832583199759
 20
77.31908754773977
 30
0.0
 11
184.0832583199759
 21
76.32299854773975
 31
0.0
  0
LINE
  5
9F7
330
2
100
AcDbEntity
  8
0
100
AcDbLine
 10
181.1820593199758
 20
77.31908754773977
 30
0.0
 11
181.1820593199758
 21
76.32299854773975
 31
0.0
  0
LINE
  5
9F8
330
2
100
AcDbEntity
  8
0
100
AcDbLine
 10
180.7462523199759
 20
84.71508454773976
 30
0.0
 11
183.7211523199759
 21
84.71314654773975
 31
0.0
  0
LINE
  5
9F9
330
2
100
AcDbEntity
  8
0
100
AcDbLine
 10
180.7462523199759
 20
81.78882954773976
 30
0.0
 11
183.2009643199759
 21
81.78882954773976
 31
0.0
  0
LINE
  5
9FA
330
2
100
AcDbEntity
  8
0
100
AcDbLine
 10
180.7462523199759
 20
80.79296454773976
 30
0.0
 11
182.7867643199758
 21
80.79296454773976
 31
0.0
  0
LINE
  5
9FB
330
2
100
AcDbEntity
  8
0
100
AcDbLine
 10
180.7462523199759
 20
84.71508454773976
 30
0.0
 11
180.7462523199759
 21
81.78882954773976
 31
0.0
  0
LINE
  5
9FC
330
2
100
AcDbEntity
  8
0
100
AcDbLine
 10
179.1774663199759
 20
84.71508454773976
 30
0.0
 11
179.6505643199759
 21
84.71508454773976
 31
0.0
  0
ARC
  5
9FD
330
2
100
AcDbEntity
  8
0
100
AcDbCircle
 10
182.9999603199759
 20
83.33300354773976
 30
0.0
 40
1.557193
100
AcDbArc
 50
277.4147260000004
 51
62.41184999999767
  0
LINE
  5
9FE
330
2
100
AcDbEntity
  8
0
100
AcDbLine
 10
169.6149663199759
 20
85.88549454773973
 30
0.0
 11
175.9899663199758
 21
85.88549454773973
 31
0.0
  0
LINE
  5
9FF
330
2
100
AcDbEntity
  8
0
100
AcDbLine
 10
179.1774663199759
 20
85.88549454773973
 30
0.0
 11
182.9999603199759
 21
85.88549454773973
 31
0.0
  0
ARC
  5
A00
330
2
100
AcDbEntity
  8
HIDS
100
AcDbCircle
 10
172.8024663199759
 20
112.3229985477397
 30
0.0
 40
7.5
100
AcDbArc
 50
19.47120999999955
 51
340.5288089999994
  0
LINE
  5
A01
330
2
100
AcDbEntity
  8
0
100
AcDbLine
 10
154.6150573199759
 20
120.0229945477397
 30
0.0
 11
154.6151563199758
 21
120.0229945477397
 31
0.0
  0
LINE
  5
A02
330
2
100
AcDbEntity
  8
HIDS
100
AcDbLine
 10
182.3024663199759
 20
114.8229985477397
 30
0.0
 11
182.3024663199759
 21
109.8229985477397
 31
0.0
  0
LINE
  5
A03
330
2
100
AcDbEntity
  8
HIDS
100
AcDbLine
 10
177.3024663199759
 20
109.8229985477397
 30
0.0
 11
177.3024663199759
 21
114.8229985477397
 31
0.0
  0
LINE
  5
A04
330
2
100
AcDbEntity
  8
HIDS
100
AcDbLine
 10
177.3024663199759
 20
109.8229985477397
 30
0.0
 11
182.3024663199759
 21
109.8229985477397
 31
0.0
  0
LINE
  5
A05
330
2
100
AcDbEntity
  8
HIDS
100
AcDbLine
 10
177.3024663199759
 20
114.8229985477397
 30
0.0
 11
182.3024663199759
 21
114.8229985477397
 31
0.0
  0
LINE
  5
A06
330
2
100
AcDbEntity
  8
0
100
AcDbLine
 10
212.8024663199759
 20
113.6843945477397
 30
0.0
 11
212.8024663199759
 21
84.96185654773976
 31
0.0
  0
LINE
  5
A07
330
2
100
AcDbEntity
  8
0
100
AcDbLine
 10
185.5524663199759
 20
77.31908754773977
 30
0.0
 11
185.5524663199759
 21
76.32299854773975
 31
0.0
  0
ARC
  5
A08
330
2
100
AcDbEntity
  8
0
100
AcDbCircle
 10
210.3024663199759
 20
123.0235745477397
 30
0.0
 40
5.0
100
AcDbArc
 50
0.0
 51
54.93837000000021
  0
LINE
  5
A09
330
2
100
AcDbEntity
  8
0
100
AcDbLine
 10
159.3819563199758
 20
144.9229965477397
 30
0.0
 11
186.2229523199759
 21
144.9229965477397
 31
0.0
  0
ARC
  5
A0A
330
2
100
AcDbEntity
  8
0
100
AcDbCircle
 10
159.3819563199758
 20
139.9230045477397
 30
0.0
 40
5.0
100
AcDbArc
 50
90.0
 51
125.0622019999994
  0
ARC
  5
A0B
330
2
100
AcDbEntity
  8
0
100
AcDbCircle
 10
186.2230593199758
 20
139.9229885477397
 30
0.0
 40
5.0
100
AcDbArc
 50
54.93843100000081
 51
90.0
  0
TEXT
  5
A16
330
2
100
AcDbEntity
  8
TITLE
100
AcDbText
 10
241.295934652656
 20
268.4772647690773
 30
0.0
 40
5.0
  1
HLM-15L-10~240-T15W
 41
0.8
100
AcDbText
  0
TEXT
  5
A17
330
2
100
AcDbEntity
  8
TITLE
100
AcDbText
 10
241.295934652656
 20
252.4772647690773
 30
0.0
 40
5.0
  1
HLM-15L-10~240-T25W
 41
0.8
100
AcDbText
  0
TEXT
  5
A18
330
2
100
AcDbEntity
  8
TITLE
100
AcDbText
 10
241.295934652656
 20
260.4772647690773
 30
0.0
 40
5.0
  1
HLM-15L-10~240-T25
 41
0.8
100
AcDbText
  0
TEXT
  5
A1C
330
2
100
AcDbEntity
  8
TITLE
100
AcDbText
 10
241.295934652656
 20
244.4772647690773
 30
0.0
 40
5.0
  1
HLM-15L-10~120-T40
 41
0.8
100
AcDbText
  0
TEXT
  5
A1E
330
2
100
AcDbEntity
  8
TITLE
100
AcDbText
 10
327.869564723379
 20
260.4772647690773
 30
0.0
 40
5.0
  1
HLM-15L-10~240-S25
 41
0.8
100
AcDbText
  0
TEXT
  5
A1F
330
2
100
AcDbEntity
  8
TITLE
100
AcDbText
 10
327.869564723379
 20
252.4772647690773
 30
0.0
 40
5.0
  1
HLM-15L-10~240-S25W
 41
0.8
100
AcDbText
  0
TEXT
  5
A20
330
2
100
AcDbEntity
  8
TITLE
100
AcDbText
 10
327.869564723379
 20
268.4772647690773
 30
0.0
 40
5.0
  1
HLM-15L-10~240-S15W
 41
0.8
100
AcDbText
  0
TEXT
  5
A21
330
2
100
AcDbEntity
  8
TITLE
100
AcDbText
 10
327.869564723379
 20
276.4772647690773
 30
0.0
 40
5.0
  1
HLM-15L-10~240-S15
 41
0.8
100
AcDbText
  0
ARC
  5
19C1
330
2
100
AcDbEntity
  8
0
100
AcDbCircle
 10
352.1969186544389
 20
134.3229985477397
 30
0.0
 40
2.0
100
AcDbArc
 50
180.0
 51
270.0
  0
ARC
  5
19C2
330
2
100
AcDbEntity
  8
0
100
AcDbCircle
 10
352.1969186544389
 20
90.32299854773976
 30
0.0
 40
2.0
100
AcDbArc
 50
90.00000000000003
 51
180.0
  0
ARC
  5
19C3
330
2
100
AcDbEntity
  8
0
100
AcDbCircle
 10
286.196918654439
 20
90.32299854773976
 30
0.0
 40
2.0
100
AcDbArc
 50
0.000000000000007
 51
89.99999999999998
  0
ARC
  5
19C4
330
2
100
AcDbEntity
  8
0
100
AcDbCircle
 10
286.196918654439
 20
134.3229985477397
 30
0.0
 40
2.0
100
AcDbArc
 50
270.0
 51
0.000000000000007
  0
LINE
  5
19CC
330
2
100
AcDbEntity
  8
0
100
AcDbLine
 10
191.8024703199758
 20
232.0905046541124
 30
0.0
 11
153.8024663199759
 21
232.0905046541124
 31
0.0
  0
ARC
  5
19CD
330
2
100
AcDbEntity
  8
0
100
AcDbCircle
 10
194.8024663199759
 20
234.0905036541124
 30
0.0
 40
2.0
100
AcDbArc
 50
90.00000000000003
 51
180.0
  0
LINE
  5
19CE
330
2
100
AcDbEntity
  8
0
100
AcDbLine
 10
192.8024703199758
 20
233.0905036541124
 30
0.0
 11
192.8024703199758
 21
234.0945036521074
 31
0.0
  0
ARC
  5
19CF
330
2
100
AcDbEntity
  8
0
100
AcDbCircle
 10
191.8024743199759
 20
233.0905036541124
 30
0.0
 40
1.0
100
AcDbArc
 50
270.0
 51
0.0
  0
ARC
  5
19D0
330
2
100
AcDbEntity
  8
0
100
AcDbCircle
 10
150.8024663199759
 20
234.0905036541124
 30
0.0
 40
2.0
100
AcDbArc
 50
0.0
 51
90.00000000000003
  0
LINE
  5
19D1
330
2
100
AcDbEntity
  8
0
100
AcDbLine
 10
152.8024663199759
 20
233.0905036541124
 30
0.0
 11
152.8024663199759
 21
234.0905036541124
 31
0.0
  0
ARC
  5
19D2
330
2
100
AcDbEntity
  8
0
100
AcDbCircle
 10
153.8024663199759
 20
233.0905036541124
 30
0.0
 40
1.0
100
AcDbArc
 50
180.0
 51
270.0
  0
ARC
  5
19D3
330
2
100
AcDbEntity
  8
0
100
AcDbCircle
 10
194.8024663199759
 20
300.0905036541123
 30
0.0
 40
2.0
100
AcDbArc
 50
180.0
 51
270.0
  0
ARC
  5
19D4
330
2
100
AcDbEntity
  8
0
100
AcDbCircle
 10
150.8024663199759
 20
300.0905036541123
 30
0.0
 40
2.0
100
AcDbArc
 50
270.0
 51
0.0
  0
ENDSEC
  0
SECTION
  2
OBJECTS
  0
DICTIONARY
  5
7
330
0
100
AcDbDictionary
  3
ACAD_GROUP
350
75
  3
ACAD_LAYOUT
350
61
  3
ACAD_MLINESTYLE
350
76
  3
ACAD_PLOTSETTINGS
350
77
  3
ACAD_PLOTSTYLENAME
350
6
  3
ACADDIM
350
480
  3
ACDBHEADERROUNDTRIPXREC
350
1A14
  3
ACDBVARIABLEDICTIONARY
350
102
  3
DWGPROPS
350
3D2
  0
DICTIONARY
  5
1A35
330
2
100
AcDbDictionary
280
     1
  3
ACAD_LAYOUTSELFREF
360
1A36
  0
DICTIONARY
  5
1A37
330
1A0E
100
AcDbDictionary
280
     1
  3
ACAD_LAYOUTSELFREF
360
1A38
  0
DICTIONARY
  5
75
102
{ACAD_REACTORS
330
7
102
}
330
7
100
AcDbDictionary
  0
DICTIONARY
  5
61
102
{ACAD_REACTORS
330
7
102
}
330
7
100
AcDbDictionary
  0
DICTIONARY
  5
76
102
{ACAD_REACTORS
330
7
102
}
330
7
100
AcDbDictionary
  3
STANDARD
350
78
  0
DICTIONARY
  5
77
102
{ACAD_REACTORS
330
7
102
}
330
7
100
AcDbDictionary
  0
ACDBDICTIONARYWDFLT
  5
6
102
{ACAD_REACTORS
330
7
102
}
330
7
100
AcDbDictionary
281
     1
  3
Normal
350
5
100
AcDbDictionaryWithDefault
340
5
  0
XRECORD
  5
480
102
{ACAD_REACTORS
330
7
102
}
330
7
100
AcDbXrecord
 90
   990106
  3

 60
     0
 61
     0
 62
     1
 63
     3
 64
     1
 65
     0
 66
     0
 67
     3
 68
     1
 69
     0
 70
     0
 71
     0
 72
     0
 40
0.0
170
     2
340
0
  0
DICTIONARY
  5
1A14
102
{ACAD_REACTORS
330
7
102
}
330
7
100
AcDbDictionary
  3
CEPSNTYPE
350
1A1E
  3
DIMSTYLEDATA
350
1A22
  3
FINGERPRINTGUID
350
1A1F
  3
HYPERLINKBASE
350
1A17
  3
INSUNITS
350
1A1D
  3
LAYOUTDICT
350
1A19
  3
LWETCUNION
350
1A1C
  3
PLOTSETDICT
350
1A1A
  3
PLOTSTYLNAMDICT
350
1A1B
  3
PSVPSCALE
350
1A21
  3
PUCSBASE
350
1A25
  3
PUCSORGBACK
350
1A2B
  3
PUCSORGBOTTOM
350
1A27
  3
PUCSORGFRONT
350
1A2A
  3
PUCSORGLEFT
350
1A28
  3
PUCSORGRIGHT
350
1A29
  3
PUCSORGTOP
350
1A26
  3
PUCSORTHOREF
350
1A23
  3
PUCSORTHOVIEW
350
1A24
  3
STYLESHEET
350
1A18
  3
TSTACKALIGN
350
1A15
  3
TSTACKSIZE
350
1A16
  3
UCSBASE
350
1A2E
  3
UCSORGBACK
350
1A34
  3
UCSORGBOTTOM
350
1A30
  3
UCSORGFRONT
350
1A33
  3
UCSORGLEFT
350
1A31
  3
UCSORGRIGHT
350
1A32
  3
UCSORGTOP
350
1A2F
  3
UCSORTHOREF
350
1A2C
  3
UCSORTHOVIEW
350
1A2D
  3
VERSIONGUID
350
1A20
  0
DICTIONARY
  5
102
102
{ACAD_REACTORS
330
7
102
}
330
7
100
AcDbDictionary
  3
DIMASSOC
350
103
  0
XRECORD
  5
3D2
102
{ACAD_REACTORS
330
7
102
}
330
7
100
AcDbXrecord
  1
DWGPROPS COOKIE
  2

  3

  4

  6

  7

  8

  9

300
=
301
=
302
=
303
=
304
=
305
=
306
=
307
=
308
=
309
=
 40
0.5353330671296296
 41
2452052.431989363
 42
2453406.550756377
  1

 90
        0
  0
XRECORD
  5
1A36
102
{ACAD_REACTORS
330
1A35
102
}
330
1A35
100
AcDbXrecord
340
2
  0
XRECORD
  5
1A38
102
{ACAD_REACTORS
330
1A37
102
}
330
1A37
100
AcDbXrecord
340
1A0E
  0
MLINESTYLE
  5
78
102
{ACAD_REACTORS
330
76
102
}
330
76
100
AcDbMlineStyle
  2
STANDARD
 70
     0
  3

 62
     0
 51
90.0
 52
90.0
 71
     2
 49
0.5
 62
   256
  6
BYLAYER
 49
-0.5
 62
   256
  6
BYLAYER
  0
ACDBPLACEHOLDER
  5
5
102
{ACAD_REACTORS
330
6
102
}
330
6
100
AcDbPlaceHolder
280
     0
  0
XRECORD
  5
1A1E
102
{ACAD_REACTORS
330
1A14
102
}
330
1A14
100
AcDbXrecord
 90
        0
  0
XRECORD
  5
1A22
102
{ACAD_REACTORS
330
1A14
102
}
330
1A14
100
AcDbXrecord
1000
DSTYLE
1002
{
1070
   179
 70
     2
1070
   277
 70
     6
1002
}
  0
XRECORD
  5
1A1F
102
{ACAD_REACTORS
330
1A14
102
}
330
1A14
100
AcDbXrecord
  1
{6385560B-F4B1-4644-A7C2-A3E32AC3D232}
  0
XRECORD
  5
1A17
102
{ACAD_REACTORS
330
1A14
102
}
330
1A14
100
AcDbXrecord
  1

  0
XRECORD
  5
1A1D
102
{ACAD_REACTORS
330
1A14
102
}
330
1A14
100
AcDbXrecord
 90
        0
  0
XRECORD
  5
1A19
102
{ACAD_REACTORS
330
1A14
102
}
330
1A14
100
AcDbXrecord
340
61
  0
XRECORD
  5
1A1C
102
{ACAD_REACTORS
330
1A14
102
}
330
1A14
100
AcDbXrecord
 90
    10781
  0
XRECORD
  5
1A1A
102
{ACAD_REACTORS
330
1A14
102
}
330
1A14
100
AcDbXrecord
340
77
  0
XRECORD
  5
1A1B
102
{ACAD_REACTORS
330
1A14
102
}
330
1A14
100
AcDbXrecord
340
6
  0
XRECORD
  5
1A21
102
{ACAD_REACTORS
330
1A14
102
}
330
1A14
100
AcDbXrecord
 40
0.0
  0
XRECORD
  5
1A25
102
{ACAD_REACTORS
330
1A14
102
}
330
1A14
100
AcDbXrecord
340
0
  0
XRECORD
  5
1A2B
102
{ACAD_REACTORS
330
1A14
102
}
330
1A14
100
AcDbXrecord
 10
0.0
 20
0.0
 30
0.0
  0
XRECORD
  5
1A27
102
{ACAD_REACTORS
330
1A14
102
}
330
1A14
100
AcDbXrecord
 10
0.0
 20
0.0
 30
0.0
  0
XRECORD
  5
1A2A
102
{ACAD_REACTORS
330
1A14
102
}
330
1A14
100
AcDbXrecord
 10
0.0
 20
0.0
 30
0.0
  0
XRECORD
  5
1A28
102
{ACAD_REACTORS
330
1A14
102
}
330
1A14
100
AcDbXrecord
 10
0.0
 20
0.0
 30
0.0
  0
XRECORD
  5
1A29
102
{ACAD_REACTORS
330
1A14
102
}
330
1A14
100
AcDbXrecord
 10
0.0
 20
0.0
 30
0.0
  0
XRECORD
  5
1A26
102
{ACAD_REACTORS
330
1A14
102
}
330
1A14
100
AcDbXrecord
 10
0.0
 20
0.0
 30
0.0
  0
XRECORD
  5
1A23
102
{ACAD_REACTORS
330
1A14
102
}
330
1A14
100
AcDbXrecord
340
0
  0
XRECORD
  5
1A24
102
{ACAD_REACTORS
330
1A14
102
}
330
1A14
100
AcDbXrecord
 70
     0
  0
XRECORD
  5
1A18
102
{ACAD_REACTORS
330
1A14
102
}
330
1A14
100
AcDbXrecord
  1
Sekkei.ctb
  0
XRECORD
  5
1A15
102
{ACAD_REACTORS
330
1A14
102
}
330
1A14
100
AcDbXrecord
 90
        1
  0
XRECORD
  5
1A16
102
{ACAD_REACTORS
330
1A14
102
}
330
1A14
100
AcDbXrecord
 90
       70
  0
XRECORD
  5
1A2E
102
{ACAD_REACTORS
330
1A14
102
}
330
1A14
100
AcDbXrecord
340
0
  0
XRECORD
  5
1A34
102
{ACAD_REACTORS
330
1A14
102
}
330
1A14
100
AcDbXrecord
 10
0.0
 20
0.0
 30
0.0
  0
XRECORD
  5
1A30
102
{ACAD_REACTORS
330
1A14
102
}
330
1A14
100
AcDbXrecord
 10
0.0
 20
0.0
 30
0.0
  0
XRECORD
  5
1A33
102
{ACAD_REACTORS
330
1A14
102
}
330
1A14
100
AcDbXrecord
 10
0.0
 20
0.0
 30
0.0
  0
XRECORD
  5
1A31
102
{ACAD_REACTORS
330
1A14
102
}
330
1A14
100
AcDbXrecord
 10
0.0
 20
0.0
 30
0.0
  0
XRECORD
  5
1A32
102
{ACAD_REACTORS
330
1A14
102
}
330
1A14
100
AcDbXrecord
 10
0.0
 20
0.0
 30
0.0
  0
XRECORD
  5
1A2F
102
{ACAD_REACTORS
330
1A14
102
}
330
1A14
100
AcDbXrecord
 10
0.0
 20
0.0
 30
0.0
  0
XRECORD
  5
1A2C
102
{ACAD_REACTORS
330
1A14
102
}
330
1A14
100
AcDbXrecord
340
0
  0
XRECORD
  5
1A2D
102
{ACAD_REACTORS
330
1A14
102
}
330
1A14
100
AcDbXrecord
 70
     0
  0
XRECORD
  5
1A20
102
{ACAD_REACTORS
330
1A14
102
}
330
1A14
100
AcDbXrecord
  1
{7A9A334F-3F35-4448-929A-00E4C9F26EFA}
  0
DICTIONARYVAR
  5
103
102
{ACAD_REACTORS
330
102
102
}
330
102
100
DictionaryVariables
280
     0
  1
1
  0
ENDSEC
  0
EOF
