  0
SECTION
  2
HEADER
  9
$ACADVER
  1
AC1014
  9
$ACADMAINTVER
 70
     9
  9
$DWGCODEPAGE
  3
ANSI_932
  9
$INSBASE
 10
0.0
 20
0.0
 30
0.0
  9
$EXTMIN
 10
30.30245931997592
 20
40.32299554773977
 30
0.0
  9
$EXTMAX
 10
625.248237323804
 20
372.3505644746662
 30
0.0
  9
$LIMMIN
 10
0.0
 20
0.0
  9
$LIMMAX
 10
297.0
 20
210.0
  9
$ORTHOMODE
 70
     1
  9
$REGENMODE
 70
     1
  9
$FILLMODE
 70
     1
  9
$QTEXTMODE
 70
     0
  9
$MIRRTEXT
 70
     0
  9
$DRAGMODE
 70
     2
  9
$LTSCALE
 40
2.0
  9
$OSMODE
 70
    37
  9
$ATTMODE
 70
     1
  9
$TEXTSIZE
 40
2.0
  9
$TRACEWID
 40
1.0
  9
$TEXTSTYLE
  7
STANDARD
  9
$CLAYER
  8
0
  9
$CELTYPE
  6
BYLAYER
  9
$CECOLOR
 62
   256
  9
$CELTSCALE
 40
1.0
  9
$DELOBJ
 70
     1
  9
$DISPSILH
 70
     0
  9
$DIMSCALE
 40
2.0
  9
$DIMASZ
 40
1.8
  9
$DIMEXO
 40
0.625
  9
$DIMDLI
 40
3.75
  9
$DIMRND
 40
0.0
  9
$DIMDLE
 40
0.0
  9
$DIMEXE
 40
0.8
  9
$DIMTP
 40
0.0
  9
$DIMTM
 40
0.0
  9
$DIMTXT
 40
1.8
  9
$DIMCEN
 40
2.5
  9
$DIMTSZ
 40
0.0
  9
$DIMTOL
 70
     0
  9
$DIMLIM
 70
     0
  9
$DIMTIH
 70
     0
  9
$DIMTOH
 70
     0
  9
$DIMSE1
 70
     0
  9
$DIMSE2
 70
     0
  9
$DIMTAD
 70
     1
  9
$DIMZIN
 70
     8
  9
$DIMBLK
  1

  9
$DIMASO
 70
     1
  9
$DIMSHO
 70
     1
  9
$DIMPOST
  1

  9
$DIMAPOST
  1

  9
$DIMALT
 70
     0
  9
$DIMALTD
 70
     4
  9
$DIMALTF
 40
0.0394
  9
$DIMLFAC
 40
1.0
  9
$DIMTOFL
 70
     1
  9
$DIMTVP
 40
0.0
  9
$DIMTIX
 70
     0
  9
$DIMSOXD
 70
     0
  9
$DIMSAH
 70
     0
  9
$DIMBLK1
  1

  9
$DIMBLK2
  1

  9
$DIMSTYLE
  2
STANDARD
  9
$DIMCLRD
 70
     0
  9
$DIMCLRE
 70
     0
  9
$DIMCLRT
 70
     0
  9
$DIMTFAC
 40
1.0
  9
$DIMGAP
 40
0.75
  9
$DIMJUST
 70
     0
  9
$DIMSD1
 70
     0
  9
$DIMSD2
 70
     0
  9
$DIMTOLJ
 70
     1
  9
$DIMTZIN
 70
     0
  9
$DIMALTZ
 70
     0
  9
$DIMALTTZ
 70
     0
  9
$DIMFIT
 70
     3
  9
$DIMUPT
 70
     0
  9
$DIMUNIT
 70
     8
  9
$DIMDEC
 70
     2
  9
$DIMTDEC
 70
     2
  9
$DIMALTU
 70
     8
  9
$DIMALTTD
 70
     4
  9
$DIMTXSTY
  7
STANDARD
  9
$DIMAUNIT
 70
     0
  9
$LUNITS
 70
     2
  9
$LUPREC
 70
     3
  9
$SKETCHINC
 40
1.0
  9
$FILLETRAD
 40
10.0
  9
$AUNITS
 70
     0
  9
$AUPREC
 70
     2
  9
$MENU
  1
.
  9
$ELEVATION
 40
0.0
  9
$PELEVATION
 40
0.0
  9
$THICKNESS
 40
0.0
  9
$LIMCHECK
 70
     0
  9
$BLIPMODE
 70
     0
  9
$CHAMFERA
 40
0.0
  9
$CHAMFERB
 40
0.0
  9
$CHAMFERC
 40
20.0
  9
$CHAMFERD
 40
0.0
  9
$SKPOLY
 70
     0
  9
$TDCREATE
 40
2453752.641022858
  9
$TDUPDATE
 40
2454399.553897743
  9
$TDINDWG
 40
0.1893243750
  9
$TDUSRTIMER
 40
0.1893241898
  9
$USRTIMER
 70
     1
  9
$ANGBASE
 50
0.0
  9
$ANGDIR
 70
     0
  9
$PDMODE
 70
     0
  9
$PDSIZE
 40
-10.0
  9
$PLINEWID
 40
0.0
  9
$COORDS
 70
     1
  9
$SPLFRAME
 70
     0
  9
$SPLINETYPE
 70
     6
  9
$SPLINESEGS
 70
     8
  9
$ATTDIA
 70
     0
  9
$ATTREQ
 70
     1
  9
$HANDLING
 70
-16383
  9
$HANDSEED
  5
21EF
  9
$SURFTAB1
 70
     6
  9
$SURFTAB2
 70
     6
  9
$SURFTYPE
 70
     6
  9
$SURFU
 70
     6
  9
$SURFV
 70
     6
  9
$UCSNAME
  2

  9
$UCSORG
 10
0.0
 20
0.0
 30
0.0
  9
$UCSXDIR
 10
1.0
 20
0.0
 30
0.0
  9
$UCSYDIR
 10
0.0
 20
1.0
 30
0.0
  9
$PUCSNAME
  2

  9
$PUCSORG
 10
0.0
 20
0.0
 30
0.0
  9
$PUCSXDIR
 10
1.0
 20
0.0
 30
0.0
  9
$PUCSYDIR
 10
0.0
 20
1.0
 30
0.0
  9
$USERI1
 70
     0
  9
$USERI2
 70
     0
  9
$USERI3
 70
     0
  9
$USERI4
 70
     0
  9
$USERI5
 70
     0
  9
$USERR1
 40
0.0
  9
$USERR2
 40
0.0
  9
$USERR3
 40
0.0
  9
$USERR4
 40
0.0
  9
$USERR5
 40
0.0
  9
$WORLDVIEW
 70
     1
  9
$SHADEDGE
 70
     3
  9
$SHADEDIF
 70
    70
  9
$TILEMODE
 70
     1
  9
$MAXACTVP
 70
    48
  9
$PINSBASE
 10
0.0
 20
0.0
 30
0.0
  9
$PLIMCHECK
 70
     0
  9
$PEXTMIN
 10
0.0
 20
0.0
 30
0.0
  9
$PEXTMAX
 10
0.0
 20
0.0
 30
0.0
  9
$PLIMMIN
 10
0.0
 20
0.0
  9
$PLIMMAX
 10
12.0
 20
9.0
  9
$UNITMODE
 70
     0
  9
$VISRETAIN
 70
     1
  9
$PLINEGEN
 70
     0
  9
$PSLTSCALE
 70
     1
  9
$TREEDEPTH
 70
  3020
  9
$PICKSTYLE
 70
     1
  9
$CMLSTYLE
  2
STANDARD
  9
$CMLJUST
 70
     0
  9
$CMLSCALE
 40
1.0
  9
$PROXYGRAPHICS
 70
     1
  9
$MEASUREMENT
 70
     0
  0
ENDSEC
  0
SECTION
  2
CLASSES
  0
CLASS
  1
DICTIONARYVAR
  2
AcDbDictionaryVar
  3
AutoCAD 2000
 90
        0
280
     0
281
     0
  0
CLASS
  1
ACDBDICTIONARYWDFLT
  2
AcDbDictionaryWithDefault
  3
AutoCAD 2000
 90
        0
280
     0
281
     0
  0
CLASS
  1
ACDBPLACEHOLDER
  2
AcDbPlaceHolder
  3
AutoCAD 2000
 90
        0
280
     0
281
     0
  0
CLASS
  1
LAYOUT
  2
AcDbLayout
  3
AutoCAD 2000
 90
        0
280
     0
281
     0
  0
CLASS
  1
LONG_TRANSACTION
  2
AcDbLongTransaction
  3
AutoCAD 2000
 90
        0
280
     0
281
     0
  0
CLASS
  1
LWPOLYLINE
  2
AcDbPolyline
  3
AutoCAD 2000
 90
        0
280
     0
281
     1
  0
CLASS
  1
HATCH
  2
AcDbHatch
  3
AutoCAD 2000
 90
        0
280
     0
281
     1
  0
CLASS
  1
XRECORD
  2
AcDbXrecord
  3
AutoCAD 2000
 90
        0
280
     0
281
     0
  0
ENDSEC
  0
SECTION
  2
TABLES
  0
TABLE
  2
VPORT
  5
6E
330
0
100
AcDbSymbolTable
 70
     2
  0
VPORT
  5
21C9
330
6E
100
AcDbSymbolTableRecord
100
AcDbViewportTableRecord
  2
*ACTIVE
 70
     0
 10
0.0
 20
0.0
 11
1.0
 21
1.0
 12
321.1390440138679
 22
194.655099054679
 13
0.0
 23
0.0
 14
10.0
 24
10.0
 15
10.0
 25
10.0
 16
0.0
 26
0.0
 36
1.0
 17
0.0
 27
0.0
 37
0.0
 40
396.698766241867
 41
1.540920716112531
 42
50.0
 43
0.0
 44
0.0
 50
0.0
 51
0.0
 71
     0
 72
   100
 73
     1
 74
     3
 75
     0
 76
     0
 77
     0
 78
     0
  0
ENDTAB
  0
TABLE
  2
LTYPE
  5
69
330
0
100
AcDbSymbolTable
 70
     4
  0
LTYPE
  5
6A
330
69
100
AcDbSymbolTableRecord
100
AcDbLinetypeTableRecord
  2
BYBLOCK
 70
     0
  3

 72
    65
 73
     0
 40
0.0
  0
LTYPE
  5
6B
330
69
100
AcDbSymbolTableRecord
100
AcDbLinetypeTableRecord
  2
BYLAYER
 70
     0
  3

 72
    65
 73
     0
 40
0.0
  0
LTYPE
  5
8
330
69
100
AcDbSymbolTableRecord
100
AcDbLinetypeTableRecord
  2
CONTINUOUS
 70
     0
  3
Solid line
 72
    65
 73
     0
 40
0.0
  0
LTYPE
  5
27C
330
69
100
AcDbSymbolTableRecord
100
AcDbLinetypeTableRecord
  2
SEKKEI_A2_
 70
     0
  3
center(A2)  ____ _ ____ _ ____ _ ____ _ ____ _ 
 72
    65
 73
     4
 40
14.28749999999999
 49
9.525
 74
     0
 49
-1.587499999999999
 74
     0
 49
1.587499999999999
 74
     0
 49
-1.587499999999999
 74
     0
  0
LTYPE
  5
2B4
330
69
100
AcDbSymbolTableRecord
100
AcDbLinetypeTableRecord
  2
HIDDEN2
 70
     0
  3
Hidden (.5x) _ _ _ _ _ _ _ _ _ _ _ _ _ _ _ _ _
 72
    65
 73
     2
 40
4.762499999999999
 49
3.174999999999999
 74
     0
 49
-1.587499999999999
 74
     0
  0
LTYPE
  5
48F
330
69
100
AcDbSymbolTableRecord
100
AcDbLinetypeTableRecord
  2
SEKKEI_H
 70
     0
  3
Hidden-S _ _ _ _ _ _ _ _ _ _ _ _ _ _ _ _ _
 72
    65
 73
     2
 40
2.381249999999999
 49
1.587499999999999
 74
     0
 49
-0.79375
 74
     0
  0
ENDTAB
  0
TABLE
  2
LAYER
  5
66
330
0
100
AcDbSymbolTable
 70
     8
  0
LAYER
  5
5E
330
66
100
AcDbSymbolTableRecord
100
AcDbLayerTableRecord
  2
0
 70
     0
 62
     7
  6
CONTINUOUS
  0
LAYER
  5
3E
330
66
100
AcDbSymbolTableRecord
100
AcDbLayerTableRecord
  2
CENTER
 70
     0
 62
     3
  6
SEKKEI_A2_
  0
LAYER
  5
2B5
330
66
100
AcDbSymbolTableRecord
100
AcDbLayerTableRecord
  2
HIDS
 70
     0
 62
     1
  6
HIDDEN2
  0
LAYER
  5
3FA
330
66
100
AcDbSymbolTableRecord
100
AcDbLayerTableRecord
  2
TITLE
 70
     0
 62
     4
  6
CONTINUOUS
  0
ENDTAB
  0
TABLE
  2
STYLE
  5
67
330
0
100
AcDbSymbolTable
 70
     1
  0
STYLE
  5
16
330
67
100
AcDbSymbolTableRecord
100
AcDbTextStyleTableRecord
  2
STANDARD
 70
     0
 40
0.0
 41
1.0
 50
0.0
 71
     0
 42
2.0
  3
simplex.shx
  4
extfont.shx
  0
ENDTAB
  0
TABLE
  2
VIEW
  5
6C
330
0
100
AcDbSymbolTable
 70
     0
  0
ENDTAB
  0
TABLE
  2
UCS
  5
6D
330
0
100
AcDbSymbolTable
 70
     0
  0
ENDTAB
  0
TABLE
  2
APPID
  5
70
330
0
100
AcDbSymbolTable
 70
     1
  0
APPID
  5
71
330
70
100
AcDbSymbolTableRecord
100
AcDbRegAppTableRecord
  2
ACAD
 70
     0
  0
ENDTAB
  0
TABLE
  2
DIMSTYLE
  5
72
330
0
100
AcDbSymbolTable
 70
     2
  0
DIMSTYLE
105
73
330
72
100
AcDbSymbolTableRecord
100
AcDbDimStyleTableRecord
  2
STANDARD
 70
     0
  3

  4

  5

  6

  7

 40
2.0
 41
1.8
 42
0.625
 43
3.75
 44
0.8
 45
0.0
 46
0.0
 47
0.0
 48
0.0
140
1.8
141
2.5
142
0.0
143
0.0394
144
1.0
145
0.0
146
1.0
147
0.75
 71
     0
 72
     0
 73
     0
 74
     0
 75
     0
 76
     0
 77
     1
 78
     8
170
     0
171
     4
172
     1
173
     0
174
     0
175
     0
176
     0
177
     0
178
     0
270
     8
271
     2
272
     2
273
     8
274
     4
340
16
275
     0
280
     0
281
     0
282
     0
283
     1
284
     0
285
     0
286
     0
287
     3
288
     0
  0
ENDTAB
  0
TABLE
  2
BLOCK_RECORD
  5
1
330
0
100
AcDbSymbolTable
 70
    68
  0
BLOCK_RECORD
  5
2
102
{ACAD_XDICTIONARY
360
21EB
102
}
330
1
100
AcDbSymbolTableRecord
100
AcDbBlockTableRecord
  2
*MODEL_SPACE
  0
BLOCK_RECORD
  5
21C4
102
{ACAD_XDICTIONARY
360
21ED
102
}
330
1
100
AcDbSymbolTableRecord
100
AcDbBlockTableRecord
  2
*PAPER_SPACE
  0
ENDTAB
  0
ENDSEC
  0
SECTION
  2
BLOCKS
  0
BLOCK
  5
5D
330
2
100
AcDbEntity
  8
0
100
AcDbBlockBegin
  2
*MODEL_SPACE
 70
     0
 10
0.0
 20
0.0
 30
0.0
  3
*MODEL_SPACE
  1

  0
ENDBLK
  5
5F
330
2
100
AcDbEntity
  8
0
100
AcDbBlockEnd
  0
BLOCK
  5
21C6
330
21C4
100
AcDbEntity
 67
     1
  8
0
100
AcDbBlockBegin
  2
*PAPER_SPACE
 70
     0
 10
0.0
 20
0.0
 30
0.0
  3
*PAPER_SPACE
  1

  0
ENDBLK
  5
21C7
330
21C4
100
AcDbEntity
 67
     1
  8
0
100
AcDbBlockEnd
  0
ENDSEC
  0
SECTION
  2
ENTITIES
  0
TEXT
  5
5FB
330
2
100
AcDbEntity
  8
TITLE
100
AcDbText
 10
241.295934652656
 20
310.7373255896312
 30
0.0
 40
5.0
  1
HLM-15L-10~240-T15K
 41
0.8
100
AcDbText
  0
ARC
  5
5FC
330
2
100
AcDbEntity
  8
0
100
AcDbCircle
 10
319.1969186544389
 20
90.02299554773975
 30
0.0
 40
38.0
100
AcDbArc
 50
324.7998999999996
 51
21.29424099999966
  0
ARC
  5
5FD
330
2
100
AcDbEntity
  8
0
100
AcDbCircle
 10
319.1969186544389
 20
90.02299554773975
 30
0.0
 40
38.0
100
AcDbArc
 50
157.0805049999997
 51
215.3343960000001
  0
LINE
  5
5FE
330
2
100
AcDbEntity
  8
0
100
AcDbLine
 10
350.196918654439
 20
58.32299654773976
 30
0.0
 11
350.196918654439
 21
142.4165045477397
 31
0.0
  0
LINE
  5
5FF
330
2
100
AcDbEntity
  8
0
100
AcDbLine
 10
288.1969306544389
 20
58.32299654773976
 30
0.0
 11
288.196918654439
 21
142.4163975477397
 31
0.0
  0
LINE
  5
600
330
2
100
AcDbEntity
  8
CENTER
100
AcDbLine
 10
319.1969186544389
 20
40.32299554773977
 30
0.0
 11
319.1969186544389
 21
179.9105095477397
 31
0.0
  0
LINE
  5
601
330
2
100
AcDbEntity
  8
CENTER
100
AcDbLine
 10
274.196918654439
 20
90.02299554773975
 30
0.0
 11
364.196918654439
 21
90.02299554773975
 31
0.0
  0
LINE
  5
602
330
2
100
AcDbEntity
  8
0
100
AcDbLine
 10
272.196919654439
 20
47.32299554773976
 30
0.0
 11
366.196918654439
 21
47.32299554773976
 31
0.0
  0
LINE
  5
603
330
2
100
AcDbEntity
  8
HIDS
  6
SEKKEI_H
100
AcDbLine
 10
275.946919654439
 20
55.32299654773976
 30
0.0
 11
275.946919654439
 21
47.32299554773976
 31
0.0
  0
LINE
  5
604
330
2
100
AcDbEntity
  8
HIDS
  6
SEKKEI_H
100
AcDbLine
 10
282.446919654439
 20
55.32299654773976
 30
0.0
 11
282.446919654439
 21
47.32299554773976
 31
0.0
  0
LINE
  5
605
330
2
100
AcDbEntity
  8
CENTER
100
AcDbLine
 10
279.196919654439
 20
58.82299654773976
 30
0.0
 11
279.196919654439
 21
43.82299554773976
 31
0.0
  0
LINE
  5
606
330
2
100
AcDbEntity
  8
0
100
AcDbLine
 10
272.196919654439
 20
53.32299554773976
 30
0.0
 11
272.196919654439
 21
47.32299554773976
 31
0.0
  0
LINE
  5
607
330
2
100
AcDbEntity
  8
0
100
AcDbLine
 10
285.1969376544389
 20
55.32299654773976
 30
0.0
 11
274.196919654439
 21
55.32299654773976
 31
0.0
  0
ARC
  5
608
330
2
100
AcDbEntity
  8
0
100
AcDbCircle
 10
274.1969306544389
 20
53.32300554773977
 30
0.0
 40
2.0
100
AcDbArc
 50
90.0
 51
180.0
  0
ARC
  5
609
330
2
100
AcDbEntity
  8
0
100
AcDbCircle
 10
285.1969306544389
 20
58.32299654773976
 30
0.0
 40
3.0
100
AcDbArc
 50
270.0
 51
0.0
  0
LINE
  5
60A
330
2
100
AcDbEntity
  8
HIDS
  6
SEKKEI_H
100
AcDbLine
 10
355.946918654439
 20
55.32299654773976
 30
0.0
 11
355.946918654439
 21
47.32299554773976
 31
0.0
  0
LINE
  5
60B
330
2
100
AcDbEntity
  8
HIDS
  6
SEKKEI_H
100
AcDbLine
 10
362.446918654439
 20
55.32299654773976
 30
0.0
 11
362.446918654439
 21
47.32299554773976
 31
0.0
  0
LINE
  5
60C
330
2
100
AcDbEntity
  8
CENTER
100
AcDbLine
 10
359.1969186544389
 20
58.82299654773976
 30
0.0
 11
359.1969186544389
 21
43.82299554773976
 31
0.0
  0
LINE
  5
60D
330
2
100
AcDbEntity
  8
0
100
AcDbLine
 10
366.196918654439
 20
53.32299554773976
 30
0.0
 11
366.196918654439
 21
47.32299554773976
 31
0.0
  0
ARC
  5
60E
330
2
100
AcDbEntity
  8
0
100
AcDbCircle
 10
353.196918654439
 20
58.32299654773976
 30
0.0
 40
3.0
100
AcDbArc
 50
180.0
 51
270.0
  0
LINE
  5
60F
330
2
100
AcDbEntity
  8
0
100
AcDbLine
 10
353.196918654439
 20
55.32299654773976
 30
0.0
 11
364.196918654439
 21
55.32299654773976
 31
0.0
  0
ARC
  5
610
330
2
100
AcDbEntity
  8
0
100
AcDbCircle
 10
364.196941654439
 20
53.32298554773976
 30
0.0
 40
2.0
100
AcDbArc
 50
0.0
 51
90.0
  0
LINE
  5
611
330
2
100
AcDbEntity
  8
0
100
AcDbLine
 10
289.5887286544389
 20
125.6230085477397
 30
0.0
 11
348.838695654439
 21
125.6230085477397
 31
0.0
  0
LINE
  5
612
330
2
100
AcDbEntity
  8
0
100
AcDbLine
 10
348.231815654439
 20
144.4162065477397
 30
0.0
 11
319.1969186544389
 21
144.9230045477397
 31
0.0
  0
LINE
  5
613
330
2
100
AcDbEntity
  8
CENTER
100
AcDbLine
 10
277.196919654439
 20
112.3229985477397
 30
0.0
 11
390.1969186544389
 21
112.3229985477397
 31
0.0
  0
LINE
  5
614
330
2
100
AcDbEntity
  8
0
100
AcDbLine
 10
284.1969196544389
 20
93.32299454773977
 30
0.0
 11
284.1969196544389
 21
131.3229985477397
 31
0.0
  0
LINE
  5
615
330
2
100
AcDbEntity
  8
0
100
AcDbLine
 10
285.196918654439
 20
92.32299454773977
 30
0.0
 11
286.2009186524148
 21
92.32299454773977
 31
0.0
  0
ARC
  5
616
330
2
100
AcDbEntity
  8
0
100
AcDbCircle
 10
285.196918654439
 20
93.32299054773974
 30
0.0
 40
1.0
100
AcDbArc
 50
180.0
 51
270.0
  0
LINE
  5
617
330
2
100
AcDbEntity
  8
0
100
AcDbLine
 10
285.196918654439
 20
132.3229985477397
 30
0.0
 11
286.1969186544388
 21
132.3229985477397
 31
0.0
  0
ARC
  5
618
330
2
100
AcDbEntity
  8
0
100
AcDbCircle
 10
285.196918654439
 20
131.3229985477397
 30
0.0
 40
1.0
100
AcDbArc
 50
90.0
 51
180.0
  0
LINE
  5
619
330
2
100
AcDbEntity
  8
0
100
AcDbLine
 10
290.1620086544389
 20
144.4160925477397
 30
0.0
 11
319.1969186544389
 21
144.9230045477397
 31
0.0
  0
ARC
  5
61A
330
2
100
AcDbEntity
  8
0
100
AcDbCircle
 10
290.1969306544389
 20
142.4164045477397
 30
0.0
 40
2.0
100
AcDbArc
 50
91.00064099999967
 51
180.0
  0
LINE
  5
61B
330
2
100
AcDbEntity
  8
0
100
AcDbLine
 10
383.196918654439
 20
109.8229985477397
 30
0.0
 11
361.696941654439
 21
109.8229985477397
 31
0.0
  0
LINE
  5
61C
330
2
100
AcDbEntity
  8
0
100
AcDbLine
 10
383.196918654439
 20
114.8229985477397
 30
0.0
 11
361.696895654439
 21
114.8229985477397
 31
0.0
  0
LINE
  5
61D
330
2
100
AcDbEntity
  8
0
100
AcDbLine
 10
383.196918654439
 20
104.8229985477397
 30
0.0
 11
356.196918654439
 21
104.8229985477397
 31
0.0
  0
LINE
  5
61E
330
2
100
AcDbEntity
  8
0
100
AcDbLine
 10
383.196918654439
 20
119.8229985477397
 30
0.0
 11
356.196918654439
 21
119.8229985477397
 31
0.0
  0
ARC
  5
61F
330
2
100
AcDbEntity
  8
0
100
AcDbCircle
 10
361.696895654439
 20
112.3229825477397
 30
0.0
 40
2.5
100
AcDbArc
 50
90.0
 51
180.0
  0
LINE
  5
620
330
2
100
AcDbEntity
  8
0
100
AcDbLine
 10
356.196918654439
 20
120.8229985477397
 30
0.0
 11
356.196918654439
 21
103.8229985477397
 31
0.0
  0
LINE
  5
621
330
2
100
AcDbEntity
  8
0
100
AcDbLine
 10
354.196918654439
 20
93.32299454773977
 30
0.0
 11
354.196918654439
 21
131.3229985477397
 31
0.0
  0
LINE
  5
622
330
2
100
AcDbEntity
  8
0
100
AcDbLine
 10
353.196918654439
 20
92.32299454773977
 30
0.0
 11
352.1929186564631
 21
92.32299454773977
 31
0.0
  0
ARC
  5
623
330
2
100
AcDbEntity
  8
0
100
AcDbCircle
 10
353.196918654439
 20
93.32299054773974
 30
0.0
 40
1.0
100
AcDbArc
 50
270.0
 51
0.0
  0
ARC
  5
624
330
2
100
AcDbEntity
  8
0
100
AcDbCircle
 10
361.696918654439
 20
112.3229985477397
 30
0.0
 40
2.5
100
AcDbArc
 50
180.0
 51
270.0
  0
LINE
  5
625
330
2
100
AcDbEntity
  8
0
100
AcDbLine
 10
354.196918654439
 20
103.8229985477397
 30
0.0
 11
356.196918654439
 21
103.8229985477397
 31
0.0
  0
LINE
  5
626
330
2
100
AcDbEntity
  8
0
100
AcDbLine
 10
353.196918654439
 20
132.3229985477397
 30
0.0
 11
352.1969186544391
 21
132.3229985477397
 31
0.0
  0
LINE
  5
627
330
2
100
AcDbEntity
  8
0
100
AcDbLine
 10
354.196918654439
 20
120.8229985477397
 30
0.0
 11
356.196918654439
 21
120.8229985477397
 31
0.0
  0
ARC
  5
628
330
2
100
AcDbEntity
  8
0
100
AcDbCircle
 10
353.196918654439
 20
131.3229985477397
 30
0.0
 40
1.0
100
AcDbArc
 50
0.0
 51
90.0
  0
LINE
  5
629
330
2
100
AcDbEntity
  8
0
100
AcDbLine
 10
383.196918654439
 20
119.8229985477397
 30
0.0
 11
383.196918654439
 21
104.8229985477397
 31
0.0
  0
ARC
  5
62A
330
2
100
AcDbEntity
  8
0
100
AcDbCircle
 10
348.1969266544389
 20
142.4165045477397
 30
0.0
 40
2.0
100
AcDbArc
 50
0.0
 51
89.00013700000007
  0
LINE
  5
62B
330
2
100
AcDbEntity
  8
0
100
AcDbLine
 10
525.9594493238041
 20
59.77399454773976
 30
0.0
 11
597.7482373238039
 21
59.77399454773976
 31
0.0
  0
LINE
  5
62C
330
2
100
AcDbEntity
  8
0
100
AcDbLine
 10
525.632346323804
 20
120.2719955477397
 30
0.0
 11
597.7482373238039
 21
120.2719955477397
 31
0.0
  0
LINE
  5
62D
330
2
100
AcDbEntity
  8
0
100
AcDbLine
 10
597.7482373238039
 20
52.02299554773976
 30
0.0
 11
525.248252323804
 21
52.02299554773976
 31
0.0
  0
LINE
  5
62E
330
2
100
AcDbEntity
  8
0
100
AcDbLine
 10
597.7482373238039
 20
128.0229955477397
 30
0.0
 11
521.8285443238041
 21
128.0229955477397
 31
0.0
  0
LINE
  5
62F
330
2
100
AcDbEntity
  8
CENTER
100
AcDbLine
 10
625.248237323804
 20
90.02299554773975
 30
0.0
 11
509.5655433238041
 21
90.02299554773975
 31
0.0
  0
LINE
  5
630
330
2
100
AcDbEntity
  8
CENTER
100
AcDbLine
 10
482.7482523238041
 20
151.9229965477397
 30
0.0
 11
482.7482523238041
 21
40.32299554773977
 31
0.0
  0
LINE
  5
631
330
2
100
AcDbEntity
  8
0
100
AcDbLine
 10
525.248252323804
 20
123.0235975477397
 30
0.0
 11
525.248252323804
 21
47.32299554773976
 31
0.0
  0
LINE
  5
632
330
2
100
AcDbEntity
  8
0
100
AcDbLine
 10
440.2482523238041
 20
123.0235755477397
 30
0.0
 11
440.2482523238041
 21
47.32299554773976
 31
0.0
  0
LINE
  5
633
330
2
100
AcDbEntity
  8
0
100
AcDbLine
 10
479.560752323804
 20
85.88549454773977
 30
0.0
 11
485.935752323804
 21
85.88549454773977
 31
0.0
  0
LINE
  5
634
330
2
100
AcDbEntity
  8
0
100
AcDbLine
 10
479.560752323804
 20
83.89330654773976
 30
0.0
 11
480.268348323804
 21
83.89330654773976
 31
0.0
  0
LINE
  5
635
330
2
100
AcDbEntity
  8
0
100
AcDbLine
 10
523.248252323804
 20
55.32299654773976
 30
0.0
 11
442.248252323804
 21
55.32299654773976
 31
0.0
  0
LINE
  5
636
330
2
100
AcDbEntity
  8
0
100
AcDbLine
 10
525.248252323804
 20
47.32299554773976
 30
0.0
 11
440.2482523238041
 21
47.32299554773976
 31
0.0
  0
LINE
  5
637
330
2
100
AcDbEntity
  8
HIDS
  6
SEKKEI_H
100
AcDbLine
 10
451.9982523238041
 20
55.32299654773976
 30
0.0
 11
451.9982523238041
 21
47.32299554773976
 31
0.0
  0
LINE
  5
638
330
2
100
AcDbEntity
  8
HIDS
  6
SEKKEI_H
100
AcDbLine
 10
445.498252323804
 20
55.32299654773976
 30
0.0
 11
445.498252323804
 21
47.32299554773976
 31
0.0
  0
LINE
  5
639
330
2
100
AcDbEntity
  8
CENTER
100
AcDbLine
 10
448.7482523238041
 20
58.82299654773976
 30
0.0
 11
448.7482523238039
 21
43.82299554773976
 31
0.0
  0
ARC
  5
63A
330
2
100
AcDbEntity
  8
0
100
AcDbCircle
 10
442.248252323804
 20
53.32298554773976
 30
0.0
 40
2.0
100
AcDbArc
 50
90.0
 51
180.0
  0
LINE
  5
63B
330
2
100
AcDbEntity
  8
0
100
AcDbLine
 10
475.451850323804
 20
80.83031454773976
 30
0.0
 11
475.451850323804
 21
79.43577554773975
 31
0.0
  0
LINE
  5
63C
330
2
100
AcDbEntity
  8
0
100
AcDbLine
 10
475.451850323804
 20
79.83422454773975
 30
0.0
 11
475.451850323804
 21
80.63109654773976
 31
0.0
  0
LINE
  5
63D
330
2
100
AcDbEntity
  8
0
100
AcDbLine
 10
471.069053323804
 20
83.72297354773976
 30
0.0
 11
471.069053323804
 21
78.21390554773976
 31
0.0
  0
LINE
  5
63E
330
2
100
AcDbEntity
  8
0
100
AcDbLine
 10
469.998252323804
 20
84.40349254773975
 30
0.0
 11
469.998252323804
 21
77.56384654773976
 31
0.0
  0
LINE
  5
63F
330
2
100
AcDbEntity
  8
0
100
AcDbLine
 10
476.373252323804
 20
81.87621354773975
 30
0.0
 11
476.373252323804
 21
76.32299454773977
 31
0.0
  0
LINE
  5
640
330
2
100
AcDbEntity
  8
0
100
AcDbLine
 10
471.2280493238041
 20
76.32299454773977
 30
0.0
 11
474.5433423238041
 21
76.32299454773977
 31
0.0
  0
LINE
  5
641
330
2
100
AcDbEntity
  8
0
100
AcDbLine
 10
471.069053323804
 20
78.21390554773976
 30
0.0
 11
471.800346323804
 21
77.44359654773976
 31
0.0
  0
LINE
  5
642
330
2
100
AcDbEntity
  8
0
100
AcDbLine
 10
469.998252323804
 20
77.56384654773976
 30
0.0
 11
471.2280493238041
 21
76.32299454773977
 31
0.0
  0
LINE
  5
643
330
2
100
AcDbEntity
  8
0
100
AcDbLine
 10
475.451850323804
 20
76.32299454773977
 30
0.0
 11
476.373252323804
 21
76.32299454773977
 31
0.0
  0
LINE
  5
644
330
2
100
AcDbEntity
  8
0
100
AcDbLine
 10
475.451850323804
 20
77.08525454773976
 30
0.0
 11
474.5433423238041
 21
76.32299454773977
 31
0.0
  0
LINE
  5
645
330
2
100
AcDbEntity
  8
0
100
AcDbLine
 10
475.451850323804
 20
77.08525454773976
 30
0.0
 11
475.451850323804
 21
76.32299454773977
 31
0.0
  0
ARC
  5
646
330
2
100
AcDbEntity
  8
0
100
AcDbCircle
 10
473.459647323804
 20
79.43577554773975
 30
0.0
 40
1.992186999999999
100
AcDbArc
 50
270.0002139999998
 51
0.0001089999998967
  0
LINE
  5
647
330
2
100
AcDbEntity
  8
0
100
AcDbLine
 10
473.459647323804
 20
77.44359654773976
 30
0.0
 11
471.800346323804
 21
77.44359654773976
 31
0.0
  0
LINE
  5
648
330
2
100
AcDbEntity
  8
0
100
AcDbLine
 10
471.155646323804
 20
85.88549454773977
 30
0.0
 11
475.4422523238041
 21
85.88549454773977
 31
0.0
  0
LINE
  5
649
330
2
100
AcDbEntity
  8
0
100
AcDbLine
 10
471.788856323804
 20
84.61547454773976
 30
0.0
 11
471.069053323804
 21
83.72297354773976
 31
0.0
  0
LINE
  5
64A
330
2
100
AcDbEntity
  8
0
100
AcDbLine
 10
471.155646323804
 20
85.88549454773977
 30
0.0
 11
469.998252323804
 21
84.40349254773975
 31
0.0
  0
LINE
  5
64B
330
2
100
AcDbEntity
  8
0
100
AcDbLine
 10
473.783454323804
 20
81.87621354773975
 30
0.0
 11
476.373252323804
 21
81.87621354773975
 31
0.0
  0
LINE
  5
64C
330
2
100
AcDbEntity
  8
0
100
AcDbLine
 10
475.451850323804
 20
83.89330654773976
 30
0.0
 11
476.373252323804
 21
83.89330654773976
 31
0.0
  0
LINE
  5
64D
330
2
100
AcDbEntity
  8
0
100
AcDbLine
 10
475.4422523238041
 20
85.88549454773977
 30
0.0
 11
476.373252323804
 21
84.85235254773977
 31
0.0
  0
LINE
  5
64E
330
2
100
AcDbEntity
  8
0
100
AcDbLine
 10
475.451850323804
 20
84.04402554773975
 30
0.0
 11
475.451850323804
 21
83.89330654773976
 31
0.0
  0
LINE
  5
64F
330
2
100
AcDbEntity
  8
0
100
AcDbLine
 10
473.783454323804
 20
81.87621354773975
 30
0.0
 11
473.783454323804
 21
80.83031454773976
 31
0.0
  0
LINE
  5
650
330
2
100
AcDbEntity
  8
0
100
AcDbLine
 10
475.451850323804
 20
80.83031454773976
 30
0.0
 11
473.783454323804
 21
80.83031454773976
 31
0.0
  0
LINE
  5
651
330
2
100
AcDbEntity
  8
0
100
AcDbLine
 10
475.451850323804
 20
84.04402554773975
 30
0.0
 11
474.848655323804
 21
84.61547454773976
 31
0.0
  0
LINE
  5
652
330
2
100
AcDbEntity
  8
0
100
AcDbLine
 10
474.860755323804
 20
84.61547454773976
 30
0.0
 11
471.788856323804
 21
84.61547454773976
 31
0.0
  0
LINE
  5
653
330
2
100
AcDbEntity
  8
0
100
AcDbLine
 10
476.373252323804
 20
84.85235254773977
 30
0.0
 11
476.373252323804
 21
83.89330654773976
 31
0.0
  0
LINE
  5
654
330
2
100
AcDbEntity
  8
0
100
AcDbLine
 10
479.560752323804
 20
83.89330654773976
 30
0.0
 11
479.560752323804
 21
85.88549454773977
 31
0.0
  0
LINE
  5
655
330
2
100
AcDbEntity
  8
HIDS
  6
SEKKEI_H
100
AcDbLine
 10
519.998252323804
 20
55.32299654773976
 30
0.0
 11
519.998252323804
 21
47.32299554773976
 31
0.0
  0
LINE
  5
656
330
2
100
AcDbEntity
  8
HIDS
  6
SEKKEI_H
100
AcDbLine
 10
513.4982523238041
 20
55.32299654773976
 30
0.0
 11
513.4982523238041
 21
47.32299554773976
 31
0.0
  0
LINE
  5
657
330
2
100
AcDbEntity
  8
CENTER
100
AcDbLine
 10
516.7482523238038
 20
58.82299654773976
 30
0.0
 11
516.7482523238041
 21
43.82299554773976
 31
0.0
  0
LINE
  5
658
330
2
100
AcDbEntity
  8
0
100
AcDbLine
 10
492.7325513238041
 20
80.79296154773976
 30
0.0
 11
494.227653323804
 21
77.31908454773975
 31
0.0
  0
LINE
  5
659
330
2
100
AcDbEntity
  8
0
100
AcDbLine
 10
493.6500463238041
 20
80.87960854773976
 30
0.0
 11
495.2299423238041
 21
77.31908454773975
 31
0.0
  0
LINE
  5
65A
330
2
100
AcDbEntity
  8
0
100
AcDbLine
 10
490.692054323804
 20
80.79296154773976
 30
0.0
 11
490.692054323804
 21
77.31908454773975
 31
0.0
  0
LINE
  5
65B
330
2
100
AcDbEntity
  8
0
100
AcDbLine
 10
489.596351323804
 20
84.71508454773976
 30
0.0
 11
489.596351323804
 21
77.31908454773975
 31
0.0
  0
LINE
  5
65C
330
2
100
AcDbEntity
  8
0
100
AcDbLine
 10
483.321052323804
 20
84.71508454773976
 30
0.0
 11
483.321052323804
 21
77.36888554773975
 31
0.0
  0
LINE
  5
65D
330
2
100
AcDbEntity
  8
0
100
AcDbLine
 10
482.1256483238041
 20
84.71508454773976
 30
0.0
 11
482.1256483238041
 21
77.36888554773975
 31
0.0
  0
LINE
  5
65E
330
2
100
AcDbEntity
  8
0
100
AcDbLine
 10
481.6525493238041
 20
77.36888554773975
 30
0.0
 11
482.1256483238041
 21
77.36888554773975
 31
0.0
  0
LINE
  5
65F
330
2
100
AcDbEntity
  8
0
100
AcDbLine
 10
481.6525493238041
 20
76.32299454773977
 30
0.0
 11
483.7194433238041
 21
76.32299454773977
 31
0.0
  0
LINE
  5
660
330
2
100
AcDbEntity
  8
0
100
AcDbLine
 10
483.7194433238041
 20
77.36888554773975
 30
0.0
 11
483.7194433238041
 21
76.32299454773977
 31
0.0
  0
LINE
  5
661
330
2
100
AcDbEntity
  8
0
100
AcDbLine
 10
481.6525493238041
 20
77.36888554773975
 30
0.0
 11
481.6525493238041
 21
76.32299454773977
 31
0.0
  0
LINE
  5
662
330
2
100
AcDbEntity
  8
0
100
AcDbLine
 10
483.321052323804
 20
77.36888554773975
 30
0.0
 11
483.7194433238041
 21
77.36888554773975
 31
0.0
  0
LINE
  5
663
330
2
100
AcDbEntity
  8
0
100
AcDbLine
 10
489.123252323804
 20
77.31908454773975
 30
0.0
 11
489.123252323804
 21
76.32299454773977
 31
0.0
  0
LINE
  5
664
330
2
100
AcDbEntity
  8
0
100
AcDbLine
 10
491.1278453238041
 20
77.31908454773975
 30
0.0
 11
491.1278453238041
 21
76.32299454773977
 31
0.0
  0
LINE
  5
665
330
2
100
AcDbEntity
  8
0
100
AcDbLine
 10
491.1278453238041
 20
76.32299454773977
 30
0.0
 11
489.123252323804
 21
76.32299454773977
 31
0.0
  0
LINE
  5
666
330
2
100
AcDbEntity
  8
0
100
AcDbLine
 10
490.692054323804
 20
77.31908454773975
 30
0.0
 11
491.1278453238041
 21
77.31908454773975
 31
0.0
  0
LINE
  5
667
330
2
100
AcDbEntity
  8
0
100
AcDbLine
 10
489.123252323804
 20
77.31908454773975
 30
0.0
 11
489.596351323804
 21
77.31908454773975
 31
0.0
  0
LINE
  5
668
330
2
100
AcDbEntity
  8
0
100
AcDbLine
 10
494.0290443238041
 20
77.31908454773975
 30
0.0
 11
494.0290443238041
 21
76.32299454773977
 31
0.0
  0
LINE
  5
669
330
2
100
AcDbEntity
  8
0
100
AcDbLine
 10
495.498252323804
 20
77.31908454773975
 30
0.0
 11
495.498252323804
 21
76.32299454773977
 31
0.0
  0
LINE
  5
66A
330
2
100
AcDbEntity
  8
0
100
AcDbLine
 10
494.0290443238041
 20
76.32299454773977
 30
0.0
 11
495.498252323804
 21
76.32299454773977
 31
0.0
  0
LINE
  5
66B
330
2
100
AcDbEntity
  8
0
100
AcDbLine
 10
495.2299423238041
 20
77.31908454773975
 30
0.0
 11
495.498252323804
 21
77.31908454773975
 31
0.0
  0
LINE
  5
66C
330
2
100
AcDbEntity
  8
0
100
AcDbLine
 10
494.0290443238041
 20
77.31908454773975
 30
0.0
 11
494.227653323804
 21
77.31908454773975
 31
0.0
  0
LINE
  5
66D
330
2
100
AcDbEntity
  8
0
100
AcDbLine
 10
483.321052323804
 20
84.71508454773976
 30
0.0
 11
484.982047323804
 21
84.71508454773976
 31
0.0
  0
LINE
  5
66E
330
2
100
AcDbEntity
  8
0
100
AcDbLine
 10
482.1256483238041
 20
84.71508454773976
 30
0.0
 11
480.610847323804
 21
84.71508454773976
 31
0.0
  0
LINE
  5
66F
330
2
100
AcDbEntity
  8
0
100
AcDbLine
 10
480.610847323804
 20
84.71508454773976
 30
0.0
 11
480.268348323804
 21
83.89330654773976
 31
0.0
  0
LINE
  5
670
330
2
100
AcDbEntity
  8
0
100
AcDbLine
 10
484.982047323804
 20
84.71508454773976
 30
0.0
 11
485.270744323804
 21
83.89330654773976
 31
0.0
  0
LINE
  5
671
330
2
100
AcDbEntity
  8
0
100
AcDbLine
 10
485.270744323804
 20
83.89330654773976
 30
0.0
 11
485.935752323804
 21
83.89330654773976
 31
0.0
  0
LINE
  5
672
330
2
100
AcDbEntity
  8
0
100
AcDbLine
 10
485.935752323804
 20
83.89330654773976
 30
0.0
 11
485.935752323804
 21
85.88549454773977
 31
0.0
  0
ARC
  5
673
330
2
100
AcDbEntity
  8
0
100
AcDbCircle
 10
492.945747323804
 20
83.33300454773976
 30
0.0
 40
2.55249
100
AcDbArc
 50
286.0181269999995
 51
90.00350999999964
  0
LINE
  5
674
330
2
100
AcDbEntity
  8
0
100
AcDbLine
 10
490.692054323804
 20
81.78882654773975
 30
0.0
 11
493.146751323804
 21
81.78882654773975
 31
0.0
  0
LINE
  5
675
330
2
100
AcDbEntity
  8
0
100
AcDbLine
 10
490.692054323804
 20
84.71508454773976
 30
0.0
 11
493.666953323804
 21
84.71314654773976
 31
0.0
  0
LINE
  5
676
330
2
100
AcDbEntity
  8
0
100
AcDbLine
 10
490.692054323804
 20
80.79296154773976
 30
0.0
 11
492.7325513238041
 21
80.79296154773976
 31
0.0
  0
LINE
  5
677
330
2
100
AcDbEntity
  8
0
100
AcDbLine
 10
489.123252323804
 20
84.71508454773976
 30
0.0
 11
489.596351323804
 21
84.71508454773976
 31
0.0
  0
LINE
  5
678
330
2
100
AcDbEntity
  8
0
100
AcDbLine
 10
490.692054323804
 20
84.71508454773976
 30
0.0
 11
490.692054323804
 21
81.78882654773975
 31
0.0
  0
LINE
  5
679
330
2
100
AcDbEntity
  8
0
100
AcDbLine
 10
489.123252323804
 20
85.88549454773977
 30
0.0
 11
489.123252323804
 21
84.71508454773976
 31
0.0
  0
LINE
  5
67A
330
2
100
AcDbEntity
  8
0
100
AcDbLine
 10
489.123252323804
 20
85.88549454773977
 30
0.0
 11
492.945747323804
 21
85.88549454773977
 31
0.0
  0
ARC
  5
67B
330
2
100
AcDbEntity
  8
0
100
AcDbCircle
 10
492.945747323804
 20
83.33300454773976
 30
0.0
 40
1.557193
100
AcDbArc
 50
277.4147260000004
 51
62.41184999999949
  0
ARC
  5
67C
330
2
100
AcDbEntity
  8
0
100
AcDbCircle
 10
523.248252323804
 20
53.32300554773977
 30
0.0
 40
2.0
100
AcDbArc
 50
0.0
 51
90.0
  0
CIRCLE
  5
67D
330
2
100
AcDbEntity
  8
0
100
AcDbCircle
 10
482.7482523238041
 20
112.3229985477397
 30
0.0
 40
20.0
  0
ARC
  5
67E
330
2
100
AcDbEntity
  8
0
100
AcDbCircle
 10
482.7482523238041
 20
112.3229985477397
 30
0.0
 40
7.5
100
AcDbArc
 50
199.4712070000002
 51
160.5287929999997
  0
LINE
  5
67F
330
2
100
AcDbEntity
  8
0
100
AcDbLine
 10
496.168754323804
 20
144.9229965477397
 30
0.0
 11
469.327750323804
 21
144.9229965477397
 31
0.0
  0
LINE
  5
680
330
2
100
AcDbEntity
  8
CENTER
100
AcDbLine
 10
509.748252323804
 20
112.3229985477397
 30
0.0
 11
455.748252323804
 21
112.3229985477397
 31
0.0
  0
LINE
  5
681
330
2
100
AcDbEntity
  8
0
100
AcDbLine
 10
442.375953323804
 20
127.1162565477397
 30
0.0
 11
466.4554513238041
 21
144.0156555477397
 31
0.0
  0
ARC
  5
682
330
2
100
AcDbEntity
  8
0
100
AcDbCircle
 10
445.2482523238041
 20
123.0235755477397
 30
0.0
 40
5.0
100
AcDbArc
 50
125.0615999999999
 51
180.0
  0
LINE
  5
683
330
2
100
AcDbEntity
  8
0
100
AcDbLine
 10
478.2482523238041
 20
109.8229985477397
 30
0.0
 11
478.2482523238041
 21
114.8229985477397
 31
0.0
  0
LINE
  5
684
330
2
100
AcDbEntity
  8
0
100
AcDbLine
 10
473.248252323804
 20
114.8229985477397
 30
0.0
 11
473.248252323804
 21
109.8229985477397
 31
0.0
  0
LINE
  5
685
330
2
100
AcDbEntity
  8
0
100
AcDbLine
 10
478.2482523238041
 20
109.8229985477397
 30
0.0
 11
473.248252323804
 21
109.8229985477397
 31
0.0
  0
LINE
  5
686
330
2
100
AcDbEntity
  8
0
100
AcDbLine
 10
478.2482523238041
 20
114.8229985477397
 30
0.0
 11
473.248252323804
 21
114.8229985477397
 31
0.0
  0
ARC
  5
687
330
2
100
AcDbEntity
  8
0
100
AcDbCircle
 10
469.327644323804
 20
139.9229895477397
 30
0.0
 40
5.0
100
AcDbArc
 50
90.0
 51
125.0615999999999
  0
LINE
  5
688
330
2
100
AcDbEntity
  8
0
100
AcDbLine
 10
523.1205513238039
 20
127.1162565477397
 30
0.0
 11
499.0410533238041
 21
144.0156485477397
 31
0.0
  0
ARC
  5
689
330
2
100
AcDbEntity
  8
0
100
AcDbCircle
 10
520.2482523238041
 20
123.0236135477397
 30
0.0
 40
5.0
100
AcDbArc
 50
0.0
 51
54.93769800000007
  0
ARC
  5
68A
330
2
100
AcDbEntity
  8
0
100
AcDbCircle
 10
496.168754323804
 20
139.9230045477397
 30
0.0
 40
5.0
100
AcDbArc
 50
54.93780099999962
 51
90.0
  0
LINE
  5
68B
330
2
100
AcDbEntity
  8
0
100
AcDbLine
 10
617.7482373238039
 20
55.02299554773975
 30
0.0
 11
617.7482373238039
 21
125.0229955477397
 31
0.0
  0
LINE
  5
68C
330
2
100
AcDbEntity
  8
0
100
AcDbLine
 10
618.2482373238039
 20
58.02299554773975
 30
0.0
 11
618.2482373238039
 21
122.0229955477397
 31
0.0
  0
LINE
  5
68D
330
2
100
AcDbEntity
  8
0
100
AcDbLine
 10
597.7482373238039
 20
52.02299554773976
 30
0.0
 11
597.7482373238039
 21
128.0229955477397
 31
0.0
  0
ARC
  5
68E
330
2
100
AcDbEntity
  8
0
100
AcDbCircle
 10
614.2841563238039
 20
55.02298554773978
 30
0.0
 40
3.0
100
AcDbArc
 50
270.0
 51
330.0003969999997
  0
LINE
  5
68F
330
2
100
AcDbEntity
  8
0
100
AcDbLine
 10
597.7482373238039
 20
59.77399454773976
 30
0.0
 11
616.166663323804
 21
59.77399454773976
 31
0.0
  0
LINE
  5
690
330
2
100
AcDbEntity
  8
0
100
AcDbLine
 10
614.2841563238039
 20
52.02299554773976
 30
0.0
 11
597.7482373238039
 21
52.02299554773976
 31
0.0
  0
LINE
  5
691
330
2
100
AcDbEntity
  8
0
100
AcDbLine
 10
616.8822393238039
 20
53.52300554773975
 30
0.0
 11
617.7482373238039
 21
55.02299554773975
 31
0.0
  0
LINE
  5
692
330
2
100
AcDbEntity
  8
0
100
AcDbLine
 10
618.2482373238039
 20
58.02299554773975
 30
0.0
 11
617.7482373238039
 21
57.52299554773975
 31
0.0
  0
ARC
  5
693
330
2
100
AcDbEntity
  8
0
100
AcDbCircle
 10
614.2841563238039
 20
125.0230025477397
 30
0.0
 40
3.0
100
AcDbArc
 50
29.99959900000014
 51
90.0
  0
LINE
  5
699
330
2
100
AcDbEntity
  8
0
100
AcDbLine
 10
616.166663323804
 20
120.2719955477397
 30
0.0
 11
597.7482373238039
 21
120.2719955477397
 31
0.0
  0
LINE
  5
69A
330
2
100
AcDbEntity
  8
0
100
AcDbLine
 10
614.2841563238039
 20
128.0229955477397
 30
0.0
 11
597.7482373238039
 21
128.0229955477397
 31
0.0
  0
LINE
  5
6A0
330
2
100
AcDbEntity
  8
0
100
AcDbLine
 10
618.2482373238039
 20
122.0229955477397
 30
0.0
 11
617.7482373238039
 21
122.5229955477397
 31
0.0
  0
LINE
  5
6A1
330
2
100
AcDbEntity
  8
0
100
AcDbLine
 10
616.8822393238039
 20
126.5229875477397
 30
0.0
 11
617.7482373238039
 21
125.0229955477397
 31
0.0
  0
LINE
  5
6A2
330
2
100
AcDbEntity
  8
0
100
AcDbLine
 10
98.80226031997597
 20
278.3505644746663
 30
0.0
 11
133.7221443199759
 21
278.3505644746663
 31
0.0
  0
LINE
  5
6A3
330
2
100
AcDbEntity
  8
0
100
AcDbLine
 10
57.80248131997587
 20
263.3505494746663
 30
0.0
 11
128.302466319976
 21
263.3505494746663
 31
0.0
  0
LINE
  5
6A4
330
2
100
AcDbEntity
  8
0
100
AcDbLine
 10
98.80245831997591
 20
324.3505644746663
 30
0.0
 11
133.7221443199759
 21
324.3505644746663
 31
0.0
  0
LINE
  5
6A5
330
2
100
AcDbEntity
  8
0
100
AcDbLine
 10
128.302466319976
 20
339.3505644746663
 30
0.0
 11
57.80248131997587
 21
339.3505644746663
 31
0.0
  0
LINE
  5
6A6
330
2
100
AcDbEntity
  8
CENTER
100
AcDbLine
 10
30.30248131997601
 20
301.3505644746663
 30
0.0
 11
222.3024663199758
 21
301.3505644746663
 31
0.0
  0
LINE
  5
6A7
330
2
100
AcDbEntity
  8
0
100
AcDbLine
 10
133.7221443199759
 20
280.3505644746663
 30
0.0
 11
133.7221443199759
 21
322.3508384746663
 31
0.0
  0
LINE
  5
6A8
330
2
100
AcDbEntity
  8
0
100
AcDbLine
 10
157.8024663199759
 20
330.3854614746663
 30
0.0
 11
157.8024663199759
 21
272.3156524746662
 31
0.0
  0
LINE
  5
6A9
330
2
100
AcDbEntity
  8
0
100
AcDbLine
 10
187.8024663199759
 20
330.3854614746663
 30
0.0
 11
187.8024663199759
 21
272.3156524746662
 31
0.0
  0
LINE
  5
6AA
330
2
100
AcDbEntity
  8
0
100
AcDbLine
 10
214.5335303199759
 20
257.2982114746662
 30
0.0
 11
215.3024663199758
 21
301.3505644746663
 31
0.0
  0
LINE
  5
6AB
330
2
100
AcDbEntity
  8
CENTER
100
AcDbLine
 10
172.8024663199759
 20
372.3505644746662
 30
0.0
 11
172.8024663199759
 21
247.3505494746663
 31
0.0
  0
LINE
  5
6AC
330
2
100
AcDbEntity
  8
0
100
AcDbLine
 10
164.3024663199759
 20
338.3505644746663
 30
0.0
 11
181.3024663199758
 21
338.3505644746663
 31
0.0
  0
LINE
  5
6AD
330
2
100
AcDbEntity
  8
0
100
AcDbLine
 10
165.302466319976
 20
365.3505644746662
 30
0.0
 11
182.3024663199759
 21
365.3505644746662
 31
0.0
  0
LINE
  5
6AE
330
2
100
AcDbEntity
  8
0
100
AcDbLine
 10
191.8024663199759
 20
336.3505644746663
 30
0.0
 11
153.8024663199759
 21
336.3505644746663
 31
0.0
  0
LINE
  5
6AF
330
2
100
AcDbEntity
  8
0
100
AcDbLine
 10
132.8089663199759
 20
332.3505644746663
 30
0.0
 11
212.7959663199758
 21
332.3505644746663
 31
0.0
  0
LINE
  5
6B0
330
2
100
AcDbEntity
  8
0
100
AcDbLine
 10
181.3024663199758
 20
338.3505644746663
 30
0.0
 11
181.3024663199758
 21
336.3505644746663
 31
0.0
  0
LINE
  5
6B2
330
2
100
AcDbEntity
  8
0
100
AcDbLine
 10
214.5335303199759
 20
345.4029174746663
 30
0.0
 11
215.3024663199758
 21
301.3505644746663
 31
0.0
  0
LINE
  5
6B3
330
2
100
AcDbEntity
  8
0
100
AcDbLine
 10
182.3024663199759
 20
348.3505644746662
 30
0.0
 11
211.5339883199758
 21
348.3505644746662
 31
0.0
  0
CIRCLE
  5
6B5
330
2
100
AcDbEntity
  8
0
100
AcDbCircle
 10
206.8024663199758
 20
341.3505644746663
 30
0.0
 40
3.25
  0
ARC
  5
6B6
330
2
100
AcDbEntity
  8
0
100
AcDbCircle
 10
211.5339883199758
 20
345.3505644746663
 30
0.0
 40
3.0
100
AcDbArc
 50
1.000000000000156
 51
90.0
  0
LINE
  5
6B7
330
2
100
AcDbEntity
  8
0
100
AcDbLine
 10
179.8734653199758
 20
341.3505644746662
 30
0.0
 11
179.8734653199759
 21
365.3505644746662
 31
0.0
  0
LINE
  5
6B8
330
2
100
AcDbEntity
  8
0
100
AcDbLine
 10
182.3024663199759
 20
341.3505644746662
 30
0.0
 11
182.3024663199759
 21
365.3505644746662
 31
0.0
  0
LINE
  5
6B9
330
2
100
AcDbEntity
  8
0
100
AcDbLine
 10
180.3024663199759
 20
341.3505644746662
 30
0.0
 11
180.3024663199759
 21
338.3505644746663
 31
0.0
  0
LINE
  5
6BA
330
2
100
AcDbEntity
  8
0
100
AcDbLine
 10
179.8734653199758
 20
341.3505644746662
 30
0.0
 11
182.3024663199759
 21
341.3505644746662
 31
0.0
  0
ARC
  5
6BB
330
2
100
AcDbEntity
  8
0
100
AcDbCircle
 10
212.7959663199758
 20
330.3505644746663
 30
0.0
 40
2.0
100
AcDbArc
 50
1.000000000000156
 51
90.0
  0
ARC
  5
6BC
330
2
100
AcDbEntity
  8
0
100
AcDbCircle
 10
191.8024663199759
 20
335.3505644746663
 30
0.0
 40
1.0
100
AcDbArc
 50
0.0
 51
90.0
  0
LINE
  5
6BD
330
2
100
AcDbEntity
  8
0
100
AcDbLine
 10
192.8024663199759
 20
335.3505644746663
 30
0.0
 11
192.8024663199759
 21
334.3505644746664
 31
0.0
  0
LINE
  5
6BE
330
2
100
AcDbEntity
  8
0
100
AcDbLine
 10
130.302466319976
 20
337.3505644746663
 30
0.0
 11
130.302466319976
 21
333.7027214746663
 31
0.0
  0
LINE
  5
6BF
330
2
100
AcDbEntity
  8
0
100
AcDbLine
 10
164.3024663199759
 20
338.3505644746663
 30
0.0
 11
164.3024663199759
 21
336.3505644746663
 31
0.0
  0
LINE
  5
6C1
330
2
100
AcDbEntity
  8
0
100
AcDbLine
 10
131.0712953199759
 20
345.4029174746663
 30
0.0
 11
130.8469153199758
 21
332.5464714746662
 31
0.0
  0
CIRCLE
  5
6C2
330
2
100
AcDbEntity
  8
0
100
AcDbCircle
 10
138.8024663199759
 20
341.3505644746663
 30
0.0
 40
3.25
  0
LINE
  5
6C4
330
2
100
AcDbEntity
  8
0
100
AcDbLine
 10
134.0708383199759
 20
348.3505644746662
 30
0.0
 11
165.3024663199759
 21
348.3505644746662
 31
0.0
  0
LINE
  5
6C5
330
2
100
AcDbEntity
  8
0
100
AcDbLine
 10
165.302466319976
 20
365.3505644746662
 30
0.0
 11
165.3024663199759
 21
338.3505644746663
 31
0.0
  0
ARC
  5
6C6
330
2
100
AcDbEntity
  8
0
100
AcDbCircle
 10
134.0708383199759
 20
345.3505644746663
 30
0.0
 40
3.0
100
AcDbArc
 50
90.0
 51
179.0001529999997
  0
ARC
  5
6C7
330
2
100
AcDbEntity
  8
0
100
AcDbCircle
 10
128.302466319976
 20
337.3505644746663
 30
0.0
 40
2.0
100
AcDbArc
 50
0.0
 51
90.0
  0
ARC
  5
6C8
330
2
100
AcDbEntity
  8
0
100
AcDbCircle
 10
153.8024663199759
 20
335.3505644746663
 30
0.0
 40
1.0
100
AcDbArc
 50
90.0
 51
180.0
  0
LINE
  5
6C9
330
2
100
AcDbEntity
  8
0
100
AcDbLine
 10
152.8024663199759
 20
335.3505644746663
 30
0.0
 11
152.8024663199759
 21
334.3505644746664
 31
0.0
  0
LINE
  5
6CA
330
2
100
AcDbEntity
  8
0
100
AcDbLine
 10
130.8091953199759
 20
330.3854614746663
 30
0.0
 11
130.7038793199758
 21
324.3505644746663
 31
0.0
  0
ARC
  5
6CB
330
2
100
AcDbEntity
  8
0
100
AcDbCircle
 10
132.8089663199759
 20
330.3505644746663
 30
0.0
 40
2.0
100
AcDbArc
 50
90.0
 51
178.9999999999998
  0
ARC
  5
6CC
330
2
100
AcDbEntity
  8
0
100
AcDbCircle
 10
131.802466319976
 20
333.7027214746663
 30
0.0
 40
1.5
100
AcDbArc
 50
180.0
 51
286.7126539999996
  0
LINE
  5
6CD
330
2
100
AcDbEntity
  8
0
100
AcDbLine
 10
134.0708383199759
 20
254.3505494746663
 30
0.0
 11
211.5339883199758
 21
254.3505494746663
 31
0.0
  0
LINE
  5
6CE
330
2
100
AcDbEntity
  8
0
100
AcDbLine
 10
132.8089663199759
 20
270.3505644746663
 30
0.0
 11
212.7959663199758
 21
270.3505644746663
 31
0.0
  0
CIRCLE
  5
6D0
330
2
100
AcDbEntity
  8
0
100
AcDbCircle
 10
206.8024663199758
 20
261.3505494746663
 30
0.0
 40
3.25
  0
ARC
  5
6D1
330
2
100
AcDbEntity
  8
0
100
AcDbCircle
 10
212.7959663199758
 20
272.3505644746663
 30
0.0
 40
2.0
100
AcDbArc
 50
270.0
 51
358.9999999999998
  0
ARC
  5
6D2
330
2
100
AcDbEntity
  8
0
100
AcDbCircle
 10
211.5339883199758
 20
257.3505494746663
 30
0.0
 40
3.0
100
AcDbArc
 50
270.0
 51
358.9999999999998
  0
CIRCLE
  5
6D4
330
2
100
AcDbEntity
  8
0
100
AcDbCircle
 10
138.8024663199759
 20
261.3505494746663
 30
0.0
 40
3.25
  0
LINE
  5
6D5
330
2
100
AcDbEntity
  8
CENTER
100
AcDbLine
 10
133.052466319976
 20
261.3505494746663
 30
0.0
 11
144.5524663199759
 21
261.3505494746663
 31
0.0
  0
ARC
  5
6D7
330
2
100
AcDbEntity
  8
0
100
AcDbCircle
 10
132.8089663199759
 20
272.3505644746663
 30
0.0
 40
2.0
100
AcDbArc
 50
181.0000000000001
 51
270.0
  0
LINE
  5
6D8
330
2
100
AcDbEntity
  8
0
100
AcDbLine
 10
130.8091953199759
 20
272.3156674746662
 30
0.0
 11
130.7038793199758
 21
278.3505644746663
 31
0.0
  0
LINE
  5
6D9
330
2
100
AcDbEntity
  8
CENTER
100
AcDbLine
 10
138.8024663199759
 20
255.6005494746663
 30
0.0
 11
138.8024663199759
 21
267.1005494746663
 31
0.0
  0
LINE
  5
6DA
330
2
100
AcDbEntity
  8
0
100
AcDbLine
 10
131.0712953199759
 20
257.2982114746662
 30
0.0
 11
130.8469153199758
 21
270.1546564746663
 31
0.0
  0
LINE
  5
6DB
330
2
100
AcDbEntity
  8
0
100
AcDbLine
 10
130.302466319976
 20
265.3505644746663
 30
0.0
 11
130.302466319976
 21
268.9984064746663
 31
0.0
  0
ARC
  5
6DC
330
2
100
AcDbEntity
  8
0
100
AcDbCircle
 10
131.802466319976
 20
268.9984064746663
 30
0.0
 40
1.5
100
AcDbArc
 50
73.28734600000043
 51
180.0
  0
ARC
  5
6DD
330
2
100
AcDbEntity
  8
0
100
AcDbCircle
 10
128.302466319976
 20
265.3505644746663
 30
0.0
 40
2.0
100
AcDbArc
 50
270.0
 51
0.0
  0
ARC
  5
6DE
330
2
100
AcDbEntity
  8
0
100
AcDbCircle
 10
134.0708383199759
 20
257.3505494746663
 30
0.0
 40
3.0
100
AcDbArc
 50
180.999848
 51
270.0
  0
LINE
  5
6DF
330
2
100
AcDbEntity
  8
0
100
AcDbLine
 10
57.80248131997587
 20
263.3505494746663
 30
0.0
 11
57.80248131997587
 21
276.3505644746663
 31
0.0
  0
LINE
  5
6E0
330
2
100
AcDbEntity
  8
0
100
AcDbLine
 10
37.80248131997586
 20
266.3505644746663
 30
0.0
 11
37.80248131997586
 21
336.3505644746663
 31
0.0
  0
LINE
  5
6E1
330
2
100
AcDbEntity
  8
0
100
AcDbLine
 10
37.30248131997598
 20
269.3505644746663
 30
0.0
 11
37.30248131997598
 21
333.3505644746663
 31
0.0
  0
ARC
  5
6E2
330
2
100
AcDbEntity
  8
0
100
AcDbCircle
 10
41.26656231997595
 20
336.3505794746663
 30
0.0
 40
3.0
100
AcDbArc
 50
90.0
 51
150.0003969999997
  0
LINE
  5
6E3
330
2
100
AcDbEntity
  8
0
100
AcDbLine
 10
57.80248131997587
 20
326.3505644746663
 30
0.0
 11
57.80248131997587
 21
339.3505644746663
 31
0.0
  0
LINE
  5
6E4
330
2
100
AcDbEntity
  8
0
100
AcDbLine
 10
41.26656231997595
 20
339.3505644746663
 30
0.0
 11
57.80248131997587
 21
339.3505644746663
 31
0.0
  0
LINE
  5
6E5
330
2
100
AcDbEntity
  8
0
100
AcDbLine
 10
39.38411631997587
 20
324.3505644746663
 30
0.0
 11
48.80235131997597
 21
324.3505644746663
 31
0.0
  0
LINE
  5
6F4
330
2
100
AcDbEntity
  8
0
100
AcDbLine
 10
38.66847931997586
 20
337.8505494746663
 30
0.0
 11
37.80248131997586
 21
336.3505644746663
 31
0.0
  0
LINE
  5
6F5
330
2
100
AcDbEntity
  8
0
100
AcDbLine
 10
37.30248131997598
 20
333.3505644746663
 30
0.0
 11
37.80248131997586
 21
333.8505644746663
 31
0.0
  0
ARC
  5
6F6
330
2
100
AcDbEntity
  8
0
100
AcDbCircle
 10
41.26656231997595
 20
266.3505494746662
 30
0.0
 40
3.0
100
AcDbArc
 50
209.9995990000001
 51
270.0
  0
LINE
  5
6F7
330
2
100
AcDbEntity
  8
0
100
AcDbLine
 10
39.38411631997587
 20
278.3505644746663
 30
0.0
 11
48.80235131997597
 21
278.3505644746663
 31
0.0
  0
LINE
  5
6F8
330
2
100
AcDbEntity
  8
0
100
AcDbLine
 10
41.26656231997595
 20
263.3505494746663
 30
0.0
 11
57.80248131997587
 21
263.3505494746663
 31
0.0
  0
LINE
  5
6F9
330
2
100
AcDbEntity
  8
0
100
AcDbLine
 10
37.30248131997598
 20
269.3505644746663
 30
0.0
 11
37.80248131997586
 21
268.8505644746663
 31
0.0
  0
LINE
  5
6FA
330
2
100
AcDbEntity
  8
0
100
AcDbLine
 10
38.66847931997586
 20
264.8505794746662
 30
0.0
 11
37.80248131997586
 21
266.3505644746663
 31
0.0
  0
LINE
  5
902
330
2
100
AcDbEntity
  8
CENTER
100
AcDbLine
 10
201.0524663199759
 20
261.3505494746663
 30
0.0
 11
212.5524663199759
 21
261.3505494746663
 31
0.0
  0
LINE
  5
903
330
2
100
AcDbEntity
  8
CENTER
100
AcDbLine
 10
206.8024663199758
 20
255.6005494746663
 30
0.0
 11
206.8024663199758
 21
267.1005494746663
 31
0.0
  0
LINE
  5
904
330
2
100
AcDbEntity
  8
CENTER
100
AcDbLine
 10
201.0524663199759
 20
341.3505644746662
 30
0.0
 11
212.5524663199759
 21
341.3505644746662
 31
0.0
  0
LINE
  5
905
330
2
100
AcDbEntity
  8
CENTER
100
AcDbLine
 10
206.8024663199758
 20
335.6005644746663
 30
0.0
 11
206.8024663199758
 21
347.1005644746662
 31
0.0
  0
LINE
  5
906
330
2
100
AcDbEntity
  8
CENTER
100
AcDbLine
 10
133.052466319976
 20
341.3505644746662
 30
0.0
 11
144.5524663199759
 21
341.3505644746662
 31
0.0
  0
LINE
  5
907
330
2
100
AcDbEntity
  8
CENTER
100
AcDbLine
 10
138.8024663199759
 20
335.6005644746663
 30
0.0
 11
138.8024663199759
 21
347.1005644746662
 31
0.0
  0
LINE
  5
98F
330
2
100
AcDbEntity
  8
0
100
AcDbLine
 10
132.4301513199759
 20
127.1162565477397
 30
0.0
 11
156.5095583199759
 21
144.0156475477397
 31
0.0
  0
LINE
  5
990
330
2
100
AcDbEntity
  8
CENTER
100
AcDbLine
 10
146.0525288300739
 20
112.3229985477397
 30
0.0
 11
200.0524038098778
 21
112.3229985477397
 31
0.0
  0
LINE
  5
991
330
2
100
AcDbEntity
  8
0
100
AcDbLine
 10
130.3024583199758
 20
47.32299654773976
 30
0.0
 11
215.3024663199758
 21
47.32299654773976
 31
0.0
  0
LINE
  5
992
330
2
100
AcDbEntity
  8
0
100
AcDbLine
 10
132.3024663199759
 20
55.32299654773976
 30
0.0
 11
213.3024663199758
 21
55.32299654773976
 31
0.0
  0
ARC
  5
993
330
2
100
AcDbEntity
  8
0
100
AcDbCircle
 10
172.8024663199759
 20
99.32299454773975
 30
0.0
 40
42.5
100
AcDbArc
 50
199.7498930000002
 51
340.2500920000002
  0
ARC
  5
994
330
2
100
AcDbEntity
  8
0
100
AcDbCircle
 10
172.8024663199759
 20
99.32299454773975
 30
0.0
 40
42.5
100
AcDbArc
 50
19.74990099999923
 51
160.2501069999997
  0
LINE
  5
997
330
2
100
AcDbEntity
  8
CENTER
100
AcDbLine
 10
30.30245931997592
 20
90.02299454773973
 30
0.0
 11
149.5524583199758
 21
90.02299454773975
 31
0.0
  0
LINE
  5
998
330
2
100
AcDbEntity
  8
0
100
AcDbLine
 10
57.80245831997593
 20
128.0229945477397
 30
0.0
 11
133.7221363199759
 21
128.0229945477397
 31
0.0
  0
LINE
  5
999
330
2
100
AcDbEntity
  8
0
100
AcDbLine
 10
57.80245831997593
 20
52.02299654773975
 30
0.0
 11
130.3024583199758
 21
52.02299654773975
 31
0.0
  0
LINE
  5
99A
330
2
100
AcDbEntity
  8
0
100
AcDbLine
 10
57.80240831997594
 20
120.2719955477397
 30
0.0
 11
130.3024503199758
 21
120.2719955477397
 31
0.0
  0
LINE
  5
99B
330
2
100
AcDbEntity
  8
0
100
AcDbLine
 10
57.80240831997594
 20
59.77399654773975
 30
0.0
 11
130.3024503199758
 21
59.77399654773975
 31
0.0
  0
LINE
  5
99C
330
2
100
AcDbEntity
  8
0
100
AcDbLine
 10
37.30245931997592
 20
58.02299654773975
 30
0.0
 11
37.30245931997592
 21
122.0229945477397
 31
0.0
  0
LINE
  5
99D
330
2
100
AcDbEntity
  8
0
100
AcDbLine
 10
37.80245931997592
 20
55.02299654773975
 30
0.0
 11
37.80245931997592
 21
125.0229945477397
 31
0.0
  0
LINE
  5
99E
330
2
100
AcDbEntity
  8
0
100
AcDbLine
 10
57.80245831997593
 20
52.02299654773975
 30
0.0
 11
57.80245831997593
 21
128.0229945477397
 31
0.0
  0
LINE
  5
99F
330
2
100
AcDbEntity
  8
0
100
AcDbLine
 10
41.26656231997595
 20
52.02299654773975
 30
0.0
 11
57.80245831997593
 21
52.02299654773975
 31
0.0
  0
LINE
  5
9A0
330
2
100
AcDbEntity
  8
0
100
AcDbLine
 10
57.80245831997593
 20
59.77399654773975
 30
0.0
 11
39.38409531997581
 21
59.77399654773975
 31
0.0
  0
LINE
  5
9A1
330
2
100
AcDbEntity
  8
0
100
AcDbLine
 10
38.66847731997586
 20
53.52300654773975
 30
0.0
 11
37.80245931997592
 21
55.02299654773975
 31
0.0
  0
ARC
  5
9A2
330
2
100
AcDbEntity
  8
0
100
AcDbCircle
 10
41.26656731997582
 20
55.02298754773978
 30
0.0
 40
3.0
100
AcDbArc
 50
209.9996030000009
 51
270.0
  0
LINE
  5
9A3
330
2
100
AcDbEntity
  8
0
100
AcDbLine
 10
37.30245931997592
 20
58.02299654773975
 30
0.0
 11
37.80245931997592
 21
57.52299654773975
 31
0.0
  0
LINE
  5
9A4
330
2
100
AcDbEntity
  8
0
100
AcDbLine
 10
41.26655631997595
 20
128.0229945477397
 30
0.0
 11
57.80245831997593
 21
128.0229945477397
 31
0.0
  0
LINE
  5
9A5
330
2
100
AcDbEntity
  8
0
100
AcDbLine
 10
39.38409531997581
 20
120.2719955477397
 30
0.0
 11
57.80245831997593
 21
120.2719955477397
 31
0.0
  0
LINE
  5
9A6
330
2
100
AcDbEntity
  8
0
100
AcDbLine
 10
38.66847731997586
 20
126.5229875477397
 30
0.0
 11
37.80245931997592
 21
125.0229945477397
 31
0.0
  0
LINE
  5
9A7
330
2
100
AcDbEntity
  8
0
100
AcDbLine
 10
37.30245931997592
 20
122.0229945477397
 30
0.0
 11
37.80245931997592
 21
122.5229945477397
 31
0.0
  0
ARC
  5
9A8
330
2
100
AcDbEntity
  8
0
100
AcDbCircle
 10
41.26656731997582
 20
125.0230105477397
 30
0.0
 40
3.0
100
AcDbArc
 50
90.0
 51
150.000396999999
  0
LINE
  5
9A9
330
2
100
AcDbEntity
  8
0
100
AcDbLine
 10
130.3024583199758
 20
123.0235975477397
 30
0.0
 11
130.3024583199758
 21
47.32299654773976
 31
0.0
  0
ARC
  5
9AA
330
2
100
AcDbEntity
  8
0
100
AcDbCircle
 10
132.3024663199759
 20
53.32300654773973
 30
0.0
 40
2.0
100
AcDbArc
 50
90.0
 51
180.0
  0
LINE
  5
9AB
330
2
100
AcDbEntity
  8
CENTER
100
AcDbLine
 10
138.8024583199758
 20
58.82299654773976
 30
0.0
 11
138.8024583199758
 21
43.82299654773976
 31
0.0
  0
LINE
  5
9AC
330
2
100
AcDbEntity
  8
HIDS
  6
SEKKEI_H
100
AcDbLine
 10
135.5524583199758
 20
55.32299654773976
 30
0.0
 11
135.5524583199758
 21
47.32299654773976
 31
0.0
  0
LINE
  5
9AD
330
2
100
AcDbEntity
  8
HIDS
  6
SEKKEI_H
100
AcDbLine
 10
142.0524583199758
 20
55.32299654773976
 30
0.0
 11
142.0524583199758
 21
47.32299654773976
 31
0.0
  0
LINE
  5
9AE
330
2
100
AcDbEntity
  8
0
100
AcDbLine
 10
132.8024583199758
 20
113.6842655477397
 30
0.0
 11
132.8024583199758
 21
84.96145654773973
 31
0.0
  0
ARC
  5
9AF
330
2
100
AcDbEntity
  8
0
100
AcDbCircle
 10
135.3024813199758
 20
123.0236125477397
 30
0.0
 40
5.0
100
AcDbArc
 50
125.0623020000004
 51
180.0
  0
LINE
  5
9B0
330
2
100
AcDbEntity
  8
0
100
AcDbLine
 10
135.6842713199758
 20
120.0229945477397
 30
0.0
 11
135.6842793199758
 21
120.0229945477397
 31
0.0
  0
CIRCLE
  5
9B9
330
2
100
AcDbEntity
  8
0
100
AcDbCircle
 10
172.8024663199759
 20
112.3229985477397
 30
0.0
 40
20.0
  0
LINE
  5
9BA
330
2
100
AcDbEntity
  8
CENTER
100
AcDbLine
 10
172.8024663199759
 20
151.9229965477397
 30
0.0
 11
172.8024663199759
 21
40.32299654773976
 31
0.0
  0
LINE
  5
9BB
330
2
100
AcDbEntity
  8
0
100
AcDbLine
 10
213.1747653199759
 20
127.1162565477397
 30
0.0
 11
189.0952673199759
 21
144.0156555477397
 31
0.0
  0
LINE
  5
9BC
330
2
100
AcDbEntity
  8
0
100
AcDbLine
 10
215.3024663199758
 20
123.0235745477397
 30
0.0
 11
215.3024663199758
 21
47.32299654773976
 31
0.0
  0
LINE
  5
9BD
330
2
100
AcDbEntity
  8
CENTER
100
AcDbLine
 10
206.8024663199759
 20
58.82299654773976
 30
0.0
 11
206.8024663199758
 21
43.82299654773976
 31
0.0
  0
LINE
  5
9BE
330
2
100
AcDbEntity
  8
HIDS
  6
SEKKEI_H
100
AcDbLine
 10
210.0524663199759
 20
55.32299654773976
 30
0.0
 11
210.0524663199759
 21
47.32299654773976
 31
0.0
  0
LINE
  5
9BF
330
2
100
AcDbEntity
  8
HIDS
  6
SEKKEI_H
100
AcDbLine
 10
203.5524663199759
 20
55.32299654773976
 30
0.0
 11
203.5524663199759
 21
47.32299654773976
 31
0.0
  0
ARC
  5
9C0
330
2
100
AcDbEntity
  8
0
100
AcDbCircle
 10
213.3024663199758
 20
53.32298654773976
 30
0.0
 40
2.0
100
AcDbArc
 50
0.0
 51
90.0
  0
ARC
  5
9C1
330
2
100
AcDbEntity
  8
0
100
AcDbCircle
 10
182.9999603199759
 20
83.33300354773976
 30
0.0
 40
2.55249
100
AcDbArc
 50
286.0181270000003
 51
90.00351000000046
  0
LINE
  5
9C2
330
2
100
AcDbEntity
  8
0
100
AcDbLine
 10
185.2841553199758
 20
77.31908754773977
 30
0.0
 11
185.5524663199759
 21
77.31908754773977
 31
0.0
  0
LINE
  5
9C3
330
2
100
AcDbEntity
  8
0
100
AcDbLine
 10
184.0832583199759
 20
76.32299854773975
 30
0.0
 11
185.5524663199759
 21
76.32299854773975
 31
0.0
  0
LINE
  5
9C4
330
2
100
AcDbEntity
  8
0
100
AcDbLine
 10
161.2098603199758
 20
85.88549454773973
 30
0.0
 11
160.0524583199758
 21
84.40349554773977
 31
0.0
  0
LINE
  5
9C5
330
2
100
AcDbEntity
  8
0
100
AcDbLine
 10
165.4964663199758
 20
85.88549454773973
 30
0.0
 11
166.4274663199759
 21
84.85235254773973
 31
0.0
  0
LINE
  5
9C6
330
2
100
AcDbEntity
  8
0
100
AcDbLine
 10
161.1232593199758
 20
78.21391654773975
 30
0.0
 11
161.8545593199759
 21
77.44359554773976
 31
0.0
  0
LINE
  5
9C7
330
2
100
AcDbEntity
  8
0
100
AcDbLine
 10
166.4274663199759
 20
81.87621654773975
 30
0.0
 11
166.4274663199759
 21
76.32299854773975
 31
0.0
  0
LINE
  5
9C8
330
2
100
AcDbEntity
  8
0
100
AcDbLine
 10
160.0524583199758
 20
84.40349554773977
 30
0.0
 11
160.0524583199758
 21
77.56385854773975
 31
0.0
  0
ARC
  5
9C9
330
2
100
AcDbEntity
  8
0
100
AcDbCircle
 10
163.5138613199758
 20
79.43578754773975
 30
0.0
 40
1.992186999999999
100
AcDbArc
 50
270.0002140000007
 51
0.0001089999998967
  0
LINE
  5
9CA
330
2
100
AcDbEntity
  8
0
100
AcDbLine
 10
161.2822553199758
 20
76.32299854773975
 30
0.0
 11
164.5975553199758
 21
76.32299854773975
 31
0.0
  0
LINE
  5
9CB
330
2
100
AcDbEntity
  8
0
100
AcDbLine
 10
160.0524583199758
 20
77.56385854773975
 30
0.0
 11
161.2822553199758
 21
76.32299854773975
 31
0.0
  0
LINE
  5
9CC
330
2
100
AcDbEntity
  8
0
100
AcDbLine
 10
163.5138613199758
 20
77.44359554773976
 30
0.0
 11
161.8545593199759
 21
77.44359554773976
 31
0.0
  0
LINE
  5
9CD
330
2
100
AcDbEntity
  8
0
100
AcDbLine
 10
165.5060643199758
 20
77.08525454773976
 30
0.0
 11
165.5060643199758
 21
76.32299854773975
 31
0.0
  0
LINE
  5
9CE
330
2
100
AcDbEntity
  8
0
100
AcDbLine
 10
165.5060643199758
 20
77.08525454773976
 30
0.0
 11
164.5975553199758
 21
76.32299854773975
 31
0.0
  0
LINE
  5
9CF
330
2
100
AcDbEntity
  8
0
100
AcDbLine
 10
165.5060643199758
 20
76.32299854773975
 30
0.0
 11
166.4274663199759
 21
76.32299854773975
 31
0.0
  0
LINE
  5
9D0
330
2
100
AcDbEntity
  8
0
100
AcDbLine
 10
164.9149543199758
 20
84.61547454773976
 30
0.0
 11
161.8430623199758
 21
84.61547454773976
 31
0.0
  0
LINE
  5
9D1
330
2
100
AcDbEntity
  8
0
100
AcDbLine
 10
161.8430623199758
 20
84.61547454773976
 30
0.0
 11
161.1232593199758
 21
83.72297254773977
 31
0.0
  0
LINE
  5
9D2
330
2
100
AcDbEntity
  8
0
100
AcDbLine
 10
161.1232593199758
 20
83.72297254773977
 30
0.0
 11
161.1232593199758
 21
78.21391654773975
 31
0.0
  0
LINE
  5
9D3
330
2
100
AcDbEntity
  8
0
100
AcDbLine
 10
166.4274663199759
 20
84.85235254773973
 30
0.0
 11
166.4274663199759
 21
83.89330654773974
 31
0.0
  0
LINE
  5
9D4
330
2
100
AcDbEntity
  8
0
100
AcDbLine
 10
165.5060643199758
 20
80.83031854773976
 30
0.0
 11
163.8376523199758
 21
80.83031854773976
 31
0.0
  0
LINE
  5
9D5
330
2
100
AcDbEntity
  8
0
100
AcDbLine
 10
165.5060643199758
 20
79.83422454773975
 30
0.0
 11
165.5060643199758
 21
80.63109954773976
 31
0.0
  0
LINE
  5
9D6
330
2
100
AcDbEntity
  8
0
100
AcDbLine
 10
165.5060643199758
 20
80.83031854773976
 30
0.0
 11
165.5060643199758
 21
79.43578754773975
 31
0.0
  0
LINE
  5
9D7
330
2
100
AcDbEntity
  8
0
100
AcDbLine
 10
163.8376523199758
 20
81.87621654773975
 30
0.0
 11
163.8376523199758
 21
80.83031854773976
 31
0.0
  0
LINE
  5
9D8
330
2
100
AcDbEntity
  8
0
100
AcDbLine
 10
165.5060643199758
 20
84.04402954773976
 30
0.0
 11
165.5060643199758
 21
83.89330654773974
 31
0.0
  0
LINE
  5
9D9
330
2
100
AcDbEntity
  8
0
100
AcDbLine
 10
165.5060643199758
 20
84.04402954773976
 30
0.0
 11
164.9028533199758
 21
84.61547454773976
 31
0.0
  0
LINE
  5
9DA
330
2
100
AcDbEntity
  8
0
100
AcDbLine
 10
165.5060643199758
 20
83.89330654773974
 30
0.0
 11
166.4274663199759
 21
83.89330654773974
 31
0.0
  0
LINE
  5
9DB
330
2
100
AcDbEntity
  8
0
100
AcDbLine
 10
163.8376523199758
 20
81.87621654773975
 30
0.0
 11
166.4274663199759
 21
81.87621654773975
 31
0.0
  0
LINE
  5
9DC
330
2
100
AcDbEntity
  8
0
100
AcDbLine
 10
161.2098603199758
 20
85.88549454773973
 30
0.0
 11
165.4964663199758
 21
85.88549454773973
 31
0.0
  0
LINE
  5
9DD
330
2
100
AcDbEntity
  8
0
100
AcDbLine
 10
179.1774663199759
 20
85.88549454773973
 30
0.0
 11
179.1774663199759
 21
84.71508454773976
 31
0.0
  0
LINE
  5
9DE
330
2
100
AcDbEntity
  8
0
100
AcDbLine
 10
175.9899663199758
 20
83.89330654773974
 30
0.0
 11
175.9899663199758
 21
85.88549454773973
 31
0.0
  0
LINE
  5
9DF
330
2
100
AcDbEntity
  8
0
100
AcDbLine
 10
169.6149663199759
 20
83.89330654773974
 30
0.0
 11
169.6149663199759
 21
85.88549454773973
 31
0.0
  0
LINE
  5
9E0
330
2
100
AcDbEntity
  8
0
100
AcDbLine
 10
173.3752653199758
 20
84.71508454773976
 30
0.0
 11
173.3752653199758
 21
77.36889654773975
 31
0.0
  0
LINE
  5
9E1
330
2
100
AcDbEntity
  8
0
100
AcDbLine
 10
172.1798613199758
 20
84.71508454773976
 30
0.0
 11
172.1798613199758
 21
77.36889654773975
 31
0.0
  0
LINE
  5
9E2
330
2
100
AcDbEntity
  8
0
100
AcDbLine
 10
171.7067633199758
 20
76.32299854773975
 30
0.0
 11
173.7736573199758
 21
76.32299854773975
 31
0.0
  0
LINE
  5
9E3
330
2
100
AcDbEntity
  8
0
100
AcDbLine
 10
171.7067633199758
 20
77.36889654773975
 30
0.0
 11
171.7067633199758
 21
76.32299854773975
 31
0.0
  0
LINE
  5
9E4
330
2
100
AcDbEntity
  8
0
100
AcDbLine
 10
171.7067633199758
 20
77.36889654773975
 30
0.0
 11
172.1798613199758
 21
77.36889654773975
 31
0.0
  0
LINE
  5
9E5
330
2
100
AcDbEntity
  8
0
100
AcDbLine
 10
173.3752653199758
 20
77.36889654773975
 30
0.0
 11
173.7736573199758
 21
77.36889654773975
 31
0.0
  0
LINE
  5
9E6
330
2
100
AcDbEntity
  8
0
100
AcDbLine
 10
173.7736573199758
 20
77.36889654773975
 30
0.0
 11
173.7736573199758
 21
76.32299854773975
 31
0.0
  0
LINE
  5
9E7
330
2
100
AcDbEntity
  8
0
100
AcDbLine
 10
172.1798613199758
 20
84.71508454773976
 30
0.0
 11
170.6649543199759
 21
84.71508454773976
 31
0.0
  0
LINE
  5
9E8
330
2
100
AcDbEntity
  8
0
100
AcDbLine
 10
169.6149663199759
 20
83.89330654773974
 30
0.0
 11
170.3225623199758
 21
83.89330654773974
 31
0.0
  0
LINE
  5
9E9
330
2
100
AcDbEntity
  8
0
100
AcDbLine
 10
170.6649543199759
 20
84.71508454773976
 30
0.0
 11
170.3225623199758
 21
83.89330654773974
 31
0.0
  0
LINE
  5
9EA
330
2
100
AcDbEntity
  8
0
100
AcDbLine
 10
173.3752653199758
 20
84.71508454773976
 30
0.0
 11
175.0362613199758
 21
84.71508454773976
 31
0.0
  0
LINE
  5
9EB
330
2
100
AcDbEntity
  8
0
100
AcDbLine
 10
175.3249573199758
 20
83.89330654773974
 30
0.0
 11
175.9899663199758
 21
83.89330654773974
 31
0.0
  0
LINE
  5
9EC
330
2
100
AcDbEntity
  8
0
100
AcDbLine
 10
175.0362613199758
 20
84.71508454773976
 30
0.0
 11
175.3249573199758
 21
83.89330654773974
 31
0.0
  0
LINE
  5
9ED
330
2
100
AcDbEntity
  8
0
100
AcDbLine
 10
179.6505643199759
 20
84.71508454773976
 30
0.0
 11
179.6505643199759
 21
77.31908754773977
 31
0.0
  0
LINE
  5
9EE
330
2
100
AcDbEntity
  8
0
100
AcDbLine
 10
180.7462523199759
 20
80.79296454773976
 30
0.0
 11
180.7462523199759
 21
77.31908754773977
 31
0.0
  0
LINE
  5
9EF
330
2
100
AcDbEntity
  8
0
100
AcDbLine
 10
183.7042603199759
 20
80.87961554773974
 30
0.0
 11
185.2841553199758
 21
77.31908754773977
 31
0.0
  0
LINE
  5
9F0
330
2
100
AcDbEntity
  8
0
100
AcDbLine
 10
182.7867643199758
 20
80.79296454773976
 30
0.0
 11
184.2817603199758
 21
77.31908754773977
 31
0.0
  0
LINE
  5
9F1
330
2
100
AcDbEntity
  8
0
100
AcDbLine
 10
180.7462523199759
 20
77.31908754773977
 30
0.0
 11
181.1820593199758
 21
77.31908754773977
 31
0.0
  0
LINE
  5
9F2
330
2
100
AcDbEntity
  8
0
100
AcDbLine
 10
181.1820593199758
 20
76.32299854773975
 30
0.0
 11
179.1774663199759
 21
76.32299854773975
 31
0.0
  0
LINE
  5
9F3
330
2
100
AcDbEntity
  8
0
100
AcDbLine
 10
179.1774663199759
 20
77.31908754773977
 30
0.0
 11
179.1774663199759
 21
76.32299854773975
 31
0.0
  0
LINE
  5
9F4
330
2
100
AcDbEntity
  8
0
100
AcDbLine
 10
179.1774663199759
 20
77.31908754773977
 30
0.0
 11
179.6505643199759
 21
77.31908754773977
 31
0.0
  0
LINE
  5
9F5
330
2
100
AcDbEntity
  8
0
100
AcDbLine
 10
184.0832583199759
 20
77.31908754773977
 30
0.0
 11
184.2817603199758
 21
77.31908754773977
 31
0.0
  0
LINE
  5
9F6
330
2
100
AcDbEntity
  8
0
100
AcDbLine
 10
184.0832583199759
 20
77.31908754773977
 30
0.0
 11
184.0832583199759
 21
76.32299854773975
 31
0.0
  0
LINE
  5
9F7
330
2
100
AcDbEntity
  8
0
100
AcDbLine
 10
181.1820593199758
 20
77.31908754773977
 30
0.0
 11
181.1820593199758
 21
76.32299854773975
 31
0.0
  0
LINE
  5
9F8
330
2
100
AcDbEntity
  8
0
100
AcDbLine
 10
180.7462523199759
 20
84.71508454773976
 30
0.0
 11
183.7211523199759
 21
84.71314654773975
 31
0.0
  0
LINE
  5
9F9
330
2
100
AcDbEntity
  8
0
100
AcDbLine
 10
180.7462523199759
 20
81.78882954773976
 30
0.0
 11
183.2009643199759
 21
81.78882954773976
 31
0.0
  0
LINE
  5
9FA
330
2
100
AcDbEntity
  8
0
100
AcDbLine
 10
180.7462523199759
 20
80.79296454773976
 30
0.0
 11
182.7867643199758
 21
80.79296454773976
 31
0.0
  0
LINE
  5
9FB
330
2
100
AcDbEntity
  8
0
100
AcDbLine
 10
180.7462523199759
 20
84.71508454773976
 30
0.0
 11
180.7462523199759
 21
81.78882954773976
 31
0.0
  0
LINE
  5
9FC
330
2
100
AcDbEntity
  8
0
100
AcDbLine
 10
179.1774663199759
 20
84.71508454773976
 30
0.0
 11
179.6505643199759
 21
84.71508454773976
 31
0.0
  0
ARC
  5
9FD
330
2
100
AcDbEntity
  8
0
100
AcDbCircle
 10
182.9999603199759
 20
83.33300354773976
 30
0.0
 40
1.557193
100
AcDbArc
 50
277.4147260000004
 51
62.41184999999767
  0
LINE
  5
9FE
330
2
100
AcDbEntity
  8
0
100
AcDbLine
 10
169.6149663199759
 20
85.88549454773973
 30
0.0
 11
175.9899663199758
 21
85.88549454773973
 31
0.0
  0
LINE
  5
9FF
330
2
100
AcDbEntity
  8
0
100
AcDbLine
 10
179.1774663199759
 20
85.88549454773973
 30
0.0
 11
182.9999603199759
 21
85.88549454773973
 31
0.0
  0
ARC
  5
A00
330
2
100
AcDbEntity
  8
HIDS
100
AcDbCircle
 10
172.8024663199759
 20
112.3229985477397
 30
0.0
 40
7.5
100
AcDbArc
 50
19.47120999999955
 51
340.5288089999994
  0
LINE
  5
A01
330
2
100
AcDbEntity
  8
0
100
AcDbLine
 10
154.6150573199759
 20
120.0229945477397
 30
0.0
 11
154.6151563199758
 21
120.0229945477397
 31
0.0
  0
LINE
  5
A02
330
2
100
AcDbEntity
  8
HIDS
100
AcDbLine
 10
182.3024663199759
 20
114.8229985477397
 30
0.0
 11
182.3024663199759
 21
109.8229985477397
 31
0.0
  0
LINE
  5
A03
330
2
100
AcDbEntity
  8
HIDS
100
AcDbLine
 10
177.3024663199759
 20
109.8229985477397
 30
0.0
 11
177.3024663199759
 21
114.8229985477397
 31
0.0
  0
LINE
  5
A04
330
2
100
AcDbEntity
  8
HIDS
100
AcDbLine
 10
177.3024663199759
 20
109.8229985477397
 30
0.0
 11
182.3024663199759
 21
109.8229985477397
 31
0.0
  0
LINE
  5
A05
330
2
100
AcDbEntity
  8
HIDS
100
AcDbLine
 10
177.3024663199759
 20
114.8229985477397
 30
0.0
 11
182.3024663199759
 21
114.8229985477397
 31
0.0
  0
LINE
  5
A06
330
2
100
AcDbEntity
  8
0
100
AcDbLine
 10
212.8024663199759
 20
113.6843945477397
 30
0.0
 11
212.8024663199759
 21
84.96185654773976
 31
0.0
  0
LINE
  5
A07
330
2
100
AcDbEntity
  8
0
100
AcDbLine
 10
185.5524663199759
 20
77.31908754773977
 30
0.0
 11
185.5524663199759
 21
76.32299854773975
 31
0.0
  0
ARC
  5
A08
330
2
100
AcDbEntity
  8
0
100
AcDbCircle
 10
210.3024663199759
 20
123.0235745477397
 30
0.0
 40
5.0
100
AcDbArc
 50
0.0
 51
54.93837000000021
  0
LINE
  5
A09
330
2
100
AcDbEntity
  8
0
100
AcDbLine
 10
159.3819563199758
 20
144.9229965477397
 30
0.0
 11
186.2229523199759
 21
144.9229965477397
 31
0.0
  0
ARC
  5
A0A
330
2
100
AcDbEntity
  8
0
100
AcDbCircle
 10
159.3819563199758
 20
139.9230045477397
 30
0.0
 40
5.0
100
AcDbArc
 50
90.0
 51
125.0622019999994
  0
ARC
  5
A0B
330
2
100
AcDbEntity
  8
0
100
AcDbCircle
 10
186.2230593199758
 20
139.9229885477397
 30
0.0
 40
5.0
100
AcDbArc
 50
54.93843100000081
 51
90.0
  0
TEXT
  5
A16
330
2
100
AcDbEntity
  8
TITLE
100
AcDbText
 10
241.295934652656
 20
302.7373255896312
 30
0.0
 40
5.0
  1
HLM-15L-10~240-T15WK
 41
0.8
100
AcDbText
  0
TEXT
  5
A17
330
2
100
AcDbEntity
  8
TITLE
100
AcDbText
 10
241.295934652656
 20
286.7373255896312
 30
0.0
 40
5.0
  1
HLM-15L-10~240-T25WK
 41
0.8
100
AcDbText
  0
TEXT
  5
A18
330
2
100
AcDbEntity
  8
TITLE
100
AcDbText
 10
241.295934652656
 20
294.7373255896312
 30
0.0
 40
5.0
  1
HLM-15L-10~240-T25K
 41
0.8
100
AcDbText
  0
TEXT
  5
A1C
330
2
100
AcDbEntity
  8
TITLE
100
AcDbText
 10
241.295934652656
 20
278.7373255896312
 30
0.0
 40
5.0
  1
HLM-15L-10~120-T40K
 41
0.8
100
AcDbText
  0
TEXT
  5
A1E
330
2
100
AcDbEntity
  8
TITLE
100
AcDbText
 10
327.869564723379
 20
294.7373255896312
 30
0.0
 40
5.0
  1
HLM-15L-10~240-S25K
 41
0.8
100
AcDbText
  0
TEXT
  5
A1F
330
2
100
AcDbEntity
  8
TITLE
100
AcDbText
 10
327.869564723379
 20
286.7373255896312
 30
0.0
 40
5.0
  1
HLM-15L-10~240-S25WK
 41
0.8
100
AcDbText
  0
TEXT
  5
A20
330
2
100
AcDbEntity
  8
TITLE
100
AcDbText
 10
327.869564723379
 20
302.7373255896312
 30
0.0
 40
5.0
  1
HLM-15L-10~240-S15WK
 41
0.8
100
AcDbText
  0
TEXT
  5
A21
330
2
100
AcDbEntity
  8
TITLE
100
AcDbText
 10
327.869564723379
 20
310.7373255896312
 30
0.0
 40
5.0
  1
HLM-15L-10~240-S15K
 41
0.8
100
AcDbText
  0
ARC
  5
1B16
330
2
100
AcDbEntity
  8
0
100
AcDbCircle
 10
297.6969186544388
 20
165.6230095477399
 30
0.0
 40
9.0
100
AcDbArc
 50
74.11914999171883
 51
105.8808500082811
  0
SPLINE
  5
1B17
330
2
100
AcDbEntity
  8
0
100
AcDbSpline
210
0.0
220
0.0
230
1.0
 70
     8
 71
     3
 72
    11
 73
     7
 74
     0
 42
0.0000000001
 43
0.0000000001
 40
0.0
 40
0.0
 40
0.0
 40
0.0
 40
0.4601364636755307
 40
1.04988694485363
 40
1.713742833862792
 40
2.320347933405154
 40
2.320347933405154
 40
2.320347933405154
 40
2.320347933405179
 10
297.984418654894
 20
173.1060095477398
 30
0.0
 10
298.0068363120017
 20
173.2610329874197
 30
0.0
 10
298.057986367235
 20
173.6147478053372
 30
0.0
 10
298.4938715287686
 20
174.0394754769389
 30
0.0
 10
299.0989222437761
 20
174.2586626569047
 30
0.0
 10
299.5241068679519
 20
174.1896713572941
 30
0.0
 10
299.726658477603
 20
174.1754510851174
 30
0.0
  0
LINE
  5
1B18
330
2
100
AcDbEntity
  8
0
100
AcDbLine
 10
301.696918654439
 20
172.0230095477398
 30
0.0
 11
294.1969186544389
 21
172.0230095477398
 31
0.0
  0
LINE
  5
1B1E
330
2
100
AcDbEntity
  8
CENTER
100
AcDbLine
 10
289.1533116732304
 20
157.5229945477397
 30
0.0
 11
349.2405256356475
 21
157.5229945477397
 31
0.0
  0
LINE
  5
1B51
330
2
100
AcDbEntity
  8
0
100
AcDbLine
 10
53.64036713600251
 20
174.5230095477397
 30
0.0
 11
93.96454950394957
 21
174.5230095477397
 31
0.0
  0
LINE
  5
1B52
330
2
100
AcDbEntity
  8
0
100
AcDbLine
 10
50.30245131997594
 20
129.5229945477397
 30
0.0
 11
96.80245831997593
 21
129.5229945477397
 31
0.0
  0
LINE
  5
1B53
330
2
100
AcDbEntity
  8
0
100
AcDbLine
 10
48.80245131997594
 20
141.5229945477397
 30
0.0
 11
98.80245831997592
 21
141.5229945477397
 31
0.0
  0
LINE
  5
1B54
330
2
100
AcDbEntity
  8
0
100
AcDbLine
 10
48.80245131997594
 20
131.5229945477397
 30
0.0
 11
98.80245831997592
 21
131.5229945477397
 31
0.0
  0
LINE
  5
1B55
330
2
100
AcDbEntity
  8
0
100
AcDbLine
 10
48.80245131997594
 20
142.5229945477397
 30
0.0
 11
98.80245831997592
 21
142.5229945477397
 31
0.0
  0
LINE
  5
1B56
330
2
100
AcDbEntity
  8
0
100
AcDbLine
 10
56.30245831997592
 20
173.5230095477397
 30
0.0
 11
91.30245831997592
 21
173.5230095477397
 31
0.0
  0
LINE
  5
1B57
330
2
100
AcDbEntity
  8
CENTER
100
AcDbLine
 10
43.75885133876744
 20
157.5229945477397
 30
0.0
 11
103.8460653011844
 21
157.5229945477397
 31
0.0
  0
LINE
  5
1B5A
330
2
100
AcDbEntity
  8
CENTER
100
AcDbLine
 10
73.80245831997592
 20
123.1334985477398
 30
0.0
 11
73.80245831997592
 21
179.9105095477397
 31
0.0
  0
LINE
  5
1B5B
330
2
100
AcDbEntity
  8
0
100
AcDbLine
 10
48.80245131997594
 20
173.5230095477397
 30
0.0
 11
48.80245131997594
 21
131.5229945477397
 31
0.0
  0
LINE
  5
1B5C
330
2
100
AcDbEntity
  8
0
100
AcDbLine
 10
48.80245131997594
 20
131.5229945477397
 30
0.0
 11
50.80245131997594
 21
129.5229945477397
 31
0.0
  0
LINE
  5
1B5D
330
2
100
AcDbEntity
  8
0
100
AcDbLine
 10
50.30245131997594
 20
129.5229945477397
 30
0.0
 11
50.30245131997594
 21
128.0229945477397
 31
0.0
  0
ARC
  5
1B5F
330
2
100
AcDbEntity
  8
0
100
AcDbCircle
 10
54.40946907356892
 20
173.0291222719861
 30
0.0
 40
1.3
100
AcDbArc
 50
4.999999999999743
 51
74.11914999171883
  0
LINE
  5
1B60
330
2
100
AcDbEntity
  8
0
100
AcDbLine
 10
56.30245831997592
 20
174.0230095477397
 30
0.0
 11
55.24743570959628
 21
174.0230095477397
 31
0.0
  0
LINE
  5
1B61
330
2
100
AcDbEntity
  8
0
100
AcDbLine
 10
56.30245831997598
 20
172.0230095477397
 30
0.0
 11
48.80245831997592
 21
172.0230095477398
 31
0.0
  0
LINE
  5
1B62
330
2
100
AcDbEntity
  8
0
100
AcDbLine
 10
47.92745131997594
 20
147.0229945477397
 30
0.0
 11
49.92745131997594
 21
147.0229945477397
 31
0.0
  0
LINE
  5
1B63
330
2
100
AcDbEntity
  8
0
100
AcDbLine
 10
47.92745131997594
 20
168.0229945477397
 30
0.0
 11
49.92745131997594
 21
168.0229945477397
 31
0.0
  0
SPLINE
  5
1B64
330
2
100
AcDbEntity
  8
0
100
AcDbSpline
210
0.0
220
0.0
230
1.0
 70
     8
 71
     3
 72
    11
 73
     7
 74
     0
 42
0.0000000001
 43
0.0000000001
 40
0.0
 40
0.0
 40
0.0
 40
0.0
 40
0.4601364636755307
 40
1.04988694485363
 40
1.713742833862792
 40
2.320347933405154
 40
2.320347933405154
 40
2.320347933405154
 40
2.320347933405179
 10
52.01495831952081
 20
173.1060095477397
 30
0.0
 10
51.99254066241298
 20
173.2610329874197
 30
0.0
 10
51.9413906071797
 20
173.6147478053372
 30
0.0
 10
51.50550544564612
 20
174.0394754769388
 30
0.0
 10
50.90045473063867
 20
174.2586626569047
 30
0.0
 10
50.47527010646286
 20
174.1896713572941
 30
0.0
 10
50.27271849681176
 20
174.1754510851174
 30
0.0
  0
ARC
  5
1B65
330
2
100
AcDbEntity
  8
0
100
AcDbCircle
 10
52.30245831997587
 20
165.6230095477398
 30
0.0
 40
9.0
100
AcDbArc
 50
74.11914999171883
 51
105.8808500082811
  0
LINE
  5
1B66
330
2
100
AcDbEntity
  8
0
100
AcDbLine
 10
49.80245831997592
 20
174.5230095477397
 30
0.0
 11
48.80245831997592
 21
173.5230095477397
 31
0.0
  0
LINE
  5
1B67
330
2
100
AcDbEntity
  8
0
100
AcDbLine
 10
50.27271849681176
 20
174.1754510851174
 30
0.0
 11
50.25245831997586
 21
174.386427830579
 31
0.0
  0
ARC
  5
1B68
330
2
100
AcDbEntity
  8
0
100
AcDbCircle
 10
50.19544756638305
 20
173.0291222719861
 30
0.0
 40
1.3
100
AcDbArc
 50
105.8808500082811
 51
175.0000000000002
  0
LINE
  5
1B69
330
2
100
AcDbEntity
  8
0
100
AcDbLine
 10
48.80245831997598
 20
172.0230095477398
 30
0.0
 11
48.90039445886379
 21
173.142424737558
 31
0.0
  0
LINE
  5
1B6A
330
2
100
AcDbEntity
  8
0
100
AcDbLine
 10
50.96454950394946
 20
174.5230095477397
 30
0.0
 11
49.80245831997592
 21
174.5230095477397
 31
0.0
  0
LINE
  5
1B6B
330
2
100
AcDbEntity
  8
0
100
AcDbLine
 10
52.01495831952081
 20
173.1060095477397
 30
0.0
 11
52.58995832043092
 21
173.1060095477397
 31
0.0
  0
LINE
  5
1B6C
330
2
100
AcDbEntity
  8
0
100
AcDbLine
 10
54.33219814313997
 20
174.1754510851174
 30
0.0
 11
54.35245831997588
 21
174.386427830579
 31
0.0
  0
LINE
  5
1B6D
330
2
100
AcDbEntity
  8
0
100
AcDbLine
 10
55.80245831997586
 20
172.0230095477398
 30
0.0
 11
55.70452218108806
 21
173.142424737558
 31
0.0
  0
SPLINE
  5
1B6E
330
2
100
AcDbEntity
  8
0
100
AcDbSpline
210
0.0
220
0.0
230
1.0
 70
     8
 71
     3
 72
    11
 73
     7
 74
     0
 42
0.0000000001
 43
0.0000000001
 40
0.0
 40
0.0
 40
0.0
 40
0.0
 40
0.4601364636755307
 40
1.04988694485363
 40
1.713742833862792
 40
2.320347933405154
 40
2.320347933405154
 40
2.320347933405154
 40
2.320347933405179
 10
52.58995832043092
 20
173.1060095477397
 30
0.0
 10
52.61237597753876
 20
173.2610329874197
 30
0.0
 10
52.66352603277204
 20
173.6147478053372
 30
0.0
 10
53.09941119430561
 20
174.0394754769388
 30
0.0
 10
53.70446190931307
 20
174.2586626569047
 30
0.0
 10
54.12964653348888
 20
174.1896713572941
 30
0.0
 10
54.33219814313997
 20
174.1754510851174
 30
0.0
  0
LINE
  5
1B6F
330
2
100
AcDbEntity
  8
0
100
AcDbLine
 10
56.80245831997592
 20
174.5230095477397
 30
0.0
 11
56.30245831997592
 21
174.0230095477397
 31
0.0
  0
LINE
  5
1B70
330
2
100
AcDbEntity
  8
0
100
AcDbLine
 10
56.30245831997598
 20
172.0230095477397
 30
0.0
 11
56.30245831997598
 21
174.0230095477398
 31
0.0
  0
LINE
  5
1B72
330
2
100
AcDbEntity
  8
0
100
AcDbLine
 10
98.80245831997592
 20
173.5230095477397
 30
0.0
 11
98.80245831997592
 21
131.5229945477397
 31
0.0
  0
LINE
  5
1B73
330
2
100
AcDbEntity
  8
0
100
AcDbLine
 10
96.80245831997593
 20
129.5229945477397
 30
0.0
 11
98.80245831997592
 21
131.5229945477397
 31
0.0
  0
LINE
  5
1B74
330
2
100
AcDbEntity
  8
0
100
AcDbLine
 10
96.30245831997592
 20
129.5229945477397
 30
0.0
 11
96.30245831997592
 21
128.0229945477397
 31
0.0
  0
ARC
  5
1B75
330
2
100
AcDbEntity
  8
0
100
AcDbCircle
 10
95.30245831997604
 20
165.6230095477398
 30
0.0
 40
9.0
100
AcDbArc
 50
74.11914999171883
 51
105.8808500082811
  0
SPLINE
  5
1B76
330
2
100
AcDbEntity
  8
0
100
AcDbSpline
210
0.0
220
0.0
230
1.0
 70
     8
 71
     3
 72
    11
 73
     7
 74
     0
 42
0.0000000001
 43
0.0000000001
 40
0.0
 40
0.0
 40
0.0
 40
0.0
 40
0.4601364636755307
 40
1.04988694485363
 40
1.713742833862792
 40
2.320347933405154
 40
2.320347933405154
 40
2.320347933405154
 40
2.320347933405179
 10
95.01495831952098
 20
173.1060095477397
 30
0.0
 10
94.99254066241315
 20
173.2610329874197
 30
0.0
 10
94.94139060717987
 20
173.6147478053372
 30
0.0
 10
94.50550544564629
 20
174.0394754769388
 30
0.0
 10
93.90045473063883
 20
174.2586626569047
 30
0.0
 10
93.47527010646302
 20
174.1896713572941
 30
0.0
 10
93.27271849681194
 20
174.1754510851174
 30
0.0
  0
LINE
  5
1B77
330
2
100
AcDbEntity
  8
0
100
AcDbLine
 10
91.30245831997592
 20
172.0230095477397
 30
0.0
 11
98.80245831997592
 21
172.0230095477398
 31
0.0
  0
LINE
  5
1B78
330
2
100
AcDbEntity
  8
0
100
AcDbLine
 10
91.80245831997604
 20
172.0230095477398
 30
0.0
 11
91.90039445886384
 21
173.142424737558
 31
0.0
  0
LINE
  5
1B79
330
2
100
AcDbEntity
  8
0
100
AcDbLine
 10
93.27271849681194
 20
174.1754510851174
 30
0.0
 11
93.25245831997603
 21
174.386427830579
 31
0.0
  0
ARC
  5
1B7A
330
2
100
AcDbEntity
  8
0
100
AcDbCircle
 10
93.19544756638299
 20
173.0291222719861
 30
0.0
 40
1.3
100
AcDbArc
 50
105.8808500082811
 51
175.0000000000002
  0
LINE
  5
1B7B
330
2
100
AcDbEntity
  8
0
100
AcDbLine
 10
91.30245831997592
 20
174.0230095477397
 30
0.0
 11
92.35748093035557
 21
174.0230095477397
 31
0.0
  0
LINE
  5
1B7C
330
2
100
AcDbEntity
  8
0
100
AcDbLine
 10
90.80245831997592
 20
174.5230095477397
 30
0.0
 11
91.30245831997592
 21
174.0230095477397
 31
0.0
  0
LINE
  5
1B7D
330
2
100
AcDbEntity
  8
0
100
AcDbLine
 10
91.30245831997592
 20
172.0230095477397
 30
0.0
 11
91.30245831997592
 21
174.0230095477398
 31
0.0
  0
LINE
  5
1B7E
330
2
100
AcDbEntity
  8
0
100
AcDbLine
 10
96.64036713600252
 20
174.5230095477397
 30
0.0
 11
97.80245831997593
 21
174.5230095477397
 31
0.0
  0
LINE
  5
1B7F
330
2
100
AcDbEntity
  8
0
100
AcDbLine
 10
98.80245831997592
 20
172.0230095477398
 30
0.0
 11
98.70452218108813
 21
173.142424737558
 31
0.0
  0
ARC
  5
1B80
330
2
100
AcDbEntity
  8
0
100
AcDbCircle
 10
97.40946907356885
 20
173.0291222719861
 30
0.0
 40
1.3
100
AcDbArc
 50
4.999999999999743
 51
74.11914999171883
  0
LINE
  5
1B81
330
2
100
AcDbEntity
  8
0
100
AcDbLine
 10
97.33219814314015
 20
174.1754510851174
 30
0.0
 11
97.35245831997605
 21
174.386427830579
 31
0.0
  0
LINE
  5
1B82
330
2
100
AcDbEntity
  8
0
100
AcDbLine
 10
95.58995832043109
 20
173.1060095477397
 30
0.0
 11
95.01495831952098
 21
173.1060095477397
 31
0.0
  0
SPLINE
  5
1B83
330
2
100
AcDbEntity
  8
0
100
AcDbSpline
210
0.0
220
0.0
230
1.0
 70
     8
 71
     3
 72
    11
 73
     7
 74
     0
 42
0.0000000001
 43
0.0000000001
 40
0.0
 40
0.0
 40
0.0
 40
0.0
 40
0.4601364636755307
 40
1.04988694485363
 40
1.713742833862792
 40
2.320347933405154
 40
2.320347933405154
 40
2.320347933405154
 40
2.320347933405179
 10
95.58995832043109
 20
173.1060095477397
 30
0.0
 10
95.61237597753892
 20
173.2610329874197
 30
0.0
 10
95.66352603277222
 20
173.6147478053372
 30
0.0
 10
96.0994111943058
 20
174.0394754769388
 30
0.0
 10
96.70446190931324
 20
174.2586626569047
 30
0.0
 10
97.12964653348905
 20
174.1896713572941
 30
0.0
 10
97.33219814314015
 20
174.1754510851174
 30
0.0
  0
LINE
  5
1B84
330
2
100
AcDbEntity
  8
0
100
AcDbLine
 10
97.80245831997593
 20
174.5230095477397
 30
0.0
 11
98.80245831997592
 21
173.5230095477397
 31
0.0
  0
LINE
  5
1B85
330
2
100
AcDbEntity
  8
0
100
AcDbLine
 10
294.1969186544389
 20
173.5230095477397
 30
0.0
 11
294.1969186544389
 21
144.4865368610825
 31
0.0
  0
LINE
  5
1B88
330
2
100
AcDbEntity
  8
0
100
AcDbLine
 10
296.3590098384124
 20
174.5230095477398
 30
0.0
 11
295.196918654439
 21
174.5230095477398
 31
0.0
  0
LINE
  5
1B89
330
2
100
AcDbEntity
  8
0
100
AcDbLine
 10
294.1969186544389
 20
172.0230095477398
 30
0.0
 11
294.2948547933267
 21
173.1424247375581
 31
0.0
  0
ARC
  5
1B8A
330
2
100
AcDbEntity
  8
0
100
AcDbCircle
 10
295.589907900846
 20
173.0291222719862
 30
0.0
 40
1.3
100
AcDbArc
 50
105.8808500082811
 51
175.0000000000002
  0
LINE
  5
1B8B
330
2
100
AcDbEntity
  8
0
100
AcDbLine
 10
295.6671788312748
 20
174.1754510851174
 30
0.0
 11
295.6469186544389
 21
174.386427830579
 31
0.0
  0
LINE
  5
1B8C
330
2
100
AcDbEntity
  8
0
100
AcDbLine
 10
297.4094186539839
 20
173.1060095477398
 30
0.0
 11
297.984418654894
 21
173.1060095477398
 31
0.0
  0
SPLINE
  5
1B8D
330
2
100
AcDbEntity
  8
0
100
AcDbSpline
210
0.0
220
0.0
230
1.0
 70
     8
 71
     3
 72
    11
 73
     7
 74
     0
 42
0.0000000001
 43
0.0000000001
 40
0.0
 40
0.0
 40
0.0
 40
0.0
 40
0.4601364636755307
 40
1.04988694485363
 40
1.713742833862792
 40
2.320347933405154
 40
2.320347933405154
 40
2.320347933405154
 40
2.320347933405179
 10
297.4094186539839
 20
173.1060095477398
 30
0.0
 10
297.3870009968759
 20
173.2610329874197
 30
0.0
 10
297.3358509416427
 20
173.6147478053372
 30
0.0
 10
296.8999657801091
 20
174.0394754769389
 30
0.0
 10
296.2949150651017
 20
174.2586626569047
 30
0.0
 10
295.8697304409259
 20
174.1896713572941
 30
0.0
 10
295.6671788312748
 20
174.1754510851174
 30
0.0
  0
LINE
  5
1B8E
330
2
100
AcDbEntity
  8
0
100
AcDbLine
 10
295.196918654439
 20
174.5230095477398
 30
0.0
 11
294.1969186544389
 21
173.5230095477398
 31
0.0
  0
LINE
  5
1B90
330
2
100
AcDbEntity
  8
0
100
AcDbLine
 10
91.30226031997597
 20
324.3505644746663
 30
0.0
 11
56.30235131997597
 21
324.3505644746662
 31
0.0
  0
LINE
  5
1B91
330
2
100
AcDbEntity
  8
0
100
AcDbLine
 10
91.30226031997597
 20
278.3505644746663
 30
0.0
 11
56.30235131997597
 21
278.3505644746663
 31
0.0
  0
LINE
  5
1B92
330
2
100
AcDbEntity
  8
0
100
AcDbLine
 10
50.80235131997596
 20
326.3505644746663
 30
0.0
 11
96.80226031997598
 21
326.3505644746663
 31
0.0
  0
LINE
  5
1B93
330
2
100
AcDbEntity
  8
0
100
AcDbLine
 10
50.80235131997596
 20
276.3505644746663
 30
0.0
 11
96.80226031997598
 21
276.3505644746663
 31
0.0
  0
LINE
  5
1B95
330
2
100
AcDbEntity
  8
0
100
AcDbLine
 10
48.80235131997597
 20
278.3505644746663
 30
0.0
 11
48.80235131997597
 21
324.3505644746663
 31
0.0
  0
LINE
  5
1B96
330
2
100
AcDbEntity
  8
0
100
AcDbLine
 10
50.80235131997596
 20
318.8505644746663
 30
0.0
 11
50.80235131997596
 21
283.8505644746663
 31
0.0
  0
LINE
  5
1B97
330
2
100
AcDbEntity
  8
CENTER
100
AcDbLine
 10
73.80245831997592
 20
271.3069574934578
 30
0.0
 11
73.80245831997592
 21
331.3941714558747
 31
0.0
  0
ARC
  5
1B98
330
2
100
AcDbEntity
  8
0
100
AcDbCircle
 10
52.30235131997597
 20
279.8504724746663
 30
0.0
 40
4.0
100
AcDbArc
 50
0.0
 51
90.0
  0
ARC
  5
1B99
330
2
100
AcDbEntity
  8
0
100
AcDbCircle
 10
50.2726513199758
 20
277.8207724746663
 30
0.0
 40
1.742199999999999
100
AcDbArc
 50
359.9986903345002
 51
90.00130966549649
  0
LINE
  5
1B9A
330
2
100
AcDbEntity
  8
0
100
AcDbLine
 10
52.30235131997597
 20
283.8505644746663
 30
0.0
 11
48.80235131997597
 21
283.8505644746663
 31
0.0
  0
CIRCLE
  5
1B9B
330
2
100
AcDbEntity
  8
0
100
AcDbCircle
 10
52.30235131997597
 20
279.8504724746663
 30
0.0
 40
3.500000000000028
  0
ARC
  5
1B9C
330
2
100
AcDbEntity
  8
0
100
AcDbCircle
 10
50.2726513199758
 20
281.8801724746662
 30
0.0
 40
1.742199999999999
100
AcDbArc
 50
269.9986903345035
 51
0.0013096654997424
  0
ARC
  5
1B9D
330
2
100
AcDbEntity
  8
0
100
AcDbCircle
 10
52.30235131997597
 20
279.8504724746663
 30
0.0
 40
2.049999999999998
100
AcDbArc
 50
180.0
 51
188.0619600839821
  0
LINE
  5
1B9E
330
2
100
AcDbEntity
  8
0
100
AcDbLine
 10
48.80235131997597
 20
278.3505644746663
 30
0.0
 11
50.80235131997596
 21
276.3505644746663
 31
0.0
  0
ARC
  5
1B9F
330
2
100
AcDbEntity
  8
0
100
AcDbCircle
 10
52.30235131997597
 20
279.8504724746663
 30
0.0
 40
2.049999999999998
100
AcDbArc
 50
171.9380399160178
 51
180.0
  0
ARC
  5
1BA0
330
2
100
AcDbEntity
  8
0
100
AcDbCircle
 10
52.30235131997597
 20
279.8504724746663
 30
0.0
 40
2.049999999999998
100
AcDbArc
 50
270.0
 51
278.061960083982
  0
ARC
  5
1BA1
330
2
100
AcDbEntity
  8
0
100
AcDbCircle
 10
52.30235131997597
 20
279.8504724746663
 30
0.0
 40
2.049999999999998
100
AcDbArc
 50
261.9380399160178
 51
270.0
  0
ARC
  5
1BA2
330
2
100
AcDbEntity
  8
0
100
AcDbCircle
 10
52.30235131997597
 20
279.8504724746663
 30
0.0
 40
2.049999999999998
100
AcDbArc
 50
351.9380399160179
 51
0.0
  0
ARC
  5
1BA3
330
2
100
AcDbEntity
  8
0
100
AcDbCircle
 10
54.3320513199759
 20
277.8207724746663
 30
0.0
 40
1.742199999999999
100
AcDbArc
 50
89.9986903345035
 51
180.0013096654997
  0
ARC
  5
1BA4
330
2
100
AcDbEntity
  8
0
100
AcDbCircle
 10
52.30235131997597
 20
279.8504724746663
 30
0.0
 40
2.049999999999998
100
AcDbArc
 50
81.93803991601789
 51
90.0
  0
ARC
  5
1BA5
330
2
100
AcDbEntity
  8
0
100
AcDbCircle
 10
52.30235131997597
 20
279.8504724746663
 30
0.0
 40
2.049999999999998
100
AcDbArc
 50
90.0
 51
98.06196008398211
  0
ARC
  5
1BA6
330
2
100
AcDbEntity
  8
0
100
AcDbCircle
 10
52.30235131997597
 20
279.8504724746663
 30
0.0
 40
2.049999999999998
100
AcDbArc
 50
0.0
 51
8.061960083982105
  0
ARC
  5
1BA7
330
2
100
AcDbEntity
  8
0
100
AcDbCircle
 10
54.3320513199759
 20
281.8801724746662
 30
0.0
 40
1.742199999999999
100
AcDbArc
 50
179.9986903345002
 51
270.0013096654997
  0
LINE
  5
1BA8
330
2
100
AcDbEntity
  8
0
100
AcDbLine
 10
56.30235131997597
 20
279.8504724746663
 30
0.0
 11
56.30235131997597
 21
276.3505644746663
 31
0.0
  0
ARC
  5
1BA9
330
2
100
AcDbEntity
  8
0
100
AcDbCircle
 10
52.30235131997597
 20
322.8505644746663
 30
0.0
 40
4.0
100
AcDbArc
 50
270.0
 51
0.0
  0
ARC
  5
1BAA
330
2
100
AcDbEntity
  8
0
100
AcDbCircle
 10
54.3320513199759
 20
324.8802644746662
 30
0.0
 40
1.742199999999999
100
AcDbArc
 50
179.9986903345002
 51
270.0013096654997
  0
ARC
  5
1BAB
330
2
100
AcDbEntity
  8
0
100
AcDbCircle
 10
50.2726513199758
 20
324.8802644746662
 30
0.0
 40
1.742199999999999
100
AcDbArc
 50
269.9986903345035
 51
0.0013096654997424
  0
CIRCLE
  5
1BAC
330
2
100
AcDbEntity
  8
0
100
AcDbCircle
 10
52.30235131997597
 20
322.8505644746663
 30
0.0
 40
3.500000000000028
  0
LINE
  5
1BAD
330
2
100
AcDbEntity
  8
0
100
AcDbLine
 10
52.30235131997597
 20
318.8505644746663
 30
0.0
 11
48.80235131997597
 21
318.8505644746663
 31
0.0
  0
ARC
  5
1BAE
330
2
100
AcDbEntity
  8
0
100
AcDbCircle
 10
50.2726513199758
 20
320.8208644746664
 30
0.0
 40
1.742199999999999
100
AcDbArc
 50
359.9986903345002
 51
90.00130966549649
  0
ARC
  5
1BAF
330
2
100
AcDbEntity
  8
0
100
AcDbCircle
 10
52.30235131997597
 20
322.8505644746663
 30
0.0
 40
2.049999999999998
100
AcDbArc
 50
171.9380399160178
 51
180.0
  0
ARC
  5
1BB0
330
2
100
AcDbEntity
  8
0
100
AcDbCircle
 10
52.30235131997597
 20
322.8505644746663
 30
0.0
 40
2.049999999999998
100
AcDbArc
 50
180.0
 51
188.0619600839821
  0
ARC
  5
1BB1
330
2
100
AcDbEntity
  8
0
100
AcDbCircle
 10
52.30235131997597
 20
322.8505644746663
 30
0.0
 40
2.049999999999998
100
AcDbArc
 50
270.0
 51
278.061960083982
  0
ARC
  5
1BB2
330
2
100
AcDbEntity
  8
0
100
AcDbCircle
 10
52.30235131997597
 20
322.8505644746663
 30
0.0
 40
2.049999999999998
100
AcDbArc
 50
261.9380399160178
 51
270.0
  0
ARC
  5
1BB3
330
2
100
AcDbEntity
  8
0
100
AcDbCircle
 10
52.30235131997597
 20
322.8505644746663
 30
0.0
 40
2.049999999999998
100
AcDbArc
 50
0.0
 51
8.061960083982105
  0
ARC
  5
1BB4
330
2
100
AcDbEntity
  8
0
100
AcDbCircle
 10
52.30235131997597
 20
322.8505644746663
 30
0.0
 40
2.049999999999998
100
AcDbArc
 50
351.9380399160179
 51
0.0
  0
ARC
  5
1BB5
330
2
100
AcDbEntity
  8
0
100
AcDbCircle
 10
54.3320513199759
 20
320.8208644746664
 30
0.0
 40
1.742199999999999
100
AcDbArc
 50
89.9986903345035
 51
180.0013096654997
  0
LINE
  5
1BB6
330
2
100
AcDbEntity
  8
0
100
AcDbLine
 10
48.80235131997597
 20
324.3505644746663
 30
0.0
 11
50.80235131997596
 21
326.3505644746663
 31
0.0
  0
LINE
  5
1BB7
330
2
100
AcDbEntity
  8
0
100
AcDbLine
 10
48.80235131997597
 20
324.3505644746663
 30
0.0
 11
50.80235131997596
 21
326.3505644746663
 31
0.0
  0
ARC
  5
1BB8
330
2
100
AcDbEntity
  8
0
100
AcDbCircle
 10
52.30235131997597
 20
322.8505644746663
 30
0.0
 40
2.049999999999998
100
AcDbArc
 50
81.93803991601789
 51
90.0
  0
ARC
  5
1BB9
330
2
100
AcDbEntity
  8
0
100
AcDbCircle
 10
52.30235131997597
 20
322.8505644746663
 30
0.0
 40
2.049999999999998
100
AcDbArc
 50
90.0
 51
98.06196008398211
  0
LINE
  5
1BBA
330
2
100
AcDbEntity
  8
0
100
AcDbLine
 10
56.30235131997597
 20
322.8505644746663
 30
0.0
 11
56.30235131997597
 21
326.3503804746662
 31
0.0
  0
LINE
  5
1BBB
330
2
100
AcDbEntity
  8
0
100
AcDbLine
 10
98.80245831997592
 20
324.3505644746663
 30
0.0
 11
98.80226031997597
 21
278.3505644746663
 31
0.0
  0
LINE
  5
1BBC
330
2
100
AcDbEntity
  8
0
100
AcDbLine
 10
96.80226031997598
 20
318.8505644746663
 30
0.0
 11
96.80226031997598
 21
283.8505644746663
 31
0.0
  0
ARC
  5
1BBD
330
2
100
AcDbEntity
  8
0
100
AcDbCircle
 10
93.27275831997576
 20
277.8207724746663
 30
0.0
 40
1.742199999999999
100
AcDbArc
 50
359.9986903345002
 51
90.00130966549649
  0
ARC
  5
1BBE
330
2
100
AcDbEntity
  8
0
100
AcDbCircle
 10
95.30245831997593
 20
279.8504724746663
 30
0.0
 40
4.0
100
AcDbArc
 50
90.0
 51
180.0
  0
CIRCLE
  5
1BBF
330
2
100
AcDbEntity
  8
0
100
AcDbCircle
 10
95.30245831997593
 20
279.8504724746663
 30
0.0
 40
3.500000000000028
  0
ARC
  5
1BC0
330
2
100
AcDbEntity
  8
0
100
AcDbCircle
 10
93.27275831997576
 20
281.8801724746662
 30
0.0
 40
1.742199999999999
100
AcDbArc
 50
269.9986903345035
 51
0.0013096654997424
  0
LINE
  5
1BC1
330
2
100
AcDbEntity
  8
0
100
AcDbLine
 10
91.30226031997597
 20
279.8504724746663
 30
0.0
 11
91.30226031997597
 21
276.3505644746663
 31
0.0
  0
ARC
  5
1BC2
330
2
100
AcDbEntity
  8
0
100
AcDbCircle
 10
95.30245831997593
 20
279.8504724746663
 30
0.0
 40
2.049999999999998
100
AcDbArc
 50
180.0
 51
188.0619600839821
  0
ARC
  5
1BC3
330
2
100
AcDbEntity
  8
0
100
AcDbCircle
 10
95.30245831997593
 20
279.8504724746663
 30
0.0
 40
2.049999999999998
100
AcDbArc
 50
171.9380399160178
 51
180.0
  0
ARC
  5
1BC4
330
2
100
AcDbEntity
  8
0
100
AcDbCircle
 10
95.30245831997593
 20
279.8504724746663
 30
0.0
 40
2.049999999999998
100
AcDbArc
 50
270.0
 51
278.061960083982
  0
ARC
  5
1BC5
330
2
100
AcDbEntity
  8
0
100
AcDbCircle
 10
95.30245831997593
 20
279.8504724746663
 30
0.0
 40
2.049999999999998
100
AcDbArc
 50
261.9380399160178
 51
270.0
  0
ARC
  5
1BC6
330
2
100
AcDbEntity
  8
0
100
AcDbCircle
 10
95.30245831997593
 20
279.8504724746663
 30
0.0
 40
2.049999999999998
100
AcDbArc
 50
351.9380399160179
 51
0.0
  0
ARC
  5
1BC7
330
2
100
AcDbEntity
  8
0
100
AcDbCircle
 10
97.33215831997586
 20
277.8207724746663
 30
0.0
 40
1.742199999999999
100
AcDbArc
 50
89.9986903345035
 51
180.0013096654997
  0
LINE
  5
1BC8
330
2
100
AcDbEntity
  8
0
100
AcDbLine
 10
98.80226031997597
 20
278.3505644746663
 30
0.0
 11
96.80226031997598
 21
276.3505644746663
 31
0.0
  0
LINE
  5
1BC9
330
2
100
AcDbEntity
  8
0
100
AcDbLine
 10
96.80226031997598
 20
276.3505644746663
 30
0.0
 11
98.80226031997597
 21
278.3505644746663
 31
0.0
  0
ARC
  5
1BCA
330
2
100
AcDbEntity
  8
0
100
AcDbCircle
 10
95.30245831997593
 20
279.8504724746663
 30
0.0
 40
2.049999999999998
100
AcDbArc
 50
81.93803991601789
 51
90.0
  0
ARC
  5
1BCB
330
2
100
AcDbEntity
  8
0
100
AcDbCircle
 10
95.30245831997593
 20
279.8504724746663
 30
0.0
 40
2.049999999999998
100
AcDbArc
 50
90.0
 51
98.06196008398211
  0
LINE
  5
1BCC
330
2
100
AcDbEntity
  8
0
100
AcDbLine
 10
95.30226031997598
 20
283.8505644746663
 30
0.0
 11
98.80226031997597
 21
283.8505644746663
 31
0.0
  0
ARC
  5
1BCD
330
2
100
AcDbEntity
  8
0
100
AcDbCircle
 10
95.30245831997593
 20
279.8504724746663
 30
0.0
 40
2.049999999999998
100
AcDbArc
 50
0.0
 51
8.061960083982105
  0
ARC
  5
1BCE
330
2
100
AcDbEntity
  8
0
100
AcDbCircle
 10
97.33215831997586
 20
281.8801724746662
 30
0.0
 40
1.742199999999999
100
AcDbArc
 50
179.9986903345002
 51
270.0013096654997
  0
ARC
  5
1BCF
330
2
100
AcDbEntity
  8
0
100
AcDbCircle
 10
93.27275831997576
 20
320.8208644746664
 30
0.0
 40
1.742199999999999
100
AcDbArc
 50
359.9986903345002
 51
90.00130966549649
  0
ARC
  5
1BD0
330
2
100
AcDbEntity
  8
0
100
AcDbCircle
 10
93.27275831997576
 20
324.8802644746662
 30
0.0
 40
1.742199999999999
100
AcDbArc
 50
269.9986903345035
 51
0.0013096654997424
  0
ARC
  5
1BD1
330
2
100
AcDbEntity
  8
0
100
AcDbCircle
 10
95.30245831997593
 20
322.8505644746663
 30
0.0
 40
4.0
100
AcDbArc
 50
180.0
 51
270.0
  0
CIRCLE
  5
1BD2
330
2
100
AcDbEntity
  8
0
100
AcDbCircle
 10
95.30245831997593
 20
322.8505644746663
 30
0.0
 40
3.500000000000028
  0
LINE
  5
1BD3
330
2
100
AcDbEntity
  8
0
100
AcDbLine
 10
91.30226031997597
 20
322.8505644746663
 30
0.0
 11
91.30226031997597
 21
326.3503804746662
 31
0.0
  0
ARC
  5
1BD4
330
2
100
AcDbEntity
  8
0
100
AcDbCircle
 10
95.30245831997593
 20
322.8505644746663
 30
0.0
 40
2.049999999999998
100
AcDbArc
 50
171.9380399160178
 51
180.0
  0
ARC
  5
1BD5
330
2
100
AcDbEntity
  8
0
100
AcDbCircle
 10
95.30245831997593
 20
322.8505644746663
 30
0.0
 40
2.049999999999998
100
AcDbArc
 50
180.0
 51
188.0619600839821
  0
ARC
  5
1BD6
330
2
100
AcDbEntity
  8
0
100
AcDbCircle
 10
97.33215831997586
 20
324.8802644746662
 30
0.0
 40
1.742199999999999
100
AcDbArc
 50
179.9986903345002
 51
270.0013096654997
  0
ARC
  5
1BD7
330
2
100
AcDbEntity
  8
0
100
AcDbCircle
 10
95.30245831997593
 20
322.8505644746663
 30
0.0
 40
2.049999999999998
100
AcDbArc
 50
270.0
 51
278.061960083982
  0
ARC
  5
1BD8
330
2
100
AcDbEntity
  8
0
100
AcDbCircle
 10
95.30245831997593
 20
322.8505644746663
 30
0.0
 40
2.049999999999998
100
AcDbArc
 50
261.9380399160178
 51
270.0
  0
ARC
  5
1BD9
330
2
100
AcDbEntity
  8
0
100
AcDbCircle
 10
95.30245831997593
 20
322.8505644746663
 30
0.0
 40
2.049999999999998
100
AcDbArc
 50
0.0
 51
8.061960083982105
  0
ARC
  5
1BDA
330
2
100
AcDbEntity
  8
0
100
AcDbCircle
 10
95.30245831997593
 20
322.8505644746663
 30
0.0
 40
2.049999999999998
100
AcDbArc
 50
351.9380399160179
 51
0.0
  0
ARC
  5
1BDB
330
2
100
AcDbEntity
  8
0
100
AcDbCircle
 10
97.33215831997586
 20
320.8208644746664
 30
0.0
 40
1.742199999999999
100
AcDbArc
 50
89.9986903345035
 51
180.0013096654997
  0
LINE
  5
1BDC
330
2
100
AcDbEntity
  8
0
100
AcDbLine
 10
95.30226031997598
 20
318.8505644746663
 30
0.0
 11
98.80226031997597
 21
318.8505644746663
 31
0.0
  0
ARC
  5
1BDD
330
2
100
AcDbEntity
  8
0
100
AcDbCircle
 10
95.30245831997593
 20
322.8505644746663
 30
0.0
 40
2.049999999999998
100
AcDbArc
 50
81.93803991601789
 51
90.0
  0
ARC
  5
1BDE
330
2
100
AcDbEntity
  8
0
100
AcDbCircle
 10
95.30245831997593
 20
322.8505644746663
 30
0.0
 40
2.049999999999998
100
AcDbArc
 50
90.0
 51
98.06196008398211
  0
LINE
  5
1BDF
330
2
100
AcDbEntity
  8
0
100
AcDbLine
 10
98.80226031997597
 20
324.3505644746663
 30
0.0
 11
96.80226031997598
 21
326.3505644746663
 31
0.0
  0
LINE
  5
1BE0
330
2
100
AcDbEntity
  8
0
100
AcDbLine
 10
98.80226031997597
 20
324.3505644746663
 30
0.0
 11
96.80226031997598
 21
326.3505644746663
 31
0.0
  0
LINE
  5
1BE1
330
2
100
AcDbEntity
  8
0
100
AcDbLine
 10
98.80245831997592
 20
324.3505644746663
 30
0.0
 11
96.80226031997598
 21
326.3505644746663
 31
0.0
  0
ARC
  5
1BE2
330
2
100
AcDbEntity
  8
0
100
AcDbCircle
 10
338.589907900846
 20
173.0291222719862
 30
0.0
 40
1.3
100
AcDbArc
 50
105.8808500082811
 51
175.0000000000002
  0
LINE
  5
1BE3
330
2
100
AcDbEntity
  8
0
100
AcDbLine
 10
336.696918654439
 20
172.0230095477398
 30
0.0
 11
344.1969186544389
 21
172.0230095477398
 31
0.0
  0
LINE
  5
1BE4
330
2
100
AcDbEntity
  8
0
100
AcDbLine
 10
299.0348274704658
 20
174.5230095477397
 30
0.0
 11
339.3590098384121
 21
174.5230095477397
 31
0.0
  0
LINE
  5
1BE6
330
2
100
AcDbEntity
  8
0
100
AcDbLine
 10
301.696918654439
 20
173.5230095477397
 30
0.0
 11
336.696918654439
 21
173.5230095477397
 31
0.0
  0
LINE
  5
1BE7
330
2
100
AcDbEntity
  8
0
100
AcDbLine
 10
301.1969186544388
 20
172.0230095477398
 30
0.0
 11
301.098982515551
 21
173.1424247375581
 31
0.0
  0
LINE
  5
1BE8
330
2
100
AcDbEntity
  8
0
100
AcDbLine
 10
301.696918654439
 20
172.0230095477398
 30
0.0
 11
301.696918654439
 21
174.0230095477398
 31
0.0
  0
LINE
  5
1BE9
330
2
100
AcDbEntity
  8
0
100
AcDbLine
 10
302.196918654439
 20
174.5230095477398
 30
0.0
 11
301.696918654439
 21
174.0230095477398
 31
0.0
  0
LINE
  5
1BEA
330
2
100
AcDbEntity
  8
0
100
AcDbLine
 10
299.726658477603
 20
174.1754510851174
 30
0.0
 11
299.7469186544389
 21
174.386427830579
 31
0.0
  0
LINE
  5
1BEB
330
2
100
AcDbEntity
  8
0
100
AcDbLine
 10
301.696918654439
 20
174.0230095477398
 30
0.0
 11
300.6418960440593
 21
174.0230095477398
 31
0.0
  0
ARC
  5
1BEC
330
2
100
AcDbEntity
  8
0
100
AcDbCircle
 10
299.8039294080319
 20
173.0291222719862
 30
0.0
 40
1.3
100
AcDbArc
 50
4.999999999999743
 51
74.11914999171883
  0
LINE
  5
1BED
330
2
100
AcDbEntity
  8
0
100
AcDbLine
 10
336.1969186544389
 20
174.5230095477398
 30
0.0
 11
336.696918654439
 21
174.0230095477398
 31
0.0
  0
LINE
  5
1BEE
330
2
100
AcDbEntity
  8
0
100
AcDbLine
 10
336.696918654439
 20
172.0230095477398
 30
0.0
 11
336.696918654439
 21
174.0230095477398
 31
0.0
  0
LINE
  5
1BEF
330
2
100
AcDbEntity
  8
0
100
AcDbLine
 10
337.1969186544391
 20
172.0230095477398
 30
0.0
 11
337.2948547933269
 21
173.1424247375581
 31
0.0
  0
LINE
  5
1BF0
330
2
100
AcDbEntity
  8
0
100
AcDbLine
 10
336.696918654439
 20
174.0230095477398
 30
0.0
 11
337.7519412648186
 21
174.0230095477398
 31
0.0
  0
LINE
  5
1BF1
330
2
100
AcDbEntity
  8
0
100
AcDbLine
 10
344.196903654439
 20
173.5230095477397
 30
0.0
 11
344.196903654439
 21
144.486635085226
 31
0.0
  0
LINE
  5
1BF4
330
2
100
AcDbEntity
  8
0
100
AcDbLine
 10
342.0348274704656
 20
174.5230095477398
 30
0.0
 11
343.196918654439
 21
174.5230095477398
 31
0.0
  0
ARC
  5
1BF5
330
2
100
AcDbEntity
  8
0
100
AcDbCircle
 10
340.6969186544391
 20
165.6230095477399
 30
0.0
 40
9.0
100
AcDbArc
 50
74.11914999171883
 51
105.8808500082811
  0
SPLINE
  5
1BF6
330
2
100
AcDbEntity
  8
0
100
AcDbSpline
210
0.0
220
0.0
230
1.0
 70
     8
 71
     3
 72
    11
 73
     7
 74
     0
 42
0.0000000001
 43
0.0000000001
 40
0.0
 40
0.0
 40
0.0
 40
0.0
 40
0.4601364636755307
 40
1.04988694485363
 40
1.713742833862792
 40
2.320347933405154
 40
2.320347933405154
 40
2.320347933405154
 40
2.320347933405179
 10
340.9844186548941
 20
173.1060095477398
 30
0.0
 10
341.006836312002
 20
173.2610329874197
 30
0.0
 10
341.0579863672352
 20
173.6147478053372
 30
0.0
 10
341.4938715287687
 20
174.0394754769389
 30
0.0
 10
342.0989222437762
 20
174.2586626569047
 30
0.0
 10
342.524106867952
 20
174.1896713572941
 30
0.0
 10
342.7266584776031
 20
174.1754510851174
 30
0.0
  0
LINE
  5
1BF7
330
2
100
AcDbEntity
  8
0
100
AcDbLine
 10
340.9844186548941
 20
173.1060095477398
 30
0.0
 11
340.409418653984
 21
173.1060095477398
 31
0.0
  0
LINE
  5
1BF8
330
2
100
AcDbEntity
  8
0
100
AcDbLine
 10
342.7266584776031
 20
174.1754510851174
 30
0.0
 11
342.746918654439
 21
174.386427830579
 31
0.0
  0
LINE
  5
1BF9
330
2
100
AcDbEntity
  8
0
100
AcDbLine
 10
338.6671788312749
 20
174.1754510851174
 30
0.0
 11
338.646918654439
 21
174.386427830579
 31
0.0
  0
SPLINE
  5
1BFA
330
2
100
AcDbEntity
  8
0
100
AcDbSpline
210
0.0
220
0.0
230
1.0
 70
     8
 71
     3
 72
    11
 73
     7
 74
     0
 42
0.0000000001
 43
0.0000000001
 40
0.0
 40
0.0
 40
0.0
 40
0.0
 40
0.4601364636755307
 40
1.04988694485363
 40
1.713742833862792
 40
2.320347933405154
 40
2.320347933405154
 40
2.320347933405154
 40
2.320347933405179
 10
340.409418653984
 20
173.1060095477398
 30
0.0
 10
340.3870009968762
 20
173.2610329874197
 30
0.0
 10
340.3358509416429
 20
173.6147478053372
 30
0.0
 10
339.8999657801093
 20
174.0394754769389
 30
0.0
 10
339.2949150651018
 20
174.2586626569047
 30
0.0
 10
338.869730440926
 20
174.1896713572941
 30
0.0
 10
338.6671788312749
 20
174.1754510851174
 30
0.0
  0
LINE
  5
1BFB
330
2
100
AcDbEntity
  8
0
100
AcDbLine
 10
343.196918654439
 20
174.5230095477398
 30
0.0
 11
344.1969186544389
 21
173.5230095477398
 31
0.0
  0
ARC
  5
1BFC
330
2
100
AcDbEntity
  8
0
100
AcDbCircle
 10
342.8039294080319
 20
173.0291222719862
 30
0.0
 40
1.3
100
AcDbArc
 50
4.999999999999743
 51
74.11914999171883
  0
LINE
  5
1BFD
330
2
100
AcDbEntity
  8
0
100
AcDbLine
 10
344.1969186544389
 20
172.0230095477398
 30
0.0
 11
344.0989825155511
 21
173.1424247375581
 31
0.0
  0
LINE
  5
1BFF
330
2
100
AcDbEntity
  8
0
100
AcDbLine
 10
599.248237323804
 20
173.5230105477397
 30
0.0
 11
564.2482373238039
 21
173.5230105477397
 31
0.0
  0
LINE
  5
1C00
330
2
100
AcDbEntity
  8
0
100
AcDbLine
 10
606.748244323804
 20
142.5229955477397
 30
0.0
 11
556.748237323804
 21
142.5229955477397
 31
0.0
  0
LINE
  5
1C01
330
2
100
AcDbEntity
  8
0
100
AcDbLine
 10
606.748244323804
 20
131.5229955477397
 30
0.0
 11
556.748237323804
 21
131.5229955477397
 31
0.0
  0
LINE
  5
1C02
330
2
100
AcDbEntity
  8
0
100
AcDbLine
 10
606.748244323804
 20
141.5229955477397
 30
0.0
 11
556.748237323804
 21
141.5229955477397
 31
0.0
  0
LINE
  5
1C03
330
2
100
AcDbEntity
  8
0
100
AcDbLine
 10
605.248244323804
 20
129.5229955477397
 30
0.0
 11
558.748237323804
 21
129.5229955477397
 31
0.0
  0
LINE
  5
1C04
330
2
100
AcDbEntity
  8
0
100
AcDbLine
 10
601.9103285077774
 20
174.5230105477397
 30
0.0
 11
561.5861461398303
 21
174.5230105477397
 31
0.0
  0
LINE
  5
1C05
330
2
100
AcDbEntity
  8
CENTER
100
AcDbLine
 10
611.7918443050125
 20
157.5229955477397
 30
0.0
 11
551.7046303425955
 21
157.5229955477397
 31
0.0
  0
LINE
  5
1C06
330
2
100
AcDbEntity
  8
0
100
AcDbLine
 10
556.748237323804
 20
173.5230105477397
 30
0.0
 11
556.748237323804
 21
131.5229955477397
 31
0.0
  0
LINE
  5
1C07
330
2
100
AcDbEntity
  8
0
100
AcDbLine
 10
558.748237323804
 20
129.5229955477397
 30
0.0
 11
556.748237323804
 21
131.5229955477397
 31
0.0
  0
LINE
  5
1C08
330
2
100
AcDbEntity
  8
0
100
AcDbLine
 10
559.2482373238039
 20
129.5229955477397
 30
0.0
 11
559.2482373238039
 21
128.0229955477397
 31
0.0
  0
SPLINE
  5
1C09
330
2
100
AcDbEntity
  8
0
100
AcDbSpline
210
0.0
220
0.0
230
1.0
 70
     8
 71
     3
 72
    11
 73
     7
 74
     0
 42
0.0000000001
 43
0.0000000001
 40
0.0
 40
0.0
 40
0.0
 40
0.0
 40
0.4601364636755307
 40
1.04988694485363
 40
1.713742833862792
 40
2.320347933405154
 40
2.320347933405154
 40
2.320347933405154
 40
2.320347933405179
 10
559.9607373233489
 20
173.1060105477397
 30
0.0
 10
559.938319666241
 20
173.2610339874196
 30
0.0
 10
559.8871696110077
 20
173.6147488053372
 30
0.0
 10
559.451284449474
 20
174.0394764769388
 30
0.0
 10
558.8462337344667
 20
174.2586636569047
 30
0.0
 10
558.4210491102908
 20
174.1896723572941
 30
0.0
 10
558.2184975006398
 20
174.1754520851174
 30
0.0
  0
LINE
  5
1C0A
330
2
100
AcDbEntity
  8
0
100
AcDbLine
 10
564.2482373238039
 20
172.0230105477397
 30
0.0
 11
556.748237323804
 21
172.0230105477398
 31
0.0
  0
ARC
  5
1C0B
330
2
100
AcDbEntity
  8
0
100
AcDbCircle
 10
560.2482373238038
 20
165.6230105477398
 30
0.0
 40
9.0
100
AcDbArc
 50
74.11914999171883
 51
105.8808500082811
  0
LINE
  5
1C0C
330
2
100
AcDbEntity
  8
0
100
AcDbLine
 10
556.748237323804
 20
172.0230105477398
 30
0.0
 11
556.8461734626918
 21
173.142425737558
 31
0.0
  0
LINE
  5
1C0D
330
2
100
AcDbEntity
  8
0
100
AcDbLine
 10
558.2184975006398
 20
174.1754520851174
 30
0.0
 11
558.1982373238038
 21
174.386428830579
 31
0.0
  0
LINE
  5
1C0E
330
2
100
AcDbEntity
  8
0
100
AcDbLine
 10
558.9103285077774
 20
174.5230105477397
 30
0.0
 11
557.748237323804
 21
174.5230105477397
 31
0.0
  0
LINE
  5
1C0F
330
2
100
AcDbEntity
  8
0
100
AcDbLine
 10
557.748237323804
 20
174.5230105477397
 30
0.0
 11
556.748237323804
 21
173.5230105477397
 31
0.0
  0
ARC
  5
1C10
330
2
100
AcDbEntity
  8
0
100
AcDbCircle
 10
558.1412265702111
 20
173.0291232719861
 30
0.0
 40
1.3
100
AcDbArc
 50
105.8808500082811
 51
175.0000000000002
  0
LINE
  5
1C11
330
2
100
AcDbEntity
  8
0
100
AcDbLine
 10
564.2482373238039
 20
174.0230105477397
 30
0.0
 11
563.1932147134243
 21
174.0230105477397
 31
0.0
  0
SPLINE
  5
1C12
330
2
100
AcDbEntity
  8
0
100
AcDbSpline
210
0.0
220
0.0
230
1.0
 70
     8
 71
     3
 72
    11
 73
     7
 74
     0
 42
0.0000000001
 43
0.0000000001
 40
0.0
 40
0.0
 40
0.0
 40
0.0
 40
0.4601364636755307
 40
1.04988694485363
 40
1.713742833862792
 40
2.320347933405154
 40
2.320347933405154
 40
2.320347933405154
 40
2.320347933405179
 10
560.5357373242589
 20
173.1060105477397
 30
0.0
 10
560.5581549813668
 20
173.2610339874196
 30
0.0
 10
560.6093050366
 20
173.6147488053372
 30
0.0
 10
561.0451901981337
 20
174.0394764769388
 30
0.0
 10
561.650240913141
 20
174.2586636569047
 30
0.0
 10
562.0754255373169
 20
174.1896723572941
 30
0.0
 10
562.2779771469679
 20
174.1754520851174
 30
0.0
  0
LINE
  5
1C13
330
2
100
AcDbEntity
  8
0
100
AcDbLine
 10
559.9607373233489
 20
173.1060105477397
 30
0.0
 11
560.5357373242589
 21
173.1060105477397
 31
0.0
  0
ARC
  5
1C14
330
2
100
AcDbEntity
  8
0
100
AcDbCircle
 10
562.3552480773969
 20
173.0291232719861
 30
0.0
 40
1.3
100
AcDbArc
 50
4.999999999999743
 51
74.11914999171883
  0
LINE
  5
1C15
330
2
100
AcDbEntity
  8
0
100
AcDbLine
 10
563.7482373238039
 20
172.0230105477398
 30
0.0
 11
563.6503011849161
 21
173.142425737558
 31
0.0
  0
LINE
  5
1C16
330
2
100
AcDbEntity
  8
0
100
AcDbLine
 10
562.2779771469679
 20
174.1754520851174
 30
0.0
 11
562.2982373238039
 21
174.386428830579
 31
0.0
  0
LINE
  5
1C17
330
2
100
AcDbEntity
  8
0
100
AcDbLine
 10
564.2482373238039
 20
172.0230105477397
 30
0.0
 11
564.2482373238039
 21
174.0230105477398
 31
0.0
  0
LINE
  5
1C18
330
2
100
AcDbEntity
  8
0
100
AcDbLine
 10
564.748237323804
 20
174.5230105477397
 30
0.0
 11
564.2482373238039
 21
174.0230105477397
 31
0.0
  0
LINE
  5
1C19
330
2
100
AcDbEntity
  8
0
100
AcDbLine
 10
606.748244323804
 20
173.5230105477397
 30
0.0
 11
606.748244323804
 21
131.5229955477397
 31
0.0
  0
LINE
  5
1C1A
330
2
100
AcDbEntity
  8
CENTER
100
AcDbLine
 10
581.748237323804
 20
123.1334995477397
 30
0.0
 11
581.748237323804
 21
179.9105105477397
 31
0.0
  0
LINE
  5
1C1C
330
2
100
AcDbEntity
  8
0
100
AcDbLine
 10
606.748244323804
 20
131.5229955477397
 30
0.0
 11
604.7482443238039
 21
129.5229955477397
 31
0.0
  0
LINE
  5
1C1D
330
2
100
AcDbEntity
  8
0
100
AcDbLine
 10
605.248244323804
 20
129.5229955477397
 30
0.0
 11
605.248244323804
 21
128.0229955477397
 31
0.0
  0
LINE
  5
1C1E
330
2
100
AcDbEntity
  8
0
100
AcDbLine
 10
607.623244323804
 20
147.0229955477397
 30
0.0
 11
605.6232443238039
 21
147.0229955477397
 31
0.0
  0
LINE
  5
1C1F
330
2
100
AcDbEntity
  8
0
100
AcDbLine
 10
607.623244323804
 20
168.0229955477397
 30
0.0
 11
605.6232443238039
 21
168.0229955477397
 31
0.0
  0
LINE
  5
1C20
330
2
100
AcDbEntity
  8
0
100
AcDbLine
 10
603.535737324259
 20
173.1060105477397
 30
0.0
 11
602.9607373233489
 21
173.1060105477397
 31
0.0
  0
ARC
  5
1C21
330
2
100
AcDbEntity
  8
0
100
AcDbCircle
 10
603.248237323804
 20
165.6230105477398
 30
0.0
 40
9.0
100
AcDbArc
 50
74.11914999171883
 51
105.8808500082811
  0
LINE
  5
1C22
330
2
100
AcDbEntity
  8
0
100
AcDbLine
 10
599.248237323804
 20
172.0230105477397
 30
0.0
 11
606.748237323804
 21
172.0230105477398
 31
0.0
  0
LINE
  5
1C23
330
2
100
AcDbEntity
  8
0
100
AcDbLine
 10
599.748237323804
 20
172.0230105477398
 30
0.0
 11
599.8461734626919
 21
173.142425737558
 31
0.0
  0
LINE
  5
1C24
330
2
100
AcDbEntity
  8
0
100
AcDbLine
 10
599.248237323804
 20
172.0230105477397
 30
0.0
 11
599.248237323804
 21
174.0230105477398
 31
0.0
  0
LINE
  5
1C25
330
2
100
AcDbEntity
  8
0
100
AcDbLine
 10
598.748237323804
 20
174.5230105477397
 30
0.0
 11
599.248237323804
 21
174.0230105477397
 31
0.0
  0
SPLINE
  5
1C26
330
2
100
AcDbEntity
  8
0
100
AcDbSpline
210
0.0
220
0.0
230
1.0
 70
     8
 71
     3
 72
    11
 73
     7
 74
     0
 42
0.0000000001
 43
0.0000000001
 40
0.0
 40
0.0
 40
0.0
 40
0.0
 40
0.4601364636755307
 40
1.04988694485363
 40
1.713742833862792
 40
2.320347933405154
 40
2.320347933405154
 40
2.320347933405154
 40
2.320347933405179
 10
602.9607373233489
 20
173.1060105477397
 30
0.0
 10
602.938319666241
 20
173.2610339874196
 30
0.0
 10
602.8871696110079
 20
173.6147488053372
 30
0.0
 10
602.4512844494743
 20
174.0394764769388
 30
0.0
 10
601.8462337344669
 20
174.2586636569047
 30
0.0
 10
601.421049110291
 20
174.1896723572941
 30
0.0
 10
601.2184975006399
 20
174.1754520851174
 30
0.0
  0
LINE
  5
1C27
330
2
100
AcDbEntity
  8
0
100
AcDbLine
 10
601.2184975006399
 20
174.1754520851174
 30
0.0
 11
601.1982373238041
 21
174.386428830579
 31
0.0
  0
LINE
  5
1C28
330
2
100
AcDbEntity
  8
0
100
AcDbLine
 10
599.248237323804
 20
174.0230105477397
 30
0.0
 11
600.3032599341836
 21
174.0230105477397
 31
0.0
  0
ARC
  5
1C29
330
2
100
AcDbEntity
  8
0
100
AcDbCircle
 10
601.141226570211
 20
173.0291232719861
 30
0.0
 40
1.3
100
AcDbArc
 50
105.8808500082811
 51
175.0000000000002
  0
LINE
  5
1C2A
330
2
100
AcDbEntity
  8
0
100
AcDbLine
 10
606.748237323804
 20
172.0230105477398
 30
0.0
 11
606.650301184916
 21
173.142425737558
 31
0.0
  0
ARC
  5
1C2B
330
2
100
AcDbEntity
  8
0
100
AcDbCircle
 10
605.3552480773969
 20
173.0291232719861
 30
0.0
 40
1.3
100
AcDbArc
 50
4.999999999999743
 51
74.11914999171883
  0
LINE
  5
1C2C
330
2
100
AcDbEntity
  8
0
100
AcDbLine
 10
605.2779771469682
 20
174.1754520851174
 30
0.0
 11
605.298237323804
 21
174.386428830579
 31
0.0
  0
LINE
  5
1C2D
330
2
100
AcDbEntity
  8
0
100
AcDbLine
 10
605.7482373238039
 20
174.5230105477397
 30
0.0
 11
606.748237323804
 21
173.5230105477397
 31
0.0
  0
LINE
  5
1C2E
330
2
100
AcDbEntity
  8
0
100
AcDbLine
 10
604.5861461398304
 20
174.5230105477397
 30
0.0
 11
605.7482373238039
 21
174.5230105477397
 31
0.0
  0
SPLINE
  5
1C2F
330
2
100
AcDbEntity
  8
0
100
AcDbSpline
210
0.0
220
0.0
230
1.0
 70
     8
 71
     3
 72
    11
 73
     7
 74
     0
 42
0.0000000001
 43
0.0000000001
 40
0.0
 40
0.0
 40
0.0
 40
0.0
 40
0.4601364636755307
 40
1.04988694485363
 40
1.713742833862792
 40
2.320347933405154
 40
2.320347933405154
 40
2.320347933405154
 40
2.320347933405179
 10
603.535737324259
 20
173.1060105477397
 30
0.0
 10
603.5581549813668
 20
173.2610339874196
 30
0.0
 10
603.6093050366003
 20
173.6147488053372
 30
0.0
 10
604.0451901981338
 20
174.0394764769388
 30
0.0
 10
604.6502409131412
 20
174.2586636569047
 30
0.0
 10
605.0754255373171
 20
174.1896723572941
 30
0.0
 10
605.2779771469682
 20
174.1754520851174
 30
0.0
  0
ARC
  5
217F
330
2
100
AcDbEntity
  8
0
100
AcDbCircle
 10
352.1969186544391
 20
134.3229985477397
 30
0.0
 40
2.0
100
AcDbArc
 50
180.0
 51
270.0
  0
ARC
  5
2180
330
2
100
AcDbEntity
  8
0
100
AcDbCircle
 10
352.1969186544391
 20
90.32299854773972
 30
0.0
 40
2.0
100
AcDbArc
 50
90.00000000000003
 51
180.0
  0
ARC
  5
2181
330
2
100
AcDbEntity
  8
0
100
AcDbCircle
 10
286.1969186544388
 20
90.32299854773972
 30
0.0
 40
2.0
100
AcDbArc
 50
0.000000000000007
 51
89.99999999999998
  0
ARC
  5
2182
330
2
100
AcDbEntity
  8
0
100
AcDbCircle
 10
286.1969186544388
 20
134.3229985477397
 30
0.0
 40
2.0
100
AcDbArc
 50
270.0
 51
0.000000000000007
  0
LINE
  5
2183
330
2
100
AcDbEntity
  8
0
100
AcDbLine
 10
191.8024703199758
 20
266.3505654746663
 30
0.0
 11
153.8024663199759
 21
266.3505654746663
 31
0.0
  0
ARC
  5
2184
330
2
100
AcDbEntity
  8
0
100
AcDbCircle
 10
194.802466319976
 20
268.3505644746661
 30
0.0
 40
2.0
100
AcDbArc
 50
90.00000000000003
 51
180.0
  0
LINE
  5
2185
330
2
100
AcDbEntity
  8
0
100
AcDbLine
 10
192.8024703199758
 20
267.3505644746663
 30
0.0
 11
192.8024703199758
 21
268.3545644726421
 31
0.0
  0
ARC
  5
2186
330
2
100
AcDbEntity
  8
0
100
AcDbCircle
 10
191.8024743199759
 20
267.3505644746663
 30
0.0
 40
1.0
100
AcDbArc
 50
270.0
 51
0.0
  0
ARC
  5
2187
330
2
100
AcDbEntity
  8
0
100
AcDbCircle
 10
150.8024663199758
 20
268.3505644746661
 30
0.0
 40
2.0
100
AcDbArc
 50
0.0
 51
90.00000000000003
  0
LINE
  5
2188
330
2
100
AcDbEntity
  8
0
100
AcDbLine
 10
152.8024663199759
 20
267.3505644746663
 30
0.0
 11
152.8024663199759
 21
268.3505644746661
 31
0.0
  0
ARC
  5
2189
330
2
100
AcDbEntity
  8
0
100
AcDbCircle
 10
153.8024663199759
 20
267.3505644746663
 30
0.0
 40
1.0
100
AcDbArc
 50
180.0
 51
270.0
  0
ARC
  5
218A
330
2
100
AcDbEntity
  8
0
100
AcDbCircle
 10
150.8024663199758
 20
334.3505644746664
 30
0.0
 40
2.0
100
AcDbArc
 50
270.0
 51
0.0
  0
ARC
  5
218B
330
2
100
AcDbEntity
  8
0
100
AcDbCircle
 10
194.802466319976
 20
334.3505644746664
 30
0.0
 40
2.0
100
AcDbArc
 50
180.0
 51
270.0
  0
ENDSEC
  0
SECTION
  2
OBJECTS
  0
DICTIONARY
  5
7
330
0
100
AcDbDictionary
  3
ACAD_GROUP
350
75
  3
ACAD_LAYOUT
350
61
  3
ACAD_MLINESTYLE
350
76
  3
ACAD_PLOTSETTINGS
350
77
  3
ACAD_PLOTSTYLENAME
350
6
  3
ACADDIM
350
480
  3
ACDBHEADERROUNDTRIPXREC
350
21CA
  3
ACDBVARIABLEDICTIONARY
350
102
  3
DWGPROPS
350
3D2
  0
DICTIONARY
  5
21EB
330
2
100
AcDbDictionary
280
     1
  3
ACAD_LAYOUTSELFREF
360
21EC
  0
DICTIONARY
  5
21ED
330
21C4
100
AcDbDictionary
280
     1
  3
ACAD_LAYOUTSELFREF
360
21EE
  0
DICTIONARY
  5
75
102
{ACAD_REACTORS
330
7
102
}
330
7
100
AcDbDictionary
  0
DICTIONARY
  5
61
102
{ACAD_REACTORS
330
7
102
}
330
7
100
AcDbDictionary
  0
DICTIONARY
  5
76
102
{ACAD_REACTORS
330
7
102
}
330
7
100
AcDbDictionary
  3
STANDARD
350
78
  0
DICTIONARY
  5
77
102
{ACAD_REACTORS
330
7
102
}
330
7
100
AcDbDictionary
  0
ACDBDICTIONARYWDFLT
  5
6
102
{ACAD_REACTORS
330
7
102
}
330
7
100
AcDbDictionary
281
     1
  3
Normal
350
5
100
AcDbDictionaryWithDefault
340
5
  0
XRECORD
  5
480
102
{ACAD_REACTORS
330
7
102
}
330
7
100
AcDbXrecord
 90
   990106
  3

 60
     0
 61
     0
 62
     1
 63
     3
 64
     1
 65
     0
 66
     0
 67
     3
 68
     1
 69
     0
 70
     0
 71
     0
 72
     0
 40
0.0
170
     2
340
0
  0
DICTIONARY
  5
21CA
102
{ACAD_REACTORS
330
7
102
}
330
7
100
AcDbDictionary
  3
CEPSNTYPE
350
21D4
  3
DIMSTYLEDATA
350
21D8
  3
FINGERPRINTGUID
350
21D5
  3
HYPERLINKBASE
350
21CD
  3
INSUNITS
350
21D3
  3
LAYOUTDICT
350
21CF
  3
LWETCUNION
350
21D2
  3
PLOTSETDICT
350
21D0
  3
PLOTSTYLNAMDICT
350
21D1
  3
PSVPSCALE
350
21D7
  3
PUCSBASE
350
21DB
  3
PUCSORGBACK
350
21E1
  3
PUCSORGBOTTOM
350
21DD
  3
PUCSORGFRONT
350
21E0
  3
PUCSORGLEFT
350
21DE
  3
PUCSORGRIGHT
350
21DF
  3
PUCSORGTOP
350
21DC
  3
PUCSORTHOREF
350
21D9
  3
PUCSORTHOVIEW
350
21DA
  3
STYLESHEET
350
21CE
  3
TSTACKALIGN
350
21CB
  3
TSTACKSIZE
350
21CC
  3
UCSBASE
350
21E4
  3
UCSORGBACK
350
21EA
  3
UCSORGBOTTOM
350
21E6
  3
UCSORGFRONT
350
21E9
  3
UCSORGLEFT
350
21E7
  3
UCSORGRIGHT
350
21E8
  3
UCSORGTOP
350
21E5
  3
UCSORTHOREF
350
21E2
  3
UCSORTHOVIEW
350
21E3
  3
VERSIONGUID
350
21D6
  0
DICTIONARY
  5
102
102
{ACAD_REACTORS
330
7
102
}
330
7
100
AcDbDictionary
  3
DIMASSOC
350
103
  0
XRECORD
  5
3D2
102
{ACAD_REACTORS
330
7
102
}
330
7
100
AcDbXrecord
  1
DWGPROPS COOKIE
  2

  3

  4

  6

  7

  8

  9

300
=
301
=
302
=
303
=
304
=
305
=
306
=
307
=
308
=
309
=
 40
0.5353330671296296
 41
2452052.431989363
 42
2453406.550756377
  1

 90
        0
  0
XRECORD
  5
21EC
102
{ACAD_REACTORS
330
21EB
102
}
330
21EB
100
AcDbXrecord
340
2
  0
XRECORD
  5
21EE
102
{ACAD_REACTORS
330
21ED
102
}
330
21ED
100
AcDbXrecord
340
21C4
  0
MLINESTYLE
  5
78
102
{ACAD_REACTORS
330
76
102
}
330
76
100
AcDbMlineStyle
  2
STANDARD
 70
     0
  3

 62
     0
 51
90.0
 52
90.0
 71
     2
 49
0.5
 62
   256
  6
BYLAYER
 49
-0.5
 62
   256
  6
BYLAYER
  0
ACDBPLACEHOLDER
  5
5
102
{ACAD_REACTORS
330
6
102
}
330
6
100
AcDbPlaceHolder
280
     0
  0
XRECORD
  5
21D4
102
{ACAD_REACTORS
330
21CA
102
}
330
21CA
100
AcDbXrecord
 90
        0
  0
XRECORD
  5
21D8
102
{ACAD_REACTORS
330
21CA
102
}
330
21CA
100
AcDbXrecord
1000
DSTYLE
1002
{
1070
   179
 70
     2
1070
   277
 70
     6
1002
}
  0
XRECORD
  5
21D5
102
{ACAD_REACTORS
330
21CA
102
}
330
21CA
100
AcDbXrecord
  1
{6385560B-F4B1-4644-A7C2-A3E32AC3D232}
  0
XRECORD
  5
21CD
102
{ACAD_REACTORS
330
21CA
102
}
330
21CA
100
AcDbXrecord
  1

  0
XRECORD
  5
21D3
102
{ACAD_REACTORS
330
21CA
102
}
330
21CA
100
AcDbXrecord
 90
        0
  0
XRECORD
  5
21CF
102
{ACAD_REACTORS
330
21CA
102
}
330
21CA
100
AcDbXrecord
340
61
  0
XRECORD
  5
21D2
102
{ACAD_REACTORS
330
21CA
102
}
330
21CA
100
AcDbXrecord
 90
    10781
  0
XRECORD
  5
21D0
102
{ACAD_REACTORS
330
21CA
102
}
330
21CA
100
AcDbXrecord
340
77
  0
XRECORD
  5
21D1
102
{ACAD_REACTORS
330
21CA
102
}
330
21CA
100
AcDbXrecord
340
6
  0
XRECORD
  5
21D7
102
{ACAD_REACTORS
330
21CA
102
}
330
21CA
100
AcDbXrecord
 40
0.0
  0
XRECORD
  5
21DB
102
{ACAD_REACTORS
330
21CA
102
}
330
21CA
100
AcDbXrecord
340
0
  0
XRECORD
  5
21E1
102
{ACAD_REACTORS
330
21CA
102
}
330
21CA
100
AcDbXrecord
 10
0.0
 20
0.0
 30
0.0
  0
XRECORD
  5
21DD
102
{ACAD_REACTORS
330
21CA
102
}
330
21CA
100
AcDbXrecord
 10
0.0
 20
0.0
 30
0.0
  0
XRECORD
  5
21E0
102
{ACAD_REACTORS
330
21CA
102
}
330
21CA
100
AcDbXrecord
 10
0.0
 20
0.0
 30
0.0
  0
XRECORD
  5
21DE
102
{ACAD_REACTORS
330
21CA
102
}
330
21CA
100
AcDbXrecord
 10
0.0
 20
0.0
 30
0.0
  0
XRECORD
  5
21DF
102
{ACAD_REACTORS
330
21CA
102
}
330
21CA
100
AcDbXrecord
 10
0.0
 20
0.0
 30
0.0
  0
XRECORD
  5
21DC
102
{ACAD_REACTORS
330
21CA
102
}
330
21CA
100
AcDbXrecord
 10
0.0
 20
0.0
 30
0.0
  0
XRECORD
  5
21D9
102
{ACAD_REACTORS
330
21CA
102
}
330
21CA
100
AcDbXrecord
340
0
  0
XRECORD
  5
21DA
102
{ACAD_REACTORS
330
21CA
102
}
330
21CA
100
AcDbXrecord
 70
     0
  0
XRECORD
  5
21CE
102
{ACAD_REACTORS
330
21CA
102
}
330
21CA
100
AcDbXrecord
  1
Sekkei.ctb
  0
XRECORD
  5
21CB
102
{ACAD_REACTORS
330
21CA
102
}
330
21CA
100
AcDbXrecord
 90
        1
  0
XRECORD
  5
21CC
102
{ACAD_REACTORS
330
21CA
102
}
330
21CA
100
AcDbXrecord
 90
       70
  0
XRECORD
  5
21E4
102
{ACAD_REACTORS
330
21CA
102
}
330
21CA
100
AcDbXrecord
340
0
  0
XRECORD
  5
21EA
102
{ACAD_REACTORS
330
21CA
102
}
330
21CA
100
AcDbXrecord
 10
0.0
 20
0.0
 30
0.0
  0
XRECORD
  5
21E6
102
{ACAD_REACTORS
330
21CA
102
}
330
21CA
100
AcDbXrecord
 10
0.0
 20
0.0
 30
0.0
  0
XRECORD
  5
21E9
102
{ACAD_REACTORS
330
21CA
102
}
330
21CA
100
AcDbXrecord
 10
0.0
 20
0.0
 30
0.0
  0
XRECORD
  5
21E7
102
{ACAD_REACTORS
330
21CA
102
}
330
21CA
100
AcDbXrecord
 10
0.0
 20
0.0
 30
0.0
  0
XRECORD
  5
21E8
102
{ACAD_REACTORS
330
21CA
102
}
330
21CA
100
AcDbXrecord
 10
0.0
 20
0.0
 30
0.0
  0
XRECORD
  5
21E5
102
{ACAD_REACTORS
330
21CA
102
}
330
21CA
100
AcDbXrecord
 10
0.0
 20
0.0
 30
0.0
  0
XRECORD
  5
21E2
102
{ACAD_REACTORS
330
21CA
102
}
330
21CA
100
AcDbXrecord
340
0
  0
XRECORD
  5
21E3
102
{ACAD_REACTORS
330
21CA
102
}
330
21CA
100
AcDbXrecord
 70
     0
  0
XRECORD
  5
21D6
102
{ACAD_REACTORS
330
21CA
102
}
330
21CA
100
AcDbXrecord
  1
{F5409425-A6AD-44D0-AA51-409FF1DA862A}
  0
DICTIONARYVAR
  5
103
102
{ACAD_REACTORS
330
102
102
}
330
102
100
DictionaryVariables
280
     0
  1
1
  0
ENDSEC
  0
EOF
