  0
SECTION
  2
HEADER
  9
$ACADVER
  1
AC1014
  9
$ACADMAINTVER
 70
     9
  9
$DWGCODEPAGE
  3
ANSI_932
  9
$INSBASE
 10
0.0
 20
0.0
 30
0.0
  9
$EXTMIN
 10
30.30245931997592
 20
40.32299554773977
 30
0.0
  9
$EXTMAX
 10
625.248237323804
 20
372.3505644746662
 30
0.0
  9
$LIMMIN
 10
0.0
 20
0.0
  9
$LIMMAX
 10
297.0
 20
210.0
  9
$ORTHOMODE
 70
     1
  9
$REGENMODE
 70
     1
  9
$FILLMODE
 70
     1
  9
$QTEXTMODE
 70
     0
  9
$MIRRTEXT
 70
     0
  9
$DRAGMODE
 70
     2
  9
$LTSCALE
 40
2.0
  9
$OSMODE
 70
    37
  9
$ATTMODE
 70
     1
  9
$TEXTSIZE
 40
2.0
  9
$TRACEWID
 40
1.0
  9
$TEXTSTYLE
  7
STANDARD
  9
$CLAYER
  8
0
  9
$CELTYPE
  6
BYLAYER
  9
$CECOLOR
 62
   256
  9
$CELTSCALE
 40
1.0
  9
$DELOBJ
 70
     1
  9
$DISPSILH
 70
     0
  9
$DIMSCALE
 40
2.0
  9
$DIMASZ
 40
1.8
  9
$DIMEXO
 40
0.625
  9
$DIMDLI
 40
3.75
  9
$DIMRND
 40
0.0
  9
$DIMDLE
 40
0.0
  9
$DIMEXE
 40
0.8
  9
$DIMTP
 40
0.0
  9
$DIMTM
 40
0.0
  9
$DIMTXT
 40
1.8
  9
$DIMCEN
 40
2.5
  9
$DIMTSZ
 40
0.0
  9
$DIMTOL
 70
     0
  9
$DIMLIM
 70
     0
  9
$DIMTIH
 70
     0
  9
$DIMTOH
 70
     0
  9
$DIMSE1
 70
     0
  9
$DIMSE2
 70
     0
  9
$DIMTAD
 70
     1
  9
$DIMZIN
 70
     8
  9
$DIMBLK
  1

  9
$DIMASO
 70
     1
  9
$DIMSHO
 70
     1
  9
$DIMPOST
  1

  9
$DIMAPOST
  1

  9
$DIMALT
 70
     0
  9
$DIMALTD
 70
     4
  9
$DIMALTF
 40
0.0394
  9
$DIMLFAC
 40
1.0
  9
$DIMTOFL
 70
     1
  9
$DIMTVP
 40
0.0
  9
$DIMTIX
 70
     0
  9
$DIMSOXD
 70
     0
  9
$DIMSAH
 70
     0
  9
$DIMBLK1
  1

  9
$DIMBLK2
  1

  9
$DIMSTYLE
  2
STANDARD
  9
$DIMCLRD
 70
     0
  9
$DIMCLRE
 70
     0
  9
$DIMCLRT
 70
     0
  9
$DIMTFAC
 40
1.0
  9
$DIMGAP
 40
0.75
  9
$DIMJUST
 70
     0
  9
$DIMSD1
 70
     0
  9
$DIMSD2
 70
     0
  9
$DIMTOLJ
 70
     1
  9
$DIMTZIN
 70
     0
  9
$DIMALTZ
 70
     0
  9
$DIMALTTZ
 70
     0
  9
$DIMFIT
 70
     3
  9
$DIMUPT
 70
     0
  9
$DIMUNIT
 70
     8
  9
$DIMDEC
 70
     2
  9
$DIMTDEC
 70
     2
  9
$DIMALTU
 70
     8
  9
$DIMALTTD
 70
     4
  9
$DIMTXSTY
  7
STANDARD
  9
$DIMAUNIT
 70
     0
  9
$LUNITS
 70
     2
  9
$LUPREC
 70
     3
  9
$SKETCHINC
 40
1.0
  9
$FILLETRAD
 40
10.0
  9
$AUNITS
 70
     0
  9
$AUPREC
 70
     2
  9
$MENU
  1
.
  9
$ELEVATION
 40
0.0
  9
$PELEVATION
 40
0.0
  9
$THICKNESS
 40
0.0
  9
$LIMCHECK
 70
     0
  9
$BLIPMODE
 70
     0
  9
$CHAMFERA
 40
0.0
  9
$CHAMFERB
 40
0.0
  9
$CHAMFERC
 40
20.0
  9
$CHAMFERD
 40
0.0
  9
$SKPOLY
 70
     0
  9
$TDCREATE
 40
2453752.641022858
  9
$TDUPDATE
 40
2454399.552252604
  9
$TDINDWG
 40
0.2546035648
  9
$TDUSRTIMER
 40
0.2546033796
  9
$USRTIMER
 70
     1
  9
$ANGBASE
 50
0.0
  9
$ANGDIR
 70
     0
  9
$PDMODE
 70
     0
  9
$PDSIZE
 40
-10.0
  9
$PLINEWID
 40
0.0
  9
$COORDS
 70
     1
  9
$SPLFRAME
 70
     0
  9
$SPLINETYPE
 70
     6
  9
$SPLINESEGS
 70
     8
  9
$ATTDIA
 70
     0
  9
$ATTREQ
 70
     1
  9
$HANDLING
 70
-16383
  9
$HANDSEED
  5
2544
  9
$SURFTAB1
 70
     6
  9
$SURFTAB2
 70
     6
  9
$SURFTYPE
 70
     6
  9
$SURFU
 70
     6
  9
$SURFV
 70
     6
  9
$UCSNAME
  2

  9
$UCSORG
 10
0.0
 20
0.0
 30
0.0
  9
$UCSXDIR
 10
1.0
 20
0.0
 30
0.0
  9
$UCSYDIR
 10
0.0
 20
1.0
 30
0.0
  9
$PUCSNAME
  2

  9
$PUCSORG
 10
0.0
 20
0.0
 30
0.0
  9
$PUCSXDIR
 10
1.0
 20
0.0
 30
0.0
  9
$PUCSYDIR
 10
0.0
 20
1.0
 30
0.0
  9
$USERI1
 70
     0
  9
$USERI2
 70
     0
  9
$USERI3
 70
     0
  9
$USERI4
 70
     0
  9
$USERI5
 70
     0
  9
$USERR1
 40
0.0
  9
$USERR2
 40
0.0
  9
$USERR3
 40
0.0
  9
$USERR4
 40
0.0
  9
$USERR5
 40
0.0
  9
$WORLDVIEW
 70
     1
  9
$SHADEDGE
 70
     3
  9
$SHADEDIF
 70
    70
  9
$TILEMODE
 70
     1
  9
$MAXACTVP
 70
    48
  9
$PINSBASE
 10
0.0
 20
0.0
 30
0.0
  9
$PLIMCHECK
 70
     0
  9
$PEXTMIN
 10
0.0
 20
0.0
 30
0.0
  9
$PEXTMAX
 10
0.0
 20
0.0
 30
0.0
  9
$PLIMMIN
 10
0.0
 20
0.0
  9
$PLIMMAX
 10
12.0
 20
9.0
  9
$UNITMODE
 70
     0
  9
$VISRETAIN
 70
     1
  9
$PLINEGEN
 70
     0
  9
$PSLTSCALE
 70
     1
  9
$TREEDEPTH
 70
  3020
  9
$PICKSTYLE
 70
     1
  9
$CMLSTYLE
  2
STANDARD
  9
$CMLJUST
 70
     0
  9
$CMLSCALE
 40
1.0
  9
$PROXYGRAPHICS
 70
     1
  9
$MEASUREMENT
 70
     0
  0
ENDSEC
  0
SECTION
  2
CLASSES
  0
CLASS
  1
DICTIONARYVAR
  2
AcDbDictionaryVar
  3
AutoCAD 2000
 90
        0
280
     0
281
     0
  0
CLASS
  1
ACDBDICTIONARYWDFLT
  2
AcDbDictionaryWithDefault
  3
AutoCAD 2000
 90
        0
280
     0
281
     0
  0
CLASS
  1
ACDBPLACEHOLDER
  2
AcDbPlaceHolder
  3
AutoCAD 2000
 90
        0
280
     0
281
     0
  0
CLASS
  1
LAYOUT
  2
AcDbLayout
  3
AutoCAD 2000
 90
        0
280
     0
281
     0
  0
CLASS
  1
LONG_TRANSACTION
  2
AcDbLongTransaction
  3
AutoCAD 2000
 90
        0
280
     0
281
     0
  0
CLASS
  1
LWPOLYLINE
  2
AcDbPolyline
  3
AutoCAD 2000
 90
        0
280
     0
281
     1
  0
CLASS
  1
HATCH
  2
AcDbHatch
  3
AutoCAD 2000
 90
        0
280
     0
281
     1
  0
CLASS
  1
XRECORD
  2
AcDbXrecord
  3
AutoCAD 2000
 90
        0
280
     0
281
     0
  0
ENDSEC
  0
SECTION
  2
TABLES
  0
TABLE
  2
VPORT
  5
6E
330
0
100
AcDbSymbolTable
 70
     2
  0
VPORT
  5
251E
330
6E
100
AcDbSymbolTableRecord
100
AcDbViewportTableRecord
  2
*ACTIVE
 70
     0
 10
0.0
 20
0.0
 11
1.0
 21
1.0
 12
321.1390440138679
 22
194.655099054679
 13
0.0
 23
0.0
 14
10.0
 24
10.0
 15
10.0
 25
10.0
 16
0.0
 26
0.0
 36
1.0
 17
0.0
 27
0.0
 37
0.0
 40
396.698766241867
 41
1.540920716112531
 42
50.0
 43
0.0
 44
0.0
 50
0.0
 51
0.0
 71
     0
 72
   100
 73
     1
 74
     3
 75
     0
 76
     0
 77
     0
 78
     0
  0
ENDTAB
  0
TABLE
  2
LTYPE
  5
69
330
0
100
AcDbSymbolTable
 70
     4
  0
LTYPE
  5
6A
330
69
100
AcDbSymbolTableRecord
100
AcDbLinetypeTableRecord
  2
BYBLOCK
 70
     0
  3

 72
    65
 73
     0
 40
0.0
  0
LTYPE
  5
6B
330
69
100
AcDbSymbolTableRecord
100
AcDbLinetypeTableRecord
  2
BYLAYER
 70
     0
  3

 72
    65
 73
     0
 40
0.0
  0
LTYPE
  5
8
330
69
100
AcDbSymbolTableRecord
100
AcDbLinetypeTableRecord
  2
CONTINUOUS
 70
     0
  3
Solid line
 72
    65
 73
     0
 40
0.0
  0
LTYPE
  5
27C
330
69
100
AcDbSymbolTableRecord
100
AcDbLinetypeTableRecord
  2
SEKKEI_A2_
 70
     0
  3
center(A2)  ____ _ ____ _ ____ _ ____ _ ____ _ 
 72
    65
 73
     4
 40
14.28749999999999
 49
9.525
 74
     0
 49
-1.587499999999999
 74
     0
 49
1.587499999999999
 74
     0
 49
-1.587499999999999
 74
     0
  0
LTYPE
  5
2B4
330
69
100
AcDbSymbolTableRecord
100
AcDbLinetypeTableRecord
  2
HIDDEN2
 70
     0
  3
Hidden (.5x) _ _ _ _ _ _ _ _ _ _ _ _ _ _ _ _ _
 72
    65
 73
     2
 40
4.762499999999999
 49
3.174999999999999
 74
     0
 49
-1.587499999999999
 74
     0
  0
LTYPE
  5
48F
330
69
100
AcDbSymbolTableRecord
100
AcDbLinetypeTableRecord
  2
SEKKEI_H
 70
     0
  3
Hidden-S _ _ _ _ _ _ _ _ _ _ _ _ _ _ _ _ _
 72
    65
 73
     2
 40
2.381249999999999
 49
1.587499999999999
 74
     0
 49
-0.79375
 74
     0
  0
ENDTAB
  0
TABLE
  2
LAYER
  5
66
330
0
100
AcDbSymbolTable
 70
     8
  0
LAYER
  5
5E
330
66
100
AcDbSymbolTableRecord
100
AcDbLayerTableRecord
  2
0
 70
     0
 62
     7
  6
CONTINUOUS
  0
LAYER
  5
3E
330
66
100
AcDbSymbolTableRecord
100
AcDbLayerTableRecord
  2
CENTER
 70
     0
 62
     3
  6
SEKKEI_A2_
  0
LAYER
  5
2B5
330
66
100
AcDbSymbolTableRecord
100
AcDbLayerTableRecord
  2
HIDS
 70
     0
 62
     1
  6
HIDDEN2
  0
LAYER
  5
3FA
330
66
100
AcDbSymbolTableRecord
100
AcDbLayerTableRecord
  2
TITLE
 70
     0
 62
     4
  6
CONTINUOUS
  0
ENDTAB
  0
TABLE
  2
STYLE
  5
67
330
0
100
AcDbSymbolTable
 70
     1
  0
STYLE
  5
16
330
67
100
AcDbSymbolTableRecord
100
AcDbTextStyleTableRecord
  2
STANDARD
 70
     0
 40
0.0
 41
1.0
 50
0.0
 71
     0
 42
2.0
  3
simplex.shx
  4
extfont.shx
  0
ENDTAB
  0
TABLE
  2
VIEW
  5
6C
330
0
100
AcDbSymbolTable
 70
     0
  0
ENDTAB
  0
TABLE
  2
UCS
  5
6D
330
0
100
AcDbSymbolTable
 70
     0
  0
ENDTAB
  0
TABLE
  2
APPID
  5
70
330
0
100
AcDbSymbolTable
 70
     1
  0
APPID
  5
71
330
70
100
AcDbSymbolTableRecord
100
AcDbRegAppTableRecord
  2
ACAD
 70
     0
  0
ENDTAB
  0
TABLE
  2
DIMSTYLE
  5
72
330
0
100
AcDbSymbolTable
 70
     2
  0
DIMSTYLE
105
73
330
72
100
AcDbSymbolTableRecord
100
AcDbDimStyleTableRecord
  2
STANDARD
 70
     0
  3

  4

  5

  6

  7

 40
2.0
 41
1.8
 42
0.625
 43
3.75
 44
0.8
 45
0.0
 46
0.0
 47
0.0
 48
0.0
140
1.8
141
2.5
142
0.0
143
0.0394
144
1.0
145
0.0
146
1.0
147
0.75
 71
     0
 72
     0
 73
     0
 74
     0
 75
     0
 76
     0
 77
     1
 78
     8
170
     0
171
     4
172
     1
173
     0
174
     0
175
     0
176
     0
177
     0
178
     0
270
     8
271
     2
272
     2
273
     8
274
     4
340
16
275
     0
280
     0
281
     0
282
     0
283
     1
284
     0
285
     0
286
     0
287
     3
288
     0
  0
ENDTAB
  0
TABLE
  2
BLOCK_RECORD
  5
1
330
0
100
AcDbSymbolTable
 70
    66
  0
BLOCK_RECORD
  5
2
102
{ACAD_XDICTIONARY
360
2540
102
}
330
1
100
AcDbSymbolTableRecord
100
AcDbBlockTableRecord
  2
*MODEL_SPACE
  0
BLOCK_RECORD
  5
2519
102
{ACAD_XDICTIONARY
360
2542
102
}
330
1
100
AcDbSymbolTableRecord
100
AcDbBlockTableRecord
  2
*PAPER_SPACE
  0
ENDTAB
  0
ENDSEC
  0
SECTION
  2
BLOCKS
  0
BLOCK
  5
5D
330
2
100
AcDbEntity
  8
0
100
AcDbBlockBegin
  2
*MODEL_SPACE
 70
     0
 10
0.0
 20
0.0
 30
0.0
  3
*MODEL_SPACE
  1

  0
ENDBLK
  5
5F
330
2
100
AcDbEntity
  8
0
100
AcDbBlockEnd
  0
BLOCK
  5
251B
330
2519
100
AcDbEntity
 67
     1
  8
0
100
AcDbBlockBegin
  2
*PAPER_SPACE
 70
     0
 10
0.0
 20
0.0
 30
0.0
  3
*PAPER_SPACE
  1

  0
ENDBLK
  5
251C
330
2519
100
AcDbEntity
 67
     1
  8
0
100
AcDbBlockEnd
  0
ENDSEC
  0
SECTION
  2
ENTITIES
  0
TEXT
  5
5FB
330
2
100
AcDbEntity
  8
TITLE
100
AcDbText
 10
241.295934652656
 20
310.7373255896312
 30
0.0
 40
5.0
  1
HLM-15L-10~240-T15T
 41
0.8
100
AcDbText
  0
ARC
  5
5FC
330
2
100
AcDbEntity
  8
0
100
AcDbCircle
 10
319.1969186544389
 20
90.02299554773975
 30
0.0
 40
38.0
100
AcDbArc
 50
324.7998999999996
 51
21.29424099999966
  0
ARC
  5
5FD
330
2
100
AcDbEntity
  8
0
100
AcDbCircle
 10
319.1969186544389
 20
90.02299554773975
 30
0.0
 40
38.0
100
AcDbArc
 50
157.0805049999997
 51
215.3343960000001
  0
LINE
  5
5FE
330
2
100
AcDbEntity
  8
0
100
AcDbLine
 10
350.196918654439
 20
58.32299654773976
 30
0.0
 11
350.196918654439
 21
142.4165045477397
 31
0.0
  0
LINE
  5
5FF
330
2
100
AcDbEntity
  8
0
100
AcDbLine
 10
288.1969306544389
 20
58.32299654773976
 30
0.0
 11
288.196918654439
 21
142.4163975477397
 31
0.0
  0
LINE
  5
600
330
2
100
AcDbEntity
  8
CENTER
100
AcDbLine
 10
319.1969186544389
 20
40.32299554773977
 30
0.0
 11
319.1969186544389
 21
165.9104925477397
 31
0.0
  0
LINE
  5
601
330
2
100
AcDbEntity
  8
CENTER
100
AcDbLine
 10
274.196918654439
 20
90.02299554773975
 30
0.0
 11
364.196918654439
 21
90.02299554773975
 31
0.0
  0
LINE
  5
602
330
2
100
AcDbEntity
  8
0
100
AcDbLine
 10
272.196919654439
 20
47.32299554773976
 30
0.0
 11
366.196918654439
 21
47.32299554773976
 31
0.0
  0
LINE
  5
603
330
2
100
AcDbEntity
  8
HIDS
  6
SEKKEI_H
100
AcDbLine
 10
275.946919654439
 20
55.32299654773976
 30
0.0
 11
275.946919654439
 21
47.32299554773976
 31
0.0
  0
LINE
  5
604
330
2
100
AcDbEntity
  8
HIDS
  6
SEKKEI_H
100
AcDbLine
 10
282.446919654439
 20
55.32299654773976
 30
0.0
 11
282.446919654439
 21
47.32299554773976
 31
0.0
  0
LINE
  5
605
330
2
100
AcDbEntity
  8
CENTER
100
AcDbLine
 10
279.196919654439
 20
58.82299654773976
 30
0.0
 11
279.196919654439
 21
43.82299554773976
 31
0.0
  0
LINE
  5
606
330
2
100
AcDbEntity
  8
0
100
AcDbLine
 10
272.196919654439
 20
53.32299554773976
 30
0.0
 11
272.196919654439
 21
47.32299554773976
 31
0.0
  0
LINE
  5
607
330
2
100
AcDbEntity
  8
0
100
AcDbLine
 10
285.1969376544389
 20
55.32299654773976
 30
0.0
 11
274.196919654439
 21
55.32299654773976
 31
0.0
  0
ARC
  5
608
330
2
100
AcDbEntity
  8
0
100
AcDbCircle
 10
274.1969306544389
 20
53.32300554773977
 30
0.0
 40
2.0
100
AcDbArc
 50
90.0
 51
180.0
  0
ARC
  5
609
330
2
100
AcDbEntity
  8
0
100
AcDbCircle
 10
285.1969306544389
 20
58.32299654773976
 30
0.0
 40
3.0
100
AcDbArc
 50
270.0
 51
0.0
  0
LINE
  5
60A
330
2
100
AcDbEntity
  8
HIDS
  6
SEKKEI_H
100
AcDbLine
 10
355.946918654439
 20
55.32299654773976
 30
0.0
 11
355.946918654439
 21
47.32299554773976
 31
0.0
  0
LINE
  5
60B
330
2
100
AcDbEntity
  8
HIDS
  6
SEKKEI_H
100
AcDbLine
 10
362.446918654439
 20
55.32299654773976
 30
0.0
 11
362.446918654439
 21
47.32299554773976
 31
0.0
  0
LINE
  5
60C
330
2
100
AcDbEntity
  8
CENTER
100
AcDbLine
 10
359.1969186544389
 20
58.82299654773976
 30
0.0
 11
359.1969186544389
 21
43.82299554773976
 31
0.0
  0
LINE
  5
60D
330
2
100
AcDbEntity
  8
0
100
AcDbLine
 10
366.196918654439
 20
53.32299554773976
 30
0.0
 11
366.196918654439
 21
47.32299554773976
 31
0.0
  0
ARC
  5
60E
330
2
100
AcDbEntity
  8
0
100
AcDbCircle
 10
353.196918654439
 20
58.32299654773976
 30
0.0
 40
3.0
100
AcDbArc
 50
180.0
 51
270.0
  0
LINE
  5
60F
330
2
100
AcDbEntity
  8
0
100
AcDbLine
 10
353.196918654439
 20
55.32299654773976
 30
0.0
 11
364.196918654439
 21
55.32299654773976
 31
0.0
  0
ARC
  5
610
330
2
100
AcDbEntity
  8
0
100
AcDbCircle
 10
364.196941654439
 20
53.32298554773976
 30
0.0
 40
2.0
100
AcDbArc
 50
0.0
 51
90.0
  0
LINE
  5
611
330
2
100
AcDbEntity
  8
0
100
AcDbLine
 10
289.5887286544389
 20
125.6230085477397
 30
0.0
 11
348.838695654439
 21
125.6230085477397
 31
0.0
  0
LINE
  5
612
330
2
100
AcDbEntity
  8
0
100
AcDbLine
 10
348.231815654439
 20
144.4162065477397
 30
0.0
 11
319.1969186544389
 21
144.9230045477397
 31
0.0
  0
LINE
  5
613
330
2
100
AcDbEntity
  8
CENTER
100
AcDbLine
 10
277.196919654439
 20
112.3229985477397
 30
0.0
 11
390.1969186544389
 21
112.3229985477397
 31
0.0
  0
LINE
  5
614
330
2
100
AcDbEntity
  8
0
100
AcDbLine
 10
284.1969196544389
 20
93.32299454773977
 30
0.0
 11
284.1969196544389
 21
131.3229985477397
 31
0.0
  0
LINE
  5
615
330
2
100
AcDbEntity
  8
0
100
AcDbLine
 10
285.196918654439
 20
92.32299454773977
 30
0.0
 11
286.2009186524148
 21
92.32299454773977
 31
0.0
  0
ARC
  5
616
330
2
100
AcDbEntity
  8
0
100
AcDbCircle
 10
285.196918654439
 20
93.32299054773974
 30
0.0
 40
1.0
100
AcDbArc
 50
180.0
 51
270.0
  0
LINE
  5
617
330
2
100
AcDbEntity
  8
0
100
AcDbLine
 10
285.196918654439
 20
132.3229985477397
 30
0.0
 11
286.1969186544388
 21
132.3229985477397
 31
0.0
  0
ARC
  5
618
330
2
100
AcDbEntity
  8
0
100
AcDbCircle
 10
285.196918654439
 20
131.3229985477397
 30
0.0
 40
1.0
100
AcDbArc
 50
90.0
 51
180.0
  0
LINE
  5
619
330
2
100
AcDbEntity
  8
0
100
AcDbLine
 10
290.1620086544389
 20
144.4160925477397
 30
0.0
 11
319.1969186544389
 21
144.9230045477397
 31
0.0
  0
ARC
  5
61A
330
2
100
AcDbEntity
  8
0
100
AcDbCircle
 10
290.1969306544389
 20
142.4164045477397
 30
0.0
 40
2.0
100
AcDbArc
 50
91.00064099999967
 51
180.0
  0
LINE
  5
61B
330
2
100
AcDbEntity
  8
0
100
AcDbLine
 10
383.196918654439
 20
109.8229985477397
 30
0.0
 11
361.696941654439
 21
109.8229985477397
 31
0.0
  0
LINE
  5
61C
330
2
100
AcDbEntity
  8
0
100
AcDbLine
 10
383.196918654439
 20
114.8229985477397
 30
0.0
 11
361.696895654439
 21
114.8229985477397
 31
0.0
  0
LINE
  5
61D
330
2
100
AcDbEntity
  8
0
100
AcDbLine
 10
383.196918654439
 20
104.8229985477397
 30
0.0
 11
356.196918654439
 21
104.8229985477397
 31
0.0
  0
LINE
  5
61E
330
2
100
AcDbEntity
  8
0
100
AcDbLine
 10
383.196918654439
 20
119.8229985477397
 30
0.0
 11
356.196918654439
 21
119.8229985477397
 31
0.0
  0
ARC
  5
61F
330
2
100
AcDbEntity
  8
0
100
AcDbCircle
 10
361.696895654439
 20
112.3229825477397
 30
0.0
 40
2.5
100
AcDbArc
 50
90.0
 51
180.0
  0
LINE
  5
620
330
2
100
AcDbEntity
  8
0
100
AcDbLine
 10
356.196918654439
 20
120.8229985477397
 30
0.0
 11
356.196918654439
 21
103.8229985477397
 31
0.0
  0
LINE
  5
621
330
2
100
AcDbEntity
  8
0
100
AcDbLine
 10
354.196918654439
 20
93.32299454773977
 30
0.0
 11
354.196918654439
 21
131.3229985477397
 31
0.0
  0
LINE
  5
622
330
2
100
AcDbEntity
  8
0
100
AcDbLine
 10
353.196918654439
 20
92.32299454773977
 30
0.0
 11
352.1929186564631
 21
92.32299454773977
 31
0.0
  0
ARC
  5
623
330
2
100
AcDbEntity
  8
0
100
AcDbCircle
 10
353.196918654439
 20
93.32299054773974
 30
0.0
 40
1.0
100
AcDbArc
 50
270.0
 51
0.0
  0
ARC
  5
624
330
2
100
AcDbEntity
  8
0
100
AcDbCircle
 10
361.696918654439
 20
112.3229985477397
 30
0.0
 40
2.5
100
AcDbArc
 50
180.0
 51
270.0
  0
LINE
  5
625
330
2
100
AcDbEntity
  8
0
100
AcDbLine
 10
354.196918654439
 20
103.8229985477397
 30
0.0
 11
356.196918654439
 21
103.8229985477397
 31
0.0
  0
LINE
  5
626
330
2
100
AcDbEntity
  8
0
100
AcDbLine
 10
353.196918654439
 20
132.3229985477397
 30
0.0
 11
352.1969186544391
 21
132.3229985477397
 31
0.0
  0
LINE
  5
627
330
2
100
AcDbEntity
  8
0
100
AcDbLine
 10
354.196918654439
 20
120.8229985477397
 30
0.0
 11
356.196918654439
 21
120.8229985477397
 31
0.0
  0
ARC
  5
628
330
2
100
AcDbEntity
  8
0
100
AcDbCircle
 10
353.196918654439
 20
131.3229985477397
 30
0.0
 40
1.0
100
AcDbArc
 50
0.0
 51
90.0
  0
LINE
  5
629
330
2
100
AcDbEntity
  8
0
100
AcDbLine
 10
383.196918654439
 20
119.8229985477397
 30
0.0
 11
383.196918654439
 21
104.8229985477397
 31
0.0
  0
ARC
  5
62A
330
2
100
AcDbEntity
  8
0
100
AcDbCircle
 10
348.1969266544389
 20
142.4165045477397
 30
0.0
 40
2.0
100
AcDbArc
 50
0.0
 51
89.00013700000007
  0
LINE
  5
62B
330
2
100
AcDbEntity
  8
0
100
AcDbLine
 10
525.9594493238041
 20
59.77399454773976
 30
0.0
 11
597.7482373238039
 21
59.77399454773976
 31
0.0
  0
LINE
  5
62C
330
2
100
AcDbEntity
  8
0
100
AcDbLine
 10
525.632346323804
 20
120.2719955477397
 30
0.0
 11
597.7482373238039
 21
120.2719955477397
 31
0.0
  0
LINE
  5
62D
330
2
100
AcDbEntity
  8
0
100
AcDbLine
 10
597.7482373238039
 20
52.02299554773976
 30
0.0
 11
525.248252323804
 21
52.02299554773976
 31
0.0
  0
LINE
  5
62E
330
2
100
AcDbEntity
  8
0
100
AcDbLine
 10
597.7482373238039
 20
128.0229955477397
 30
0.0
 11
521.8285443238041
 21
128.0229955477397
 31
0.0
  0
LINE
  5
62F
330
2
100
AcDbEntity
  8
CENTER
100
AcDbLine
 10
625.248237323804
 20
90.02299554773975
 30
0.0
 11
509.5655433238041
 21
90.02299554773975
 31
0.0
  0
LINE
  5
630
330
2
100
AcDbEntity
  8
CENTER
100
AcDbLine
 10
482.7482523238041
 20
151.9229965477397
 30
0.0
 11
482.7482523238041
 21
40.32299554773977
 31
0.0
  0
LINE
  5
631
330
2
100
AcDbEntity
  8
0
100
AcDbLine
 10
525.248252323804
 20
123.0235975477397
 30
0.0
 11
525.248252323804
 21
47.32299554773976
 31
0.0
  0
LINE
  5
632
330
2
100
AcDbEntity
  8
0
100
AcDbLine
 10
440.2482523238041
 20
123.0235755477397
 30
0.0
 11
440.2482523238041
 21
47.32299554773976
 31
0.0
  0
LINE
  5
633
330
2
100
AcDbEntity
  8
0
100
AcDbLine
 10
479.560752323804
 20
85.88549454773977
 30
0.0
 11
485.935752323804
 21
85.88549454773977
 31
0.0
  0
LINE
  5
634
330
2
100
AcDbEntity
  8
0
100
AcDbLine
 10
479.560752323804
 20
83.89330654773976
 30
0.0
 11
480.268348323804
 21
83.89330654773976
 31
0.0
  0
LINE
  5
635
330
2
100
AcDbEntity
  8
0
100
AcDbLine
 10
523.248252323804
 20
55.32299654773976
 30
0.0
 11
442.248252323804
 21
55.32299654773976
 31
0.0
  0
LINE
  5
636
330
2
100
AcDbEntity
  8
0
100
AcDbLine
 10
525.248252323804
 20
47.32299554773976
 30
0.0
 11
440.2482523238041
 21
47.32299554773976
 31
0.0
  0
LINE
  5
637
330
2
100
AcDbEntity
  8
HIDS
  6
SEKKEI_H
100
AcDbLine
 10
451.9982523238041
 20
55.32299654773976
 30
0.0
 11
451.9982523238041
 21
47.32299554773976
 31
0.0
  0
LINE
  5
638
330
2
100
AcDbEntity
  8
HIDS
  6
SEKKEI_H
100
AcDbLine
 10
445.498252323804
 20
55.32299654773976
 30
0.0
 11
445.498252323804
 21
47.32299554773976
 31
0.0
  0
LINE
  5
639
330
2
100
AcDbEntity
  8
CENTER
100
AcDbLine
 10
448.7482523238041
 20
58.82299654773976
 30
0.0
 11
448.7482523238039
 21
43.82299554773976
 31
0.0
  0
ARC
  5
63A
330
2
100
AcDbEntity
  8
0
100
AcDbCircle
 10
442.248252323804
 20
53.32298554773976
 30
0.0
 40
2.0
100
AcDbArc
 50
90.0
 51
180.0
  0
LINE
  5
63B
330
2
100
AcDbEntity
  8
0
100
AcDbLine
 10
475.451850323804
 20
80.83031454773976
 30
0.0
 11
475.451850323804
 21
79.43577554773975
 31
0.0
  0
LINE
  5
63C
330
2
100
AcDbEntity
  8
0
100
AcDbLine
 10
475.451850323804
 20
79.83422454773975
 30
0.0
 11
475.451850323804
 21
80.63109654773976
 31
0.0
  0
LINE
  5
63D
330
2
100
AcDbEntity
  8
0
100
AcDbLine
 10
471.069053323804
 20
83.72297354773976
 30
0.0
 11
471.069053323804
 21
78.21390554773976
 31
0.0
  0
LINE
  5
63E
330
2
100
AcDbEntity
  8
0
100
AcDbLine
 10
469.998252323804
 20
84.40349254773975
 30
0.0
 11
469.998252323804
 21
77.56384654773976
 31
0.0
  0
LINE
  5
63F
330
2
100
AcDbEntity
  8
0
100
AcDbLine
 10
476.373252323804
 20
81.87621354773975
 30
0.0
 11
476.373252323804
 21
76.32299454773977
 31
0.0
  0
LINE
  5
640
330
2
100
AcDbEntity
  8
0
100
AcDbLine
 10
471.2280493238041
 20
76.32299454773977
 30
0.0
 11
474.5433423238041
 21
76.32299454773977
 31
0.0
  0
LINE
  5
641
330
2
100
AcDbEntity
  8
0
100
AcDbLine
 10
471.069053323804
 20
78.21390554773976
 30
0.0
 11
471.800346323804
 21
77.44359654773976
 31
0.0
  0
LINE
  5
642
330
2
100
AcDbEntity
  8
0
100
AcDbLine
 10
469.998252323804
 20
77.56384654773976
 30
0.0
 11
471.2280493238041
 21
76.32299454773977
 31
0.0
  0
LINE
  5
643
330
2
100
AcDbEntity
  8
0
100
AcDbLine
 10
475.451850323804
 20
76.32299454773977
 30
0.0
 11
476.373252323804
 21
76.32299454773977
 31
0.0
  0
LINE
  5
644
330
2
100
AcDbEntity
  8
0
100
AcDbLine
 10
475.451850323804
 20
77.08525454773976
 30
0.0
 11
474.5433423238041
 21
76.32299454773977
 31
0.0
  0
LINE
  5
645
330
2
100
AcDbEntity
  8
0
100
AcDbLine
 10
475.451850323804
 20
77.08525454773976
 30
0.0
 11
475.451850323804
 21
76.32299454773977
 31
0.0
  0
ARC
  5
646
330
2
100
AcDbEntity
  8
0
100
AcDbCircle
 10
473.459647323804
 20
79.43577554773975
 30
0.0
 40
1.992186999999999
100
AcDbArc
 50
270.0002139999998
 51
0.0001089999998967
  0
LINE
  5
647
330
2
100
AcDbEntity
  8
0
100
AcDbLine
 10
473.459647323804
 20
77.44359654773976
 30
0.0
 11
471.800346323804
 21
77.44359654773976
 31
0.0
  0
LINE
  5
648
330
2
100
AcDbEntity
  8
0
100
AcDbLine
 10
471.155646323804
 20
85.88549454773977
 30
0.0
 11
475.4422523238041
 21
85.88549454773977
 31
0.0
  0
LINE
  5
649
330
2
100
AcDbEntity
  8
0
100
AcDbLine
 10
471.788856323804
 20
84.61547454773976
 30
0.0
 11
471.069053323804
 21
83.72297354773976
 31
0.0
  0
LINE
  5
64A
330
2
100
AcDbEntity
  8
0
100
AcDbLine
 10
471.155646323804
 20
85.88549454773977
 30
0.0
 11
469.998252323804
 21
84.40349254773975
 31
0.0
  0
LINE
  5
64B
330
2
100
AcDbEntity
  8
0
100
AcDbLine
 10
473.783454323804
 20
81.87621354773975
 30
0.0
 11
476.373252323804
 21
81.87621354773975
 31
0.0
  0
LINE
  5
64C
330
2
100
AcDbEntity
  8
0
100
AcDbLine
 10
475.451850323804
 20
83.89330654773976
 30
0.0
 11
476.373252323804
 21
83.89330654773976
 31
0.0
  0
LINE
  5
64D
330
2
100
AcDbEntity
  8
0
100
AcDbLine
 10
475.4422523238041
 20
85.88549454773977
 30
0.0
 11
476.373252323804
 21
84.85235254773977
 31
0.0
  0
LINE
  5
64E
330
2
100
AcDbEntity
  8
0
100
AcDbLine
 10
475.451850323804
 20
84.04402554773975
 30
0.0
 11
475.451850323804
 21
83.89330654773976
 31
0.0
  0
LINE
  5
64F
330
2
100
AcDbEntity
  8
0
100
AcDbLine
 10
473.783454323804
 20
81.87621354773975
 30
0.0
 11
473.783454323804
 21
80.83031454773976
 31
0.0
  0
LINE
  5
650
330
2
100
AcDbEntity
  8
0
100
AcDbLine
 10
475.451850323804
 20
80.83031454773976
 30
0.0
 11
473.783454323804
 21
80.83031454773976
 31
0.0
  0
LINE
  5
651
330
2
100
AcDbEntity
  8
0
100
AcDbLine
 10
475.451850323804
 20
84.04402554773975
 30
0.0
 11
474.848655323804
 21
84.61547454773976
 31
0.0
  0
LINE
  5
652
330
2
100
AcDbEntity
  8
0
100
AcDbLine
 10
474.860755323804
 20
84.61547454773976
 30
0.0
 11
471.788856323804
 21
84.61547454773976
 31
0.0
  0
LINE
  5
653
330
2
100
AcDbEntity
  8
0
100
AcDbLine
 10
476.373252323804
 20
84.85235254773977
 30
0.0
 11
476.373252323804
 21
83.89330654773976
 31
0.0
  0
LINE
  5
654
330
2
100
AcDbEntity
  8
0
100
AcDbLine
 10
479.560752323804
 20
83.89330654773976
 30
0.0
 11
479.560752323804
 21
85.88549454773977
 31
0.0
  0
LINE
  5
655
330
2
100
AcDbEntity
  8
HIDS
  6
SEKKEI_H
100
AcDbLine
 10
519.998252323804
 20
55.32299654773976
 30
0.0
 11
519.998252323804
 21
47.32299554773976
 31
0.0
  0
LINE
  5
656
330
2
100
AcDbEntity
  8
HIDS
  6
SEKKEI_H
100
AcDbLine
 10
513.4982523238041
 20
55.32299654773976
 30
0.0
 11
513.4982523238041
 21
47.32299554773976
 31
0.0
  0
LINE
  5
657
330
2
100
AcDbEntity
  8
CENTER
100
AcDbLine
 10
516.7482523238038
 20
58.82299654773976
 30
0.0
 11
516.7482523238041
 21
43.82299554773976
 31
0.0
  0
LINE
  5
658
330
2
100
AcDbEntity
  8
0
100
AcDbLine
 10
492.7325513238041
 20
80.79296154773976
 30
0.0
 11
494.227653323804
 21
77.31908454773975
 31
0.0
  0
LINE
  5
659
330
2
100
AcDbEntity
  8
0
100
AcDbLine
 10
493.6500463238041
 20
80.87960854773976
 30
0.0
 11
495.2299423238041
 21
77.31908454773975
 31
0.0
  0
LINE
  5
65A
330
2
100
AcDbEntity
  8
0
100
AcDbLine
 10
490.692054323804
 20
80.79296154773976
 30
0.0
 11
490.692054323804
 21
77.31908454773975
 31
0.0
  0
LINE
  5
65B
330
2
100
AcDbEntity
  8
0
100
AcDbLine
 10
489.596351323804
 20
84.71508454773976
 30
0.0
 11
489.596351323804
 21
77.31908454773975
 31
0.0
  0
LINE
  5
65C
330
2
100
AcDbEntity
  8
0
100
AcDbLine
 10
483.321052323804
 20
84.71508454773976
 30
0.0
 11
483.321052323804
 21
77.36888554773975
 31
0.0
  0
LINE
  5
65D
330
2
100
AcDbEntity
  8
0
100
AcDbLine
 10
482.1256483238041
 20
84.71508454773976
 30
0.0
 11
482.1256483238041
 21
77.36888554773975
 31
0.0
  0
LINE
  5
65E
330
2
100
AcDbEntity
  8
0
100
AcDbLine
 10
481.6525493238041
 20
77.36888554773975
 30
0.0
 11
482.1256483238041
 21
77.36888554773975
 31
0.0
  0
LINE
  5
65F
330
2
100
AcDbEntity
  8
0
100
AcDbLine
 10
481.6525493238041
 20
76.32299454773977
 30
0.0
 11
483.7194433238041
 21
76.32299454773977
 31
0.0
  0
LINE
  5
660
330
2
100
AcDbEntity
  8
0
100
AcDbLine
 10
483.7194433238041
 20
77.36888554773975
 30
0.0
 11
483.7194433238041
 21
76.32299454773977
 31
0.0
  0
LINE
  5
661
330
2
100
AcDbEntity
  8
0
100
AcDbLine
 10
481.6525493238041
 20
77.36888554773975
 30
0.0
 11
481.6525493238041
 21
76.32299454773977
 31
0.0
  0
LINE
  5
662
330
2
100
AcDbEntity
  8
0
100
AcDbLine
 10
483.321052323804
 20
77.36888554773975
 30
0.0
 11
483.7194433238041
 21
77.36888554773975
 31
0.0
  0
LINE
  5
663
330
2
100
AcDbEntity
  8
0
100
AcDbLine
 10
489.123252323804
 20
77.31908454773975
 30
0.0
 11
489.123252323804
 21
76.32299454773977
 31
0.0
  0
LINE
  5
664
330
2
100
AcDbEntity
  8
0
100
AcDbLine
 10
491.1278453238041
 20
77.31908454773975
 30
0.0
 11
491.1278453238041
 21
76.32299454773977
 31
0.0
  0
LINE
  5
665
330
2
100
AcDbEntity
  8
0
100
AcDbLine
 10
491.1278453238041
 20
76.32299454773977
 30
0.0
 11
489.123252323804
 21
76.32299454773977
 31
0.0
  0
LINE
  5
666
330
2
100
AcDbEntity
  8
0
100
AcDbLine
 10
490.692054323804
 20
77.31908454773975
 30
0.0
 11
491.1278453238041
 21
77.31908454773975
 31
0.0
  0
LINE
  5
667
330
2
100
AcDbEntity
  8
0
100
AcDbLine
 10
489.123252323804
 20
77.31908454773975
 30
0.0
 11
489.596351323804
 21
77.31908454773975
 31
0.0
  0
LINE
  5
668
330
2
100
AcDbEntity
  8
0
100
AcDbLine
 10
494.0290443238041
 20
77.31908454773975
 30
0.0
 11
494.0290443238041
 21
76.32299454773977
 31
0.0
  0
LINE
  5
669
330
2
100
AcDbEntity
  8
0
100
AcDbLine
 10
495.498252323804
 20
77.31908454773975
 30
0.0
 11
495.498252323804
 21
76.32299454773977
 31
0.0
  0
LINE
  5
66A
330
2
100
AcDbEntity
  8
0
100
AcDbLine
 10
494.0290443238041
 20
76.32299454773977
 30
0.0
 11
495.498252323804
 21
76.32299454773977
 31
0.0
  0
LINE
  5
66B
330
2
100
AcDbEntity
  8
0
100
AcDbLine
 10
495.2299423238041
 20
77.31908454773975
 30
0.0
 11
495.498252323804
 21
77.31908454773975
 31
0.0
  0
LINE
  5
66C
330
2
100
AcDbEntity
  8
0
100
AcDbLine
 10
494.0290443238041
 20
77.31908454773975
 30
0.0
 11
494.227653323804
 21
77.31908454773975
 31
0.0
  0
LINE
  5
66D
330
2
100
AcDbEntity
  8
0
100
AcDbLine
 10
483.321052323804
 20
84.71508454773976
 30
0.0
 11
484.982047323804
 21
84.71508454773976
 31
0.0
  0
LINE
  5
66E
330
2
100
AcDbEntity
  8
0
100
AcDbLine
 10
482.1256483238041
 20
84.71508454773976
 30
0.0
 11
480.610847323804
 21
84.71508454773976
 31
0.0
  0
LINE
  5
66F
330
2
100
AcDbEntity
  8
0
100
AcDbLine
 10
480.610847323804
 20
84.71508454773976
 30
0.0
 11
480.268348323804
 21
83.89330654773976
 31
0.0
  0
LINE
  5
670
330
2
100
AcDbEntity
  8
0
100
AcDbLine
 10
484.982047323804
 20
84.71508454773976
 30
0.0
 11
485.270744323804
 21
83.89330654773976
 31
0.0
  0
LINE
  5
671
330
2
100
AcDbEntity
  8
0
100
AcDbLine
 10
485.270744323804
 20
83.89330654773976
 30
0.0
 11
485.935752323804
 21
83.89330654773976
 31
0.0
  0
LINE
  5
672
330
2
100
AcDbEntity
  8
0
100
AcDbLine
 10
485.935752323804
 20
83.89330654773976
 30
0.0
 11
485.935752323804
 21
85.88549454773977
 31
0.0
  0
ARC
  5
673
330
2
100
AcDbEntity
  8
0
100
AcDbCircle
 10
492.945747323804
 20
83.33300454773976
 30
0.0
 40
2.55249
100
AcDbArc
 50
286.0181269999995
 51
90.00350999999964
  0
LINE
  5
674
330
2
100
AcDbEntity
  8
0
100
AcDbLine
 10
490.692054323804
 20
81.78882654773975
 30
0.0
 11
493.146751323804
 21
81.78882654773975
 31
0.0
  0
LINE
  5
675
330
2
100
AcDbEntity
  8
0
100
AcDbLine
 10
490.692054323804
 20
84.71508454773976
 30
0.0
 11
493.666953323804
 21
84.71314654773976
 31
0.0
  0
LINE
  5
676
330
2
100
AcDbEntity
  8
0
100
AcDbLine
 10
490.692054323804
 20
80.79296154773976
 30
0.0
 11
492.7325513238041
 21
80.79296154773976
 31
0.0
  0
LINE
  5
677
330
2
100
AcDbEntity
  8
0
100
AcDbLine
 10
489.123252323804
 20
84.71508454773976
 30
0.0
 11
489.596351323804
 21
84.71508454773976
 31
0.0
  0
LINE
  5
678
330
2
100
AcDbEntity
  8
0
100
AcDbLine
 10
490.692054323804
 20
84.71508454773976
 30
0.0
 11
490.692054323804
 21
81.78882654773975
 31
0.0
  0
LINE
  5
679
330
2
100
AcDbEntity
  8
0
100
AcDbLine
 10
489.123252323804
 20
85.88549454773977
 30
0.0
 11
489.123252323804
 21
84.71508454773976
 31
0.0
  0
LINE
  5
67A
330
2
100
AcDbEntity
  8
0
100
AcDbLine
 10
489.123252323804
 20
85.88549454773977
 30
0.0
 11
492.945747323804
 21
85.88549454773977
 31
0.0
  0
ARC
  5
67B
330
2
100
AcDbEntity
  8
0
100
AcDbCircle
 10
492.945747323804
 20
83.33300454773976
 30
0.0
 40
1.557193
100
AcDbArc
 50
277.4147260000004
 51
62.41184999999949
  0
ARC
  5
67C
330
2
100
AcDbEntity
  8
0
100
AcDbCircle
 10
523.248252323804
 20
53.32300554773977
 30
0.0
 40
2.0
100
AcDbArc
 50
0.0
 51
90.0
  0
CIRCLE
  5
67D
330
2
100
AcDbEntity
  8
0
100
AcDbCircle
 10
482.7482523238041
 20
112.3229985477397
 30
0.0
 40
20.0
  0
ARC
  5
67E
330
2
100
AcDbEntity
  8
0
100
AcDbCircle
 10
482.7482523238041
 20
112.3229985477397
 30
0.0
 40
7.5
100
AcDbArc
 50
199.4712070000002
 51
160.5287929999997
  0
LINE
  5
67F
330
2
100
AcDbEntity
  8
0
100
AcDbLine
 10
496.168754323804
 20
144.9229965477397
 30
0.0
 11
469.327750323804
 21
144.9229965477397
 31
0.0
  0
LINE
  5
680
330
2
100
AcDbEntity
  8
CENTER
100
AcDbLine
 10
509.748252323804
 20
112.3229985477397
 30
0.0
 11
455.748252323804
 21
112.3229985477397
 31
0.0
  0
LINE
  5
681
330
2
100
AcDbEntity
  8
0
100
AcDbLine
 10
442.375953323804
 20
127.1162565477397
 30
0.0
 11
466.4554513238041
 21
144.0156555477397
 31
0.0
  0
ARC
  5
682
330
2
100
AcDbEntity
  8
0
100
AcDbCircle
 10
445.2482523238041
 20
123.0235755477397
 30
0.0
 40
5.0
100
AcDbArc
 50
125.0615999999999
 51
180.0
  0
LINE
  5
683
330
2
100
AcDbEntity
  8
0
100
AcDbLine
 10
478.2482523238041
 20
109.8229985477397
 30
0.0
 11
478.2482523238041
 21
114.8229985477397
 31
0.0
  0
LINE
  5
684
330
2
100
AcDbEntity
  8
0
100
AcDbLine
 10
473.248252323804
 20
114.8229985477397
 30
0.0
 11
473.248252323804
 21
109.8229985477397
 31
0.0
  0
LINE
  5
685
330
2
100
AcDbEntity
  8
0
100
AcDbLine
 10
478.2482523238041
 20
109.8229985477397
 30
0.0
 11
473.248252323804
 21
109.8229985477397
 31
0.0
  0
LINE
  5
686
330
2
100
AcDbEntity
  8
0
100
AcDbLine
 10
478.2482523238041
 20
114.8229985477397
 30
0.0
 11
473.248252323804
 21
114.8229985477397
 31
0.0
  0
ARC
  5
687
330
2
100
AcDbEntity
  8
0
100
AcDbCircle
 10
469.327644323804
 20
139.9229895477397
 30
0.0
 40
5.0
100
AcDbArc
 50
90.0
 51
125.0615999999999
  0
LINE
  5
688
330
2
100
AcDbEntity
  8
0
100
AcDbLine
 10
523.1205513238039
 20
127.1162565477397
 30
0.0
 11
499.0410533238041
 21
144.0156485477397
 31
0.0
  0
ARC
  5
689
330
2
100
AcDbEntity
  8
0
100
AcDbCircle
 10
520.2482523238041
 20
123.0236135477397
 30
0.0
 40
5.0
100
AcDbArc
 50
0.0
 51
54.93769800000007
  0
ARC
  5
68A
330
2
100
AcDbEntity
  8
0
100
AcDbCircle
 10
496.168754323804
 20
139.9230045477397
 30
0.0
 40
5.0
100
AcDbArc
 50
54.93780099999962
 51
90.0
  0
LINE
  5
68B
330
2
100
AcDbEntity
  8
0
100
AcDbLine
 10
617.7482373238039
 20
55.02299554773975
 30
0.0
 11
617.7482373238039
 21
125.0229955477397
 31
0.0
  0
LINE
  5
68C
330
2
100
AcDbEntity
  8
0
100
AcDbLine
 10
618.2482373238039
 20
58.02299554773975
 30
0.0
 11
618.2482373238039
 21
122.0229955477397
 31
0.0
  0
LINE
  5
68D
330
2
100
AcDbEntity
  8
0
100
AcDbLine
 10
597.7482373238039
 20
52.02299554773976
 30
0.0
 11
597.7482373238039
 21
128.0229955477397
 31
0.0
  0
ARC
  5
68E
330
2
100
AcDbEntity
  8
0
100
AcDbCircle
 10
614.2841563238039
 20
55.02298554773978
 30
0.0
 40
3.0
100
AcDbArc
 50
270.0
 51
330.0003969999997
  0
LINE
  5
68F
330
2
100
AcDbEntity
  8
0
100
AcDbLine
 10
597.7482373238039
 20
59.77399454773976
 30
0.0
 11
616.166663323804
 21
59.77399454773976
 31
0.0
  0
LINE
  5
690
330
2
100
AcDbEntity
  8
0
100
AcDbLine
 10
614.2841563238039
 20
52.02299554773976
 30
0.0
 11
597.7482373238039
 21
52.02299554773976
 31
0.0
  0
LINE
  5
691
330
2
100
AcDbEntity
  8
0
100
AcDbLine
 10
616.8822393238039
 20
53.52300554773975
 30
0.0
 11
617.7482373238039
 21
55.02299554773975
 31
0.0
  0
LINE
  5
692
330
2
100
AcDbEntity
  8
0
100
AcDbLine
 10
618.2482373238039
 20
58.02299554773975
 30
0.0
 11
617.7482373238039
 21
57.52299554773975
 31
0.0
  0
ARC
  5
693
330
2
100
AcDbEntity
  8
0
100
AcDbCircle
 10
614.2841563238039
 20
125.0230025477397
 30
0.0
 40
3.0
100
AcDbArc
 50
29.99959900000014
 51
90.0
  0
LINE
  5
699
330
2
100
AcDbEntity
  8
0
100
AcDbLine
 10
616.166663323804
 20
120.2719955477397
 30
0.0
 11
597.7482373238039
 21
120.2719955477397
 31
0.0
  0
LINE
  5
69A
330
2
100
AcDbEntity
  8
0
100
AcDbLine
 10
614.2841563238039
 20
128.0229955477397
 30
0.0
 11
597.7482373238039
 21
128.0229955477397
 31
0.0
  0
LINE
  5
6A0
330
2
100
AcDbEntity
  8
0
100
AcDbLine
 10
618.2482373238039
 20
122.0229955477397
 30
0.0
 11
617.7482373238039
 21
122.5229955477397
 31
0.0
  0
LINE
  5
6A1
330
2
100
AcDbEntity
  8
0
100
AcDbLine
 10
616.8822393238039
 20
126.5229875477397
 30
0.0
 11
617.7482373238039
 21
125.0229955477397
 31
0.0
  0
LINE
  5
6A2
330
2
100
AcDbEntity
  8
0
100
AcDbLine
 10
98.80226031997597
 20
278.3505644746663
 30
0.0
 11
133.7221443199759
 21
278.3505644746663
 31
0.0
  0
LINE
  5
6A3
330
2
100
AcDbEntity
  8
0
100
AcDbLine
 10
57.80248131997587
 20
263.3505494746663
 30
0.0
 11
128.302466319976
 21
263.3505494746663
 31
0.0
  0
LINE
  5
6A4
330
2
100
AcDbEntity
  8
0
100
AcDbLine
 10
98.80245831997591
 20
324.3505644746663
 30
0.0
 11
133.7221443199759
 21
324.3505644746663
 31
0.0
  0
LINE
  5
6A5
330
2
100
AcDbEntity
  8
0
100
AcDbLine
 10
128.302466319976
 20
339.3505644746663
 30
0.0
 11
57.80248131997587
 21
339.3505644746663
 31
0.0
  0
LINE
  5
6A6
330
2
100
AcDbEntity
  8
CENTER
100
AcDbLine
 10
30.30248131997601
 20
301.3505644746663
 30
0.0
 11
222.3024663199758
 21
301.3505644746663
 31
0.0
  0
LINE
  5
6A7
330
2
100
AcDbEntity
  8
0
100
AcDbLine
 10
133.7221443199759
 20
280.3505644746663
 30
0.0
 11
133.7221443199759
 21
322.3508384746663
 31
0.0
  0
LINE
  5
6A8
330
2
100
AcDbEntity
  8
0
100
AcDbLine
 10
157.8024663199759
 20
330.3854614746663
 30
0.0
 11
157.8024663199759
 21
272.3156524746662
 31
0.0
  0
LINE
  5
6A9
330
2
100
AcDbEntity
  8
0
100
AcDbLine
 10
187.8024663199759
 20
330.3854614746663
 30
0.0
 11
187.8024663199759
 21
272.3156524746662
 31
0.0
  0
LINE
  5
6AA
330
2
100
AcDbEntity
  8
0
100
AcDbLine
 10
214.5335303199759
 20
257.2982114746662
 30
0.0
 11
215.3024663199758
 21
301.3505644746663
 31
0.0
  0
LINE
  5
6AB
330
2
100
AcDbEntity
  8
CENTER
100
AcDbLine
 10
172.8024663199759
 20
372.3505644746662
 30
0.0
 11
172.8024663199759
 21
247.3505494746663
 31
0.0
  0
LINE
  5
6AC
330
2
100
AcDbEntity
  8
0
100
AcDbLine
 10
164.3024663199759
 20
338.3505644746663
 30
0.0
 11
181.3024663199758
 21
338.3505644746663
 31
0.0
  0
LINE
  5
6AD
330
2
100
AcDbEntity
  8
0
100
AcDbLine
 10
165.302466319976
 20
365.3505644746662
 30
0.0
 11
182.3024663199759
 21
365.3505644746662
 31
0.0
  0
LINE
  5
6AE
330
2
100
AcDbEntity
  8
0
100
AcDbLine
 10
191.8024663199759
 20
336.3505644746663
 30
0.0
 11
153.8024663199759
 21
336.3505644746663
 31
0.0
  0
LINE
  5
6AF
330
2
100
AcDbEntity
  8
0
100
AcDbLine
 10
132.8089663199759
 20
332.3505644746663
 30
0.0
 11
212.7959663199758
 21
332.3505644746663
 31
0.0
  0
LINE
  5
6B0
330
2
100
AcDbEntity
  8
0
100
AcDbLine
 10
181.3024663199758
 20
338.3505644746663
 30
0.0
 11
181.3024663199758
 21
336.3505644746663
 31
0.0
  0
LINE
  5
6B2
330
2
100
AcDbEntity
  8
0
100
AcDbLine
 10
214.5335303199759
 20
345.4029174746663
 30
0.0
 11
215.3024663199758
 21
301.3505644746663
 31
0.0
  0
LINE
  5
6B3
330
2
100
AcDbEntity
  8
0
100
AcDbLine
 10
182.3024663199759
 20
348.3505644746662
 30
0.0
 11
211.5339883199758
 21
348.3505644746662
 31
0.0
  0
CIRCLE
  5
6B5
330
2
100
AcDbEntity
  8
0
100
AcDbCircle
 10
206.8024663199758
 20
341.3505644746663
 30
0.0
 40
3.25
  0
ARC
  5
6B6
330
2
100
AcDbEntity
  8
0
100
AcDbCircle
 10
211.5339883199758
 20
345.3505644746663
 30
0.0
 40
3.0
100
AcDbArc
 50
1.000000000000156
 51
90.0
  0
LINE
  5
6B7
330
2
100
AcDbEntity
  8
0
100
AcDbLine
 10
179.8734653199758
 20
341.3505644746662
 30
0.0
 11
179.8734653199759
 21
365.3505644746662
 31
0.0
  0
LINE
  5
6B8
330
2
100
AcDbEntity
  8
0
100
AcDbLine
 10
182.3024663199759
 20
341.3505644746662
 30
0.0
 11
182.3024663199759
 21
365.3505644746662
 31
0.0
  0
LINE
  5
6B9
330
2
100
AcDbEntity
  8
0
100
AcDbLine
 10
180.3024663199759
 20
341.3505644746662
 30
0.0
 11
180.3024663199759
 21
338.3505644746663
 31
0.0
  0
LINE
  5
6BA
330
2
100
AcDbEntity
  8
0
100
AcDbLine
 10
179.8734653199758
 20
341.3505644746662
 30
0.0
 11
182.3024663199759
 21
341.3505644746662
 31
0.0
  0
ARC
  5
6BB
330
2
100
AcDbEntity
  8
0
100
AcDbCircle
 10
212.7959663199758
 20
330.3505644746663
 30
0.0
 40
2.0
100
AcDbArc
 50
1.000000000000156
 51
90.0
  0
ARC
  5
6BC
330
2
100
AcDbEntity
  8
0
100
AcDbCircle
 10
191.8024663199759
 20
335.3505644746663
 30
0.0
 40
1.0
100
AcDbArc
 50
0.0
 51
90.0
  0
LINE
  5
6BD
330
2
100
AcDbEntity
  8
0
100
AcDbLine
 10
192.8024663199759
 20
335.3505644746663
 30
0.0
 11
192.8024663199759
 21
334.3505644746664
 31
0.0
  0
LINE
  5
6BE
330
2
100
AcDbEntity
  8
0
100
AcDbLine
 10
130.302466319976
 20
337.3505644746663
 30
0.0
 11
130.302466319976
 21
333.7027214746663
 31
0.0
  0
LINE
  5
6BF
330
2
100
AcDbEntity
  8
0
100
AcDbLine
 10
164.3024663199759
 20
338.3505644746663
 30
0.0
 11
164.3024663199759
 21
336.3505644746663
 31
0.0
  0
LINE
  5
6C1
330
2
100
AcDbEntity
  8
0
100
AcDbLine
 10
131.0712953199759
 20
345.4029174746663
 30
0.0
 11
130.8469153199758
 21
332.5464714746662
 31
0.0
  0
CIRCLE
  5
6C2
330
2
100
AcDbEntity
  8
0
100
AcDbCircle
 10
138.8024663199759
 20
341.3505644746663
 30
0.0
 40
3.25
  0
LINE
  5
6C4
330
2
100
AcDbEntity
  8
0
100
AcDbLine
 10
134.0708383199759
 20
348.3505644746662
 30
0.0
 11
165.3024663199759
 21
348.3505644746662
 31
0.0
  0
LINE
  5
6C5
330
2
100
AcDbEntity
  8
0
100
AcDbLine
 10
165.302466319976
 20
365.3505644746662
 30
0.0
 11
165.3024663199759
 21
338.3505644746663
 31
0.0
  0
ARC
  5
6C6
330
2
100
AcDbEntity
  8
0
100
AcDbCircle
 10
134.0708383199759
 20
345.3505644746663
 30
0.0
 40
3.0
100
AcDbArc
 50
90.0
 51
179.0001529999997
  0
ARC
  5
6C7
330
2
100
AcDbEntity
  8
0
100
AcDbCircle
 10
128.302466319976
 20
337.3505644746663
 30
0.0
 40
2.0
100
AcDbArc
 50
0.0
 51
90.0
  0
ARC
  5
6C8
330
2
100
AcDbEntity
  8
0
100
AcDbCircle
 10
153.8024663199759
 20
335.3505644746663
 30
0.0
 40
1.0
100
AcDbArc
 50
90.0
 51
180.0
  0
LINE
  5
6C9
330
2
100
AcDbEntity
  8
0
100
AcDbLine
 10
152.8024663199759
 20
335.3505644746663
 30
0.0
 11
152.8024663199759
 21
334.3505644746664
 31
0.0
  0
LINE
  5
6CA
330
2
100
AcDbEntity
  8
0
100
AcDbLine
 10
130.8091953199759
 20
330.3854614746663
 30
0.0
 11
130.7038793199758
 21
324.3505644746663
 31
0.0
  0
ARC
  5
6CB
330
2
100
AcDbEntity
  8
0
100
AcDbCircle
 10
132.8089663199759
 20
330.3505644746663
 30
0.0
 40
2.0
100
AcDbArc
 50
90.0
 51
178.9999999999998
  0
ARC
  5
6CC
330
2
100
AcDbEntity
  8
0
100
AcDbCircle
 10
131.802466319976
 20
333.7027214746663
 30
0.0
 40
1.5
100
AcDbArc
 50
180.0
 51
286.7126539999996
  0
LINE
  5
6CD
330
2
100
AcDbEntity
  8
0
100
AcDbLine
 10
134.0708383199759
 20
254.3505494746663
 30
0.0
 11
211.5339883199758
 21
254.3505494746663
 31
0.0
  0
LINE
  5
6CE
330
2
100
AcDbEntity
  8
0
100
AcDbLine
 10
132.8089663199759
 20
270.3505644746663
 30
0.0
 11
212.7959663199758
 21
270.3505644746663
 31
0.0
  0
CIRCLE
  5
6D0
330
2
100
AcDbEntity
  8
0
100
AcDbCircle
 10
206.8024663199758
 20
261.3505494746663
 30
0.0
 40
3.25
  0
ARC
  5
6D1
330
2
100
AcDbEntity
  8
0
100
AcDbCircle
 10
212.7959663199758
 20
272.3505644746663
 30
0.0
 40
2.0
100
AcDbArc
 50
270.0
 51
358.9999999999998
  0
ARC
  5
6D2
330
2
100
AcDbEntity
  8
0
100
AcDbCircle
 10
211.5339883199758
 20
257.3505494746663
 30
0.0
 40
3.0
100
AcDbArc
 50
270.0
 51
358.9999999999998
  0
CIRCLE
  5
6D4
330
2
100
AcDbEntity
  8
0
100
AcDbCircle
 10
138.8024663199759
 20
261.3505494746663
 30
0.0
 40
3.25
  0
LINE
  5
6D5
330
2
100
AcDbEntity
  8
CENTER
100
AcDbLine
 10
133.052466319976
 20
261.3505494746663
 30
0.0
 11
144.5524663199759
 21
261.3505494746663
 31
0.0
  0
ARC
  5
6D7
330
2
100
AcDbEntity
  8
0
100
AcDbCircle
 10
132.8089663199759
 20
272.3505644746663
 30
0.0
 40
2.0
100
AcDbArc
 50
181.0000000000001
 51
270.0
  0
LINE
  5
6D8
330
2
100
AcDbEntity
  8
0
100
AcDbLine
 10
130.8091953199759
 20
272.3156674746662
 30
0.0
 11
130.7038793199758
 21
278.3505644746663
 31
0.0
  0
LINE
  5
6D9
330
2
100
AcDbEntity
  8
CENTER
100
AcDbLine
 10
138.8024663199759
 20
255.6005494746663
 30
0.0
 11
138.8024663199759
 21
267.1005494746663
 31
0.0
  0
LINE
  5
6DA
330
2
100
AcDbEntity
  8
0
100
AcDbLine
 10
131.0712953199759
 20
257.2982114746662
 30
0.0
 11
130.8469153199758
 21
270.1546564746663
 31
0.0
  0
LINE
  5
6DB
330
2
100
AcDbEntity
  8
0
100
AcDbLine
 10
130.302466319976
 20
265.3505644746663
 30
0.0
 11
130.302466319976
 21
268.9984064746663
 31
0.0
  0
ARC
  5
6DC
330
2
100
AcDbEntity
  8
0
100
AcDbCircle
 10
131.802466319976
 20
268.9984064746663
 30
0.0
 40
1.5
100
AcDbArc
 50
73.28734600000043
 51
180.0
  0
ARC
  5
6DD
330
2
100
AcDbEntity
  8
0
100
AcDbCircle
 10
128.302466319976
 20
265.3505644746663
 30
0.0
 40
2.0
100
AcDbArc
 50
270.0
 51
0.0
  0
ARC
  5
6DE
330
2
100
AcDbEntity
  8
0
100
AcDbCircle
 10
134.0708383199759
 20
257.3505494746663
 30
0.0
 40
3.0
100
AcDbArc
 50
180.999848
 51
270.0
  0
LINE
  5
6DF
330
2
100
AcDbEntity
  8
0
100
AcDbLine
 10
57.80248131997587
 20
263.3505494746663
 30
0.0
 11
57.80248131997587
 21
276.3505644746663
 31
0.0
  0
LINE
  5
6E0
330
2
100
AcDbEntity
  8
0
100
AcDbLine
 10
37.80248131997586
 20
266.3505644746663
 30
0.0
 11
37.80248131997586
 21
336.3505644746663
 31
0.0
  0
LINE
  5
6E1
330
2
100
AcDbEntity
  8
0
100
AcDbLine
 10
37.30248131997598
 20
269.3505644746663
 30
0.0
 11
37.30248131997598
 21
333.3505644746663
 31
0.0
  0
ARC
  5
6E2
330
2
100
AcDbEntity
  8
0
100
AcDbCircle
 10
41.26656231997595
 20
336.3505794746663
 30
0.0
 40
3.0
100
AcDbArc
 50
90.0
 51
150.0003969999997
  0
LINE
  5
6E3
330
2
100
AcDbEntity
  8
0
100
AcDbLine
 10
57.80248131997587
 20
326.3505644746663
 30
0.0
 11
57.80248131997587
 21
339.3505644746663
 31
0.0
  0
LINE
  5
6E4
330
2
100
AcDbEntity
  8
0
100
AcDbLine
 10
41.26656231997595
 20
339.3505644746663
 30
0.0
 11
57.80248131997587
 21
339.3505644746663
 31
0.0
  0
LINE
  5
6E5
330
2
100
AcDbEntity
  8
0
100
AcDbLine
 10
39.38411631997587
 20
324.3505644746663
 30
0.0
 11
48.80235131997597
 21
324.3505644746663
 31
0.0
  0
LINE
  5
6F4
330
2
100
AcDbEntity
  8
0
100
AcDbLine
 10
38.66847931997586
 20
337.8505494746663
 30
0.0
 11
37.80248131997586
 21
336.3505644746663
 31
0.0
  0
LINE
  5
6F5
330
2
100
AcDbEntity
  8
0
100
AcDbLine
 10
37.30248131997598
 20
333.3505644746663
 30
0.0
 11
37.80248131997586
 21
333.8505644746663
 31
0.0
  0
ARC
  5
6F6
330
2
100
AcDbEntity
  8
0
100
AcDbCircle
 10
41.26656231997595
 20
266.3505494746662
 30
0.0
 40
3.0
100
AcDbArc
 50
209.9995990000001
 51
270.0
  0
LINE
  5
6F7
330
2
100
AcDbEntity
  8
0
100
AcDbLine
 10
39.38411631997587
 20
278.3505644746663
 30
0.0
 11
48.80235131997597
 21
278.3505644746663
 31
0.0
  0
LINE
  5
6F8
330
2
100
AcDbEntity
  8
0
100
AcDbLine
 10
41.26656231997595
 20
263.3505494746663
 30
0.0
 11
57.80248131997587
 21
263.3505494746663
 31
0.0
  0
LINE
  5
6F9
330
2
100
AcDbEntity
  8
0
100
AcDbLine
 10
37.30248131997598
 20
269.3505644746663
 30
0.0
 11
37.80248131997586
 21
268.8505644746663
 31
0.0
  0
LINE
  5
6FA
330
2
100
AcDbEntity
  8
0
100
AcDbLine
 10
38.66847931997586
 20
264.8505794746662
 30
0.0
 11
37.80248131997586
 21
266.3505644746663
 31
0.0
  0
LINE
  5
902
330
2
100
AcDbEntity
  8
CENTER
100
AcDbLine
 10
201.0524663199759
 20
261.3505494746663
 30
0.0
 11
212.5524663199759
 21
261.3505494746663
 31
0.0
  0
LINE
  5
903
330
2
100
AcDbEntity
  8
CENTER
100
AcDbLine
 10
206.8024663199758
 20
255.6005494746663
 30
0.0
 11
206.8024663199758
 21
267.1005494746663
 31
0.0
  0
LINE
  5
904
330
2
100
AcDbEntity
  8
CENTER
100
AcDbLine
 10
201.0524663199759
 20
341.3505644746662
 30
0.0
 11
212.5524663199759
 21
341.3505644746662
 31
0.0
  0
LINE
  5
905
330
2
100
AcDbEntity
  8
CENTER
100
AcDbLine
 10
206.8024663199758
 20
335.6005644746663
 30
0.0
 11
206.8024663199758
 21
347.1005644746662
 31
0.0
  0
LINE
  5
906
330
2
100
AcDbEntity
  8
CENTER
100
AcDbLine
 10
133.052466319976
 20
341.3505644746662
 30
0.0
 11
144.5524663199759
 21
341.3505644746662
 31
0.0
  0
LINE
  5
907
330
2
100
AcDbEntity
  8
CENTER
100
AcDbLine
 10
138.8024663199759
 20
335.6005644746663
 30
0.0
 11
138.8024663199759
 21
347.1005644746662
 31
0.0
  0
LINE
  5
98F
330
2
100
AcDbEntity
  8
0
100
AcDbLine
 10
132.4301513199759
 20
127.1162565477397
 30
0.0
 11
156.5095583199759
 21
144.0156475477397
 31
0.0
  0
LINE
  5
990
330
2
100
AcDbEntity
  8
CENTER
100
AcDbLine
 10
146.0525288300739
 20
112.3229985477397
 30
0.0
 11
200.0524038098778
 21
112.3229985477397
 31
0.0
  0
LINE
  5
991
330
2
100
AcDbEntity
  8
0
100
AcDbLine
 10
130.3024583199758
 20
47.32299654773976
 30
0.0
 11
215.3024663199758
 21
47.32299654773976
 31
0.0
  0
LINE
  5
992
330
2
100
AcDbEntity
  8
0
100
AcDbLine
 10
132.3024663199759
 20
55.32299654773976
 30
0.0
 11
213.3024663199758
 21
55.32299654773976
 31
0.0
  0
ARC
  5
993
330
2
100
AcDbEntity
  8
0
100
AcDbCircle
 10
172.8024663199759
 20
99.32299454773975
 30
0.0
 40
42.5
100
AcDbArc
 50
199.7498930000002
 51
340.2500920000002
  0
ARC
  5
994
330
2
100
AcDbEntity
  8
0
100
AcDbCircle
 10
172.8024663199759
 20
99.32299454773975
 30
0.0
 40
42.5
100
AcDbArc
 50
19.74990099999923
 51
160.2501069999997
  0
LINE
  5
997
330
2
100
AcDbEntity
  8
CENTER
100
AcDbLine
 10
30.30245931997592
 20
90.02299454773973
 30
0.0
 11
149.5524583199758
 21
90.02299454773975
 31
0.0
  0
LINE
  5
998
330
2
100
AcDbEntity
  8
0
100
AcDbLine
 10
57.80245831997593
 20
128.0229945477397
 30
0.0
 11
133.7221363199759
 21
128.0229945477397
 31
0.0
  0
LINE
  5
999
330
2
100
AcDbEntity
  8
0
100
AcDbLine
 10
57.80245831997593
 20
52.02299654773975
 30
0.0
 11
130.3024583199758
 21
52.02299654773975
 31
0.0
  0
LINE
  5
99A
330
2
100
AcDbEntity
  8
0
100
AcDbLine
 10
57.80240831997594
 20
120.2719955477397
 30
0.0
 11
130.3024503199758
 21
120.2719955477397
 31
0.0
  0
LINE
  5
99B
330
2
100
AcDbEntity
  8
0
100
AcDbLine
 10
57.80240831997594
 20
59.77399654773975
 30
0.0
 11
130.3024503199758
 21
59.77399654773975
 31
0.0
  0
LINE
  5
99C
330
2
100
AcDbEntity
  8
0
100
AcDbLine
 10
37.30245931997592
 20
58.02299654773975
 30
0.0
 11
37.30245931997592
 21
122.0229945477397
 31
0.0
  0
LINE
  5
99D
330
2
100
AcDbEntity
  8
0
100
AcDbLine
 10
37.80245931997592
 20
55.02299654773975
 30
0.0
 11
37.80245931997592
 21
125.0229945477397
 31
0.0
  0
LINE
  5
99E
330
2
100
AcDbEntity
  8
0
100
AcDbLine
 10
57.80245831997593
 20
52.02299654773975
 30
0.0
 11
57.80245831997593
 21
128.0229945477397
 31
0.0
  0
LINE
  5
99F
330
2
100
AcDbEntity
  8
0
100
AcDbLine
 10
41.26656231997595
 20
52.02299654773975
 30
0.0
 11
57.80245831997593
 21
52.02299654773975
 31
0.0
  0
LINE
  5
9A0
330
2
100
AcDbEntity
  8
0
100
AcDbLine
 10
57.80245831997593
 20
59.77399654773975
 30
0.0
 11
39.38409531997581
 21
59.77399654773975
 31
0.0
  0
LINE
  5
9A1
330
2
100
AcDbEntity
  8
0
100
AcDbLine
 10
38.66847731997586
 20
53.52300654773975
 30
0.0
 11
37.80245931997592
 21
55.02299654773975
 31
0.0
  0
ARC
  5
9A2
330
2
100
AcDbEntity
  8
0
100
AcDbCircle
 10
41.26656731997582
 20
55.02298754773978
 30
0.0
 40
3.0
100
AcDbArc
 50
209.9996030000009
 51
270.0
  0
LINE
  5
9A3
330
2
100
AcDbEntity
  8
0
100
AcDbLine
 10
37.30245931997592
 20
58.02299654773975
 30
0.0
 11
37.80245931997592
 21
57.52299654773975
 31
0.0
  0
LINE
  5
9A4
330
2
100
AcDbEntity
  8
0
100
AcDbLine
 10
41.26655631997595
 20
128.0229945477397
 30
0.0
 11
57.80245831997593
 21
128.0229945477397
 31
0.0
  0
LINE
  5
9A5
330
2
100
AcDbEntity
  8
0
100
AcDbLine
 10
39.38409531997581
 20
120.2719955477397
 30
0.0
 11
57.80245831997593
 21
120.2719955477397
 31
0.0
  0
LINE
  5
9A6
330
2
100
AcDbEntity
  8
0
100
AcDbLine
 10
38.66847731997586
 20
126.5229875477397
 30
0.0
 11
37.80245931997592
 21
125.0229945477397
 31
0.0
  0
LINE
  5
9A7
330
2
100
AcDbEntity
  8
0
100
AcDbLine
 10
37.30245931997592
 20
122.0229945477397
 30
0.0
 11
37.80245931997592
 21
122.5229945477397
 31
0.0
  0
ARC
  5
9A8
330
2
100
AcDbEntity
  8
0
100
AcDbCircle
 10
41.26656731997582
 20
125.0230105477397
 30
0.0
 40
3.0
100
AcDbArc
 50
90.0
 51
150.000396999999
  0
LINE
  5
9A9
330
2
100
AcDbEntity
  8
0
100
AcDbLine
 10
130.3024583199758
 20
123.0235975477397
 30
0.0
 11
130.3024583199758
 21
47.32299654773976
 31
0.0
  0
ARC
  5
9AA
330
2
100
AcDbEntity
  8
0
100
AcDbCircle
 10
132.3024663199759
 20
53.32300654773973
 30
0.0
 40
2.0
100
AcDbArc
 50
90.0
 51
180.0
  0
LINE
  5
9AB
330
2
100
AcDbEntity
  8
CENTER
100
AcDbLine
 10
138.8024583199758
 20
58.82299654773976
 30
0.0
 11
138.8024583199758
 21
43.82299654773976
 31
0.0
  0
LINE
  5
9AC
330
2
100
AcDbEntity
  8
HIDS
  6
SEKKEI_H
100
AcDbLine
 10
135.5524583199758
 20
55.32299654773976
 30
0.0
 11
135.5524583199758
 21
47.32299654773976
 31
0.0
  0
LINE
  5
9AD
330
2
100
AcDbEntity
  8
HIDS
  6
SEKKEI_H
100
AcDbLine
 10
142.0524583199758
 20
55.32299654773976
 30
0.0
 11
142.0524583199758
 21
47.32299654773976
 31
0.0
  0
LINE
  5
9AE
330
2
100
AcDbEntity
  8
0
100
AcDbLine
 10
132.8024583199758
 20
113.6842655477397
 30
0.0
 11
132.8024583199758
 21
84.96145654773973
 31
0.0
  0
ARC
  5
9AF
330
2
100
AcDbEntity
  8
0
100
AcDbCircle
 10
135.3024813199758
 20
123.0236125477397
 30
0.0
 40
5.0
100
AcDbArc
 50
125.0623020000004
 51
180.0
  0
LINE
  5
9B0
330
2
100
AcDbEntity
  8
0
100
AcDbLine
 10
135.6842713199758
 20
120.0229945477397
 30
0.0
 11
135.6842793199758
 21
120.0229945477397
 31
0.0
  0
CIRCLE
  5
9B9
330
2
100
AcDbEntity
  8
0
100
AcDbCircle
 10
172.8024663199759
 20
112.3229985477397
 30
0.0
 40
20.0
  0
LINE
  5
9BA
330
2
100
AcDbEntity
  8
CENTER
100
AcDbLine
 10
172.8024663199759
 20
151.9229965477397
 30
0.0
 11
172.8024663199759
 21
40.32299654773976
 31
0.0
  0
LINE
  5
9BB
330
2
100
AcDbEntity
  8
0
100
AcDbLine
 10
213.1747653199759
 20
127.1162565477397
 30
0.0
 11
189.0952673199759
 21
144.0156555477397
 31
0.0
  0
LINE
  5
9BC
330
2
100
AcDbEntity
  8
0
100
AcDbLine
 10
215.3024663199758
 20
123.0235745477397
 30
0.0
 11
215.3024663199758
 21
47.32299654773976
 31
0.0
  0
LINE
  5
9BD
330
2
100
AcDbEntity
  8
CENTER
100
AcDbLine
 10
206.8024663199759
 20
58.82299654773976
 30
0.0
 11
206.8024663199758
 21
43.82299654773976
 31
0.0
  0
LINE
  5
9BE
330
2
100
AcDbEntity
  8
HIDS
  6
SEKKEI_H
100
AcDbLine
 10
210.0524663199759
 20
55.32299654773976
 30
0.0
 11
210.0524663199759
 21
47.32299654773976
 31
0.0
  0
LINE
  5
9BF
330
2
100
AcDbEntity
  8
HIDS
  6
SEKKEI_H
100
AcDbLine
 10
203.5524663199759
 20
55.32299654773976
 30
0.0
 11
203.5524663199759
 21
47.32299654773976
 31
0.0
  0
ARC
  5
9C0
330
2
100
AcDbEntity
  8
0
100
AcDbCircle
 10
213.3024663199758
 20
53.32298654773976
 30
0.0
 40
2.0
100
AcDbArc
 50
0.0
 51
90.0
  0
ARC
  5
9C1
330
2
100
AcDbEntity
  8
0
100
AcDbCircle
 10
182.9999603199759
 20
83.33300354773976
 30
0.0
 40
2.55249
100
AcDbArc
 50
286.0181270000003
 51
90.00351000000046
  0
LINE
  5
9C2
330
2
100
AcDbEntity
  8
0
100
AcDbLine
 10
185.2841553199758
 20
77.31908754773977
 30
0.0
 11
185.5524663199759
 21
77.31908754773977
 31
0.0
  0
LINE
  5
9C3
330
2
100
AcDbEntity
  8
0
100
AcDbLine
 10
184.0832583199759
 20
76.32299854773975
 30
0.0
 11
185.5524663199759
 21
76.32299854773975
 31
0.0
  0
LINE
  5
9C4
330
2
100
AcDbEntity
  8
0
100
AcDbLine
 10
161.2098603199758
 20
85.88549454773973
 30
0.0
 11
160.0524583199758
 21
84.40349554773977
 31
0.0
  0
LINE
  5
9C5
330
2
100
AcDbEntity
  8
0
100
AcDbLine
 10
165.4964663199758
 20
85.88549454773973
 30
0.0
 11
166.4274663199759
 21
84.85235254773973
 31
0.0
  0
LINE
  5
9C6
330
2
100
AcDbEntity
  8
0
100
AcDbLine
 10
161.1232593199758
 20
78.21391654773975
 30
0.0
 11
161.8545593199759
 21
77.44359554773976
 31
0.0
  0
LINE
  5
9C7
330
2
100
AcDbEntity
  8
0
100
AcDbLine
 10
166.4274663199759
 20
81.87621654773975
 30
0.0
 11
166.4274663199759
 21
76.32299854773975
 31
0.0
  0
LINE
  5
9C8
330
2
100
AcDbEntity
  8
0
100
AcDbLine
 10
160.0524583199758
 20
84.40349554773977
 30
0.0
 11
160.0524583199758
 21
77.56385854773975
 31
0.0
  0
ARC
  5
9C9
330
2
100
AcDbEntity
  8
0
100
AcDbCircle
 10
163.5138613199758
 20
79.43578754773975
 30
0.0
 40
1.992186999999999
100
AcDbArc
 50
270.0002140000007
 51
0.0001089999998967
  0
LINE
  5
9CA
330
2
100
AcDbEntity
  8
0
100
AcDbLine
 10
161.2822553199758
 20
76.32299854773975
 30
0.0
 11
164.5975553199758
 21
76.32299854773975
 31
0.0
  0
LINE
  5
9CB
330
2
100
AcDbEntity
  8
0
100
AcDbLine
 10
160.0524583199758
 20
77.56385854773975
 30
0.0
 11
161.2822553199758
 21
76.32299854773975
 31
0.0
  0
LINE
  5
9CC
330
2
100
AcDbEntity
  8
0
100
AcDbLine
 10
163.5138613199758
 20
77.44359554773976
 30
0.0
 11
161.8545593199759
 21
77.44359554773976
 31
0.0
  0
LINE
  5
9CD
330
2
100
AcDbEntity
  8
0
100
AcDbLine
 10
165.5060643199758
 20
77.08525454773976
 30
0.0
 11
165.5060643199758
 21
76.32299854773975
 31
0.0
  0
LINE
  5
9CE
330
2
100
AcDbEntity
  8
0
100
AcDbLine
 10
165.5060643199758
 20
77.08525454773976
 30
0.0
 11
164.5975553199758
 21
76.32299854773975
 31
0.0
  0
LINE
  5
9CF
330
2
100
AcDbEntity
  8
0
100
AcDbLine
 10
165.5060643199758
 20
76.32299854773975
 30
0.0
 11
166.4274663199759
 21
76.32299854773975
 31
0.0
  0
LINE
  5
9D0
330
2
100
AcDbEntity
  8
0
100
AcDbLine
 10
164.9149543199758
 20
84.61547454773976
 30
0.0
 11
161.8430623199758
 21
84.61547454773976
 31
0.0
  0
LINE
  5
9D1
330
2
100
AcDbEntity
  8
0
100
AcDbLine
 10
161.8430623199758
 20
84.61547454773976
 30
0.0
 11
161.1232593199758
 21
83.72297254773977
 31
0.0
  0
LINE
  5
9D2
330
2
100
AcDbEntity
  8
0
100
AcDbLine
 10
161.1232593199758
 20
83.72297254773977
 30
0.0
 11
161.1232593199758
 21
78.21391654773975
 31
0.0
  0
LINE
  5
9D3
330
2
100
AcDbEntity
  8
0
100
AcDbLine
 10
166.4274663199759
 20
84.85235254773973
 30
0.0
 11
166.4274663199759
 21
83.89330654773974
 31
0.0
  0
LINE
  5
9D4
330
2
100
AcDbEntity
  8
0
100
AcDbLine
 10
165.5060643199758
 20
80.83031854773976
 30
0.0
 11
163.8376523199758
 21
80.83031854773976
 31
0.0
  0
LINE
  5
9D5
330
2
100
AcDbEntity
  8
0
100
AcDbLine
 10
165.5060643199758
 20
79.83422454773975
 30
0.0
 11
165.5060643199758
 21
80.63109954773976
 31
0.0
  0
LINE
  5
9D6
330
2
100
AcDbEntity
  8
0
100
AcDbLine
 10
165.5060643199758
 20
80.83031854773976
 30
0.0
 11
165.5060643199758
 21
79.43578754773975
 31
0.0
  0
LINE
  5
9D7
330
2
100
AcDbEntity
  8
0
100
AcDbLine
 10
163.8376523199758
 20
81.87621654773975
 30
0.0
 11
163.8376523199758
 21
80.83031854773976
 31
0.0
  0
LINE
  5
9D8
330
2
100
AcDbEntity
  8
0
100
AcDbLine
 10
165.5060643199758
 20
84.04402954773976
 30
0.0
 11
165.5060643199758
 21
83.89330654773974
 31
0.0
  0
LINE
  5
9D9
330
2
100
AcDbEntity
  8
0
100
AcDbLine
 10
165.5060643199758
 20
84.04402954773976
 30
0.0
 11
164.9028533199758
 21
84.61547454773976
 31
0.0
  0
LINE
  5
9DA
330
2
100
AcDbEntity
  8
0
100
AcDbLine
 10
165.5060643199758
 20
83.89330654773974
 30
0.0
 11
166.4274663199759
 21
83.89330654773974
 31
0.0
  0
LINE
  5
9DB
330
2
100
AcDbEntity
  8
0
100
AcDbLine
 10
163.8376523199758
 20
81.87621654773975
 30
0.0
 11
166.4274663199759
 21
81.87621654773975
 31
0.0
  0
LINE
  5
9DC
330
2
100
AcDbEntity
  8
0
100
AcDbLine
 10
161.2098603199758
 20
85.88549454773973
 30
0.0
 11
165.4964663199758
 21
85.88549454773973
 31
0.0
  0
LINE
  5
9DD
330
2
100
AcDbEntity
  8
0
100
AcDbLine
 10
179.1774663199759
 20
85.88549454773973
 30
0.0
 11
179.1774663199759
 21
84.71508454773976
 31
0.0
  0
LINE
  5
9DE
330
2
100
AcDbEntity
  8
0
100
AcDbLine
 10
175.9899663199758
 20
83.89330654773974
 30
0.0
 11
175.9899663199758
 21
85.88549454773973
 31
0.0
  0
LINE
  5
9DF
330
2
100
AcDbEntity
  8
0
100
AcDbLine
 10
169.6149663199759
 20
83.89330654773974
 30
0.0
 11
169.6149663199759
 21
85.88549454773973
 31
0.0
  0
LINE
  5
9E0
330
2
100
AcDbEntity
  8
0
100
AcDbLine
 10
173.3752653199758
 20
84.71508454773976
 30
0.0
 11
173.3752653199758
 21
77.36889654773975
 31
0.0
  0
LINE
  5
9E1
330
2
100
AcDbEntity
  8
0
100
AcDbLine
 10
172.1798613199758
 20
84.71508454773976
 30
0.0
 11
172.1798613199758
 21
77.36889654773975
 31
0.0
  0
LINE
  5
9E2
330
2
100
AcDbEntity
  8
0
100
AcDbLine
 10
171.7067633199758
 20
76.32299854773975
 30
0.0
 11
173.7736573199758
 21
76.32299854773975
 31
0.0
  0
LINE
  5
9E3
330
2
100
AcDbEntity
  8
0
100
AcDbLine
 10
171.7067633199758
 20
77.36889654773975
 30
0.0
 11
171.7067633199758
 21
76.32299854773975
 31
0.0
  0
LINE
  5
9E4
330
2
100
AcDbEntity
  8
0
100
AcDbLine
 10
171.7067633199758
 20
77.36889654773975
 30
0.0
 11
172.1798613199758
 21
77.36889654773975
 31
0.0
  0
LINE
  5
9E5
330
2
100
AcDbEntity
  8
0
100
AcDbLine
 10
173.3752653199758
 20
77.36889654773975
 30
0.0
 11
173.7736573199758
 21
77.36889654773975
 31
0.0
  0
LINE
  5
9E6
330
2
100
AcDbEntity
  8
0
100
AcDbLine
 10
173.7736573199758
 20
77.36889654773975
 30
0.0
 11
173.7736573199758
 21
76.32299854773975
 31
0.0
  0
LINE
  5
9E7
330
2
100
AcDbEntity
  8
0
100
AcDbLine
 10
172.1798613199758
 20
84.71508454773976
 30
0.0
 11
170.6649543199759
 21
84.71508454773976
 31
0.0
  0
LINE
  5
9E8
330
2
100
AcDbEntity
  8
0
100
AcDbLine
 10
169.6149663199759
 20
83.89330654773974
 30
0.0
 11
170.3225623199758
 21
83.89330654773974
 31
0.0
  0
LINE
  5
9E9
330
2
100
AcDbEntity
  8
0
100
AcDbLine
 10
170.6649543199759
 20
84.71508454773976
 30
0.0
 11
170.3225623199758
 21
83.89330654773974
 31
0.0
  0
LINE
  5
9EA
330
2
100
AcDbEntity
  8
0
100
AcDbLine
 10
173.3752653199758
 20
84.71508454773976
 30
0.0
 11
175.0362613199758
 21
84.71508454773976
 31
0.0
  0
LINE
  5
9EB
330
2
100
AcDbEntity
  8
0
100
AcDbLine
 10
175.3249573199758
 20
83.89330654773974
 30
0.0
 11
175.9899663199758
 21
83.89330654773974
 31
0.0
  0
LINE
  5
9EC
330
2
100
AcDbEntity
  8
0
100
AcDbLine
 10
175.0362613199758
 20
84.71508454773976
 30
0.0
 11
175.3249573199758
 21
83.89330654773974
 31
0.0
  0
LINE
  5
9ED
330
2
100
AcDbEntity
  8
0
100
AcDbLine
 10
179.6505643199759
 20
84.71508454773976
 30
0.0
 11
179.6505643199759
 21
77.31908754773977
 31
0.0
  0
LINE
  5
9EE
330
2
100
AcDbEntity
  8
0
100
AcDbLine
 10
180.7462523199759
 20
80.79296454773976
 30
0.0
 11
180.7462523199759
 21
77.31908754773977
 31
0.0
  0
LINE
  5
9EF
330
2
100
AcDbEntity
  8
0
100
AcDbLine
 10
183.7042603199759
 20
80.87961554773974
 30
0.0
 11
185.2841553199758
 21
77.31908754773977
 31
0.0
  0
LINE
  5
9F0
330
2
100
AcDbEntity
  8
0
100
AcDbLine
 10
182.7867643199758
 20
80.79296454773976
 30
0.0
 11
184.2817603199758
 21
77.31908754773977
 31
0.0
  0
LINE
  5
9F1
330
2
100
AcDbEntity
  8
0
100
AcDbLine
 10
180.7462523199759
 20
77.31908754773977
 30
0.0
 11
181.1820593199758
 21
77.31908754773977
 31
0.0
  0
LINE
  5
9F2
330
2
100
AcDbEntity
  8
0
100
AcDbLine
 10
181.1820593199758
 20
76.32299854773975
 30
0.0
 11
179.1774663199759
 21
76.32299854773975
 31
0.0
  0
LINE
  5
9F3
330
2
100
AcDbEntity
  8
0
100
AcDbLine
 10
179.1774663199759
 20
77.31908754773977
 30
0.0
 11
179.1774663199759
 21
76.32299854773975
 31
0.0
  0
LINE
  5
9F4
330
2
100
AcDbEntity
  8
0
100
AcDbLine
 10
179.1774663199759
 20
77.31908754773977
 30
0.0
 11
179.6505643199759
 21
77.31908754773977
 31
0.0
  0
LINE
  5
9F5
330
2
100
AcDbEntity
  8
0
100
AcDbLine
 10
184.0832583199759
 20
77.31908754773977
 30
0.0
 11
184.2817603199758
 21
77.31908754773977
 31
0.0
  0
LINE
  5
9F6
330
2
100
AcDbEntity
  8
0
100
AcDbLine
 10
184.0832583199759
 20
77.31908754773977
 30
0.0
 11
184.0832583199759
 21
76.32299854773975
 31
0.0
  0
LINE
  5
9F7
330
2
100
AcDbEntity
  8
0
100
AcDbLine
 10
181.1820593199758
 20
77.31908754773977
 30
0.0
 11
181.1820593199758
 21
76.32299854773975
 31
0.0
  0
LINE
  5
9F8
330
2
100
AcDbEntity
  8
0
100
AcDbLine
 10
180.7462523199759
 20
84.71508454773976
 30
0.0
 11
183.7211523199759
 21
84.71314654773975
 31
0.0
  0
LINE
  5
9F9
330
2
100
AcDbEntity
  8
0
100
AcDbLine
 10
180.7462523199759
 20
81.78882954773976
 30
0.0
 11
183.2009643199759
 21
81.78882954773976
 31
0.0
  0
LINE
  5
9FA
330
2
100
AcDbEntity
  8
0
100
AcDbLine
 10
180.7462523199759
 20
80.79296454773976
 30
0.0
 11
182.7867643199758
 21
80.79296454773976
 31
0.0
  0
LINE
  5
9FB
330
2
100
AcDbEntity
  8
0
100
AcDbLine
 10
180.7462523199759
 20
84.71508454773976
 30
0.0
 11
180.7462523199759
 21
81.78882954773976
 31
0.0
  0
LINE
  5
9FC
330
2
100
AcDbEntity
  8
0
100
AcDbLine
 10
179.1774663199759
 20
84.71508454773976
 30
0.0
 11
179.6505643199759
 21
84.71508454773976
 31
0.0
  0
ARC
  5
9FD
330
2
100
AcDbEntity
  8
0
100
AcDbCircle
 10
182.9999603199759
 20
83.33300354773976
 30
0.0
 40
1.557193
100
AcDbArc
 50
277.4147260000004
 51
62.41184999999767
  0
LINE
  5
9FE
330
2
100
AcDbEntity
  8
0
100
AcDbLine
 10
169.6149663199759
 20
85.88549454773973
 30
0.0
 11
175.9899663199758
 21
85.88549454773973
 31
0.0
  0
LINE
  5
9FF
330
2
100
AcDbEntity
  8
0
100
AcDbLine
 10
179.1774663199759
 20
85.88549454773973
 30
0.0
 11
182.9999603199759
 21
85.88549454773973
 31
0.0
  0
ARC
  5
A00
330
2
100
AcDbEntity
  8
HIDS
100
AcDbCircle
 10
172.8024663199759
 20
112.3229985477397
 30
0.0
 40
7.5
100
AcDbArc
 50
19.47120999999955
 51
340.5288089999994
  0
LINE
  5
A01
330
2
100
AcDbEntity
  8
0
100
AcDbLine
 10
154.6150573199759
 20
120.0229945477397
 30
0.0
 11
154.6151563199758
 21
120.0229945477397
 31
0.0
  0
LINE
  5
A02
330
2
100
AcDbEntity
  8
HIDS
100
AcDbLine
 10
182.3024663199759
 20
114.8229985477397
 30
0.0
 11
182.3024663199759
 21
109.8229985477397
 31
0.0
  0
LINE
  5
A03
330
2
100
AcDbEntity
  8
HIDS
100
AcDbLine
 10
177.3024663199759
 20
109.8229985477397
 30
0.0
 11
177.3024663199759
 21
114.8229985477397
 31
0.0
  0
LINE
  5
A04
330
2
100
AcDbEntity
  8
HIDS
100
AcDbLine
 10
177.3024663199759
 20
109.8229985477397
 30
0.0
 11
182.3024663199759
 21
109.8229985477397
 31
0.0
  0
LINE
  5
A05
330
2
100
AcDbEntity
  8
HIDS
100
AcDbLine
 10
177.3024663199759
 20
114.8229985477397
 30
0.0
 11
182.3024663199759
 21
114.8229985477397
 31
0.0
  0
LINE
  5
A06
330
2
100
AcDbEntity
  8
0
100
AcDbLine
 10
212.8024663199759
 20
113.6843945477397
 30
0.0
 11
212.8024663199759
 21
84.96185654773976
 31
0.0
  0
LINE
  5
A07
330
2
100
AcDbEntity
  8
0
100
AcDbLine
 10
185.5524663199759
 20
77.31908754773977
 30
0.0
 11
185.5524663199759
 21
76.32299854773975
 31
0.0
  0
ARC
  5
A08
330
2
100
AcDbEntity
  8
0
100
AcDbCircle
 10
210.3024663199759
 20
123.0235745477397
 30
0.0
 40
5.0
100
AcDbArc
 50
0.0
 51
54.93837000000021
  0
LINE
  5
A09
330
2
100
AcDbEntity
  8
0
100
AcDbLine
 10
159.3819563199758
 20
144.9229965477397
 30
0.0
 11
186.2229523199759
 21
144.9229965477397
 31
0.0
  0
ARC
  5
A0A
330
2
100
AcDbEntity
  8
0
100
AcDbCircle
 10
159.3819563199758
 20
139.9230045477397
 30
0.0
 40
5.0
100
AcDbArc
 50
90.0
 51
125.0622019999994
  0
ARC
  5
A0B
330
2
100
AcDbEntity
  8
0
100
AcDbCircle
 10
186.2230593199758
 20
139.9229885477397
 30
0.0
 40
5.0
100
AcDbArc
 50
54.93843100000081
 51
90.0
  0
TEXT
  5
A16
330
2
100
AcDbEntity
  8
TITLE
100
AcDbText
 10
241.295934652656
 20
302.7373255896312
 30
0.0
 40
5.0
  1
HLM-15L-10~240-T15WT
 41
0.8
100
AcDbText
  0
TEXT
  5
A17
330
2
100
AcDbEntity
  8
TITLE
100
AcDbText
 10
241.295934652656
 20
286.7373255896312
 30
0.0
 40
5.0
  1
HLM-15L-10~240-T25WT
 41
0.8
100
AcDbText
  0
TEXT
  5
A18
330
2
100
AcDbEntity
  8
TITLE
100
AcDbText
 10
241.295934652656
 20
294.7373255896312
 30
0.0
 40
5.0
  1
HLM-15L-10~240-T25T
 41
0.8
100
AcDbText
  0
TEXT
  5
A1C
330
2
100
AcDbEntity
  8
TITLE
100
AcDbText
 10
241.295934652656
 20
278.7373255896312
 30
0.0
 40
5.0
  1
HLM-15L-10~120-T40T
 41
0.8
100
AcDbText
  0
TEXT
  5
A1E
330
2
100
AcDbEntity
  8
TITLE
100
AcDbText
 10
327.869564723379
 20
294.7373255896312
 30
0.0
 40
5.0
  1
HLM-15L-10~240-S25T
 41
0.8
100
AcDbText
  0
TEXT
  5
A1F
330
2
100
AcDbEntity
  8
TITLE
100
AcDbText
 10
327.869564723379
 20
286.7373255896312
 30
0.0
 40
5.0
  1
HLM-15L-10~240-S25WT
 41
0.8
100
AcDbText
  0
TEXT
  5
A20
330
2
100
AcDbEntity
  8
TITLE
100
AcDbText
 10
327.869564723379
 20
302.7373255896312
 30
0.0
 40
5.0
  1
HLM-15L-10~240-S15WT
 41
0.8
100
AcDbText
  0
TEXT
  5
A21
330
2
100
AcDbEntity
  8
TITLE
100
AcDbText
 10
327.869564723379
 20
310.7373255896312
 30
0.0
 40
5.0
  1
HLM-15L-10~240-S15T
 41
0.8
100
AcDbText
  0
LINE
  5
227F
330
2
100
AcDbEntity
  8
CENTER
100
AcDbLine
 10
289.1533116732304
 20
151.0229925477398
 30
0.0
 11
349.2405256356475
 21
151.0229925477398
 31
0.0
  0
LINE
  5
2281
330
2
100
AcDbEntity
  8
0
100
AcDbLine
 10
294.1969186544389
 20
159.5229925477398
 30
0.0
 11
336.696903654439
 21
159.5229925477398
 31
0.0
  0
LINE
  5
2282
330
2
100
AcDbEntity
  8
0
100
AcDbLine
 10
295.196918654439
 20
160.5229925477398
 30
0.0
 11
339.3590098384128
 21
160.5229925477397
 31
0.0
  0
LINE
  5
22AB
330
2
100
AcDbEntity
  8
0
100
AcDbLine
 10
294.1969186544389
 20
159.5229925477398
 30
0.0
 11
294.1969186544389
 21
144.4865368610825
 31
0.0
  0
LINE
  5
22D7
330
2
100
AcDbEntity
  8
0
100
AcDbLine
 10
295.196918654439
 20
160.5229925477398
 30
0.0
 11
294.1969186544389
 21
159.5229925477398
 31
0.0
  0
LINE
  5
22D9
330
2
100
AcDbEntity
  8
CENTER
100
AcDbLine
 10
73.80245831997592
 20
331.739790418774
 30
0.0
 11
73.80245831997592
 21
270.6005644746663
 31
0.0
  0
LINE
  5
22DA
330
2
100
AcDbEntity
  8
0
100
AcDbLine
 10
51.20245231997592
 20
324.9505554746663
 30
0.0
 11
91.30235131997597
 21
324.9505554746662
 31
0.0
  0
LINE
  5
22DB
330
2
100
AcDbEntity
  8
0
100
AcDbLine
 10
50.80245131997594
 20
326.3505644746663
 30
0.0
 11
96.80235131997598
 21
326.3505644746662
 31
0.0
  0
LINE
  5
22DD
330
2
100
AcDbEntity
  8
0
100
AcDbLine
 10
50.80245131997594
 20
276.3505644746663
 30
0.0
 11
96.80235131997585
 21
276.3505644746663
 31
0.0
  0
LINE
  5
22DE
330
2
100
AcDbEntity
  8
0
100
AcDbLine
 10
96.40255631997593
 20
277.7505584746663
 30
0.0
 11
56.30245131997594
 21
277.7505584746663
 31
0.0
  0
LINE
  5
22DF
330
2
100
AcDbEntity
  8
0
100
AcDbLine
 10
46.80245131997594
 20
294.8505644746663
 30
0.0
 11
46.80245131997594
 21
307.8505644746663
 31
0.0
  0
LINE
  5
22E0
330
2
100
AcDbEntity
  8
0
100
AcDbLine
 10
46.80245131997594
 20
295.8505644746663
 30
0.0
 11
43.30245131997594
 21
299.3505644746663
 31
0.0
  0
LINE
  5
22E1
330
2
100
AcDbEntity
  8
0
100
AcDbLine
 10
50.20244531997594
 20
323.9505554746663
 30
0.0
 11
50.20245231997591
 21
283.8505644746663
 31
0.0
  0
LINE
  5
22E2
330
2
100
AcDbEntity
  8
0
100
AcDbLine
 10
48.80245131997594
 20
324.3505644746663
 30
0.0
 11
48.80245131997594
 21
278.3505644746663
 31
0.0
  0
ARC
  5
22E3
330
2
100
AcDbEntity
  8
0
100
AcDbCircle
 10
52.30248131997587
 20
279.8505644746663
 30
0.0
 40
4.0
100
AcDbArc
 50
0.0
 51
90.0
  0
CIRCLE
  5
22E4
330
2
100
AcDbEntity
  8
0
100
AcDbCircle
 10
52.30248131997587
 20
279.8505644746663
 30
0.0
 40
3.500000000000028
  0
LINE
  5
22E5
330
2
100
AcDbEntity
  8
0
100
AcDbLine
 10
56.30245131997594
 20
279.8505644746663
 30
0.0
 11
56.30245131997594
 21
276.3507634746663
 31
0.0
  0
ARC
  5
22E6
330
2
100
AcDbEntity
  8
0
100
AcDbCircle
 10
52.30248131997587
 20
279.8505644746663
 30
0.0
 40
2.049999999999998
100
AcDbArc
 50
261.9380399160181
 51
270.0
  0
ARC
  5
22E7
330
2
100
AcDbEntity
  8
0
100
AcDbCircle
 10
52.30248131997587
 20
279.8505644746663
 30
0.0
 40
2.049999999999998
100
AcDbArc
 50
270.0
 51
278.0619600839818
  0
ARC
  5
22E8
330
2
100
AcDbEntity
  8
0
100
AcDbCircle
 10
52.30248131997587
 20
279.8505644746663
 30
0.0
 40
2.049999999999998
100
AcDbArc
 50
90.0
 51
98.06196008398188
  0
ARC
  5
22E9
330
2
100
AcDbEntity
  8
0
100
AcDbCircle
 10
52.30248131997587
 20
279.8505644746663
 30
0.0
 40
2.049999999999998
100
AcDbArc
 50
0.0
 51
8.061960083982105
  0
ARC
  5
22EA
330
2
100
AcDbEntity
  8
0
100
AcDbCircle
 10
52.30248131997587
 20
279.8505644746663
 30
0.0
 40
2.049999999999998
100
AcDbArc
 50
81.93803991601813
 51
90.0
  0
ARC
  5
22EB
330
2
100
AcDbEntity
  8
0
100
AcDbCircle
 10
54.33218131997603
 20
277.8208644746663
 30
0.0
 40
1.742199999999999
100
AcDbArc
 50
89.9986903345035
 51
180.0013096654997
  0
ARC
  5
22EC
330
2
100
AcDbEntity
  8
0
100
AcDbCircle
 10
52.30248131997587
 20
279.8505644746663
 30
0.0
 40
2.049999999999998
100
AcDbArc
 50
351.9380399160179
 51
0.0
  0
ARC
  5
22ED
330
2
100
AcDbEntity
  8
0
100
AcDbCircle
 10
54.33218131997603
 20
281.8802644746662
 30
0.0
 40
1.742199999999999
100
AcDbArc
 50
179.9986903345002
 51
270.0013096654964
  0
LINE
  5
22EE
330
2
100
AcDbEntity
  8
0
100
AcDbLine
 10
48.80245131997594
 20
278.3505644746663
 30
0.0
 11
50.80245131997594
 21
276.3505644746663
 31
0.0
  0
LINE
  5
22EF
330
2
100
AcDbEntity
  8
0
100
AcDbLine
 10
48.80245131997594
 20
278.3505644746663
 30
0.0
 11
50.80245131997594
 21
276.3505644746663
 31
0.0
  0
ARC
  5
22F0
330
2
100
AcDbEntity
  8
0
100
AcDbCircle
 10
52.30248131997587
 20
279.8505644746663
 30
0.0
 40
2.049999999999998
100
AcDbArc
 50
171.9380399160178
 51
180.0
  0
ARC
  5
22F1
330
2
100
AcDbEntity
  8
0
100
AcDbCircle
 10
52.30248131997587
 20
279.8505644746663
 30
0.0
 40
2.049999999999998
100
AcDbArc
 50
180.0
 51
188.0619600839821
  0
ARC
  5
22F2
330
2
100
AcDbEntity
  8
0
100
AcDbCircle
 10
50.27278131997594
 20
277.8208644746663
 30
0.0
 40
1.742199999999999
100
AcDbArc
 50
359.9986903345002
 51
90.00130966549649
  0
ARC
  5
22F3
330
2
100
AcDbEntity
  8
0
100
AcDbCircle
 10
50.27278131997594
 20
281.8802644746662
 30
0.0
 40
1.742199999999999
100
AcDbArc
 50
269.9986903345002
 51
0.0013096654997424
  0
LINE
  5
22F4
330
2
100
AcDbEntity
  8
0
100
AcDbLine
 10
52.30248131997598
 20
283.8505644746663
 30
0.0
 11
48.80248131997598
 21
283.8505644746663
 31
0.0
  0
LINE
  5
22F5
330
2
100
AcDbEntity
  8
0
100
AcDbLine
 10
47.80245131997594
 20
293.8505644746663
 30
0.0
 11
48.80245131997594
 21
293.8505644746663
 31
0.0
  0
ARC
  5
22F6
330
2
100
AcDbEntity
  8
0
100
AcDbCircle
 10
47.80245131997583
 20
294.8505644746663
 30
0.0
 40
1.0
100
AcDbArc
 50
180.0
 51
270.0
  0
LINE
  5
22F7
330
2
100
AcDbEntity
  8
0
100
AcDbLine
 10
43.30245131997594
 20
303.3505644746663
 30
0.0
 11
46.80245131997594
 21
306.8505644746663
 31
0.0
  0
LINE
  5
22F8
330
2
100
AcDbEntity
  8
0
100
AcDbLine
 10
43.30245131997594
 20
303.3505644746663
 30
0.0
 11
43.30245131997594
 21
299.3505644746663
 31
0.0
  0
LINE
  5
22F9
330
2
100
AcDbEntity
  8
0
100
AcDbLine
 10
47.80245131997594
 20
308.8505644746663
 30
0.0
 11
48.80245131997594
 21
308.8505644746663
 31
0.0
  0
ARC
  5
22FA
330
2
100
AcDbEntity
  8
0
100
AcDbCircle
 10
47.80246631997591
 20
307.8505644746663
 30
0.0
 40
1.0
100
AcDbArc
 50
90.0
 51
180.0
  0
LINE
  5
22FB
330
2
100
AcDbEntity
  8
0
100
AcDbLine
 10
48.80245131997594
 20
324.3505644746663
 30
0.0
 11
50.80245131997594
 21
326.3505644746663
 31
0.0
  0
LINE
  5
22FC
330
2
100
AcDbEntity
  8
0
100
AcDbLine
 10
50.20244531997594
 20
323.9505554746663
 30
0.0
 11
51.20245231997592
 21
324.9505554746663
 31
0.0
  0
LINE
  5
22FD
330
2
100
AcDbEntity
  8
0
100
AcDbLine
 10
97.40255631997593
 20
278.7505584746663
 30
0.0
 11
97.40255631997593
 21
318.8505644746662
 31
0.0
  0
LINE
  5
22FE
330
2
100
AcDbEntity
  8
0
100
AcDbLine
 10
98.80235131997597
 20
324.3505644746662
 30
0.0
 11
98.80235131997586
 21
278.3505644746663
 31
0.0
  0
LINE
  5
22FF
330
2
100
AcDbEntity
  8
0
100
AcDbLine
 10
96.40255631997593
 20
277.7505584746663
 30
0.0
 11
97.40255631997593
 21
278.7505584746663
 31
0.0
  0
LINE
  5
2300
330
2
100
AcDbEntity
  8
0
100
AcDbLine
 10
98.80235131997586
 20
278.3505644746663
 30
0.0
 11
96.80235131997585
 21
276.3505644746663
 31
0.0
  0
LINE
  5
2301
330
2
100
AcDbEntity
  8
0
100
AcDbLine
 10
98.80235131997586
 20
278.3505644746663
 30
0.0
 11
96.80235131997585
 21
276.3505644746663
 31
0.0
  0
LINE
  5
2302
330
2
100
AcDbEntity
  8
0
100
AcDbLine
 10
98.80255031997592
 20
278.3505644746663
 30
0.0
 11
96.80235131997585
 21
276.3505644746663
 31
0.0
  0
ARC
  5
2303
330
2
100
AcDbEntity
  8
0
100
AcDbCircle
 10
95.30255031997592
 20
322.8505644746663
 30
0.0
 40
4.0
100
AcDbArc
 50
180.0
 51
270.0
  0
CIRCLE
  5
2304
330
2
100
AcDbEntity
  8
0
100
AcDbCircle
 10
95.30255031997592
 20
322.8505644746663
 30
0.0
 40
3.500000000000028
  0
LINE
  5
2305
330
2
100
AcDbEntity
  8
0
100
AcDbLine
 10
95.30235131997597
 20
318.8505644746662
 30
0.0
 11
98.80235131997597
 21
318.8505644746662
 31
0.0
  0
LINE
  5
2306
330
2
100
AcDbEntity
  8
0
100
AcDbLine
 10
98.80235131997597
 20
324.3505644746662
 30
0.0
 11
96.80235131997598
 21
326.3505644746662
 31
0.0
  0
LINE
  5
2307
330
2
100
AcDbEntity
  8
0
100
AcDbLine
 10
96.80235131997598
 20
326.3505644746662
 30
0.0
 11
98.80235131997597
 21
324.3505644746662
 31
0.0
  0
ARC
  5
2308
330
2
100
AcDbEntity
  8
0
100
AcDbCircle
 10
97.33225031997609
 20
320.8208644746662
 30
0.0
 40
1.742199999999999
100
AcDbArc
 50
89.9986903345035
 51
180.0013096654997
  0
ARC
  5
2309
330
2
100
AcDbEntity
  8
0
100
AcDbCircle
 10
97.33225031997609
 20
324.8802644746662
 30
0.0
 40
1.742199999999999
100
AcDbArc
 50
179.9986903345002
 51
270.0013096654964
  0
ARC
  5
230A
330
2
100
AcDbEntity
  8
0
100
AcDbCircle
 10
95.30255031997592
 20
322.8505644746663
 30
0.0
 40
2.049999999999998
100
AcDbArc
 50
90.0
 51
98.06196008398188
  0
ARC
  5
230B
330
2
100
AcDbEntity
  8
0
100
AcDbCircle
 10
95.30255031997592
 20
322.8505644746663
 30
0.0
 40
2.049999999999998
100
AcDbArc
 50
81.93803991601813
 51
90.0
  0
ARC
  5
230C
330
2
100
AcDbEntity
  8
0
100
AcDbCircle
 10
95.30255031997592
 20
322.8505644746663
 30
0.0
 40
2.049999999999998
100
AcDbArc
 50
261.9380399160181
 51
270.0
  0
ARC
  5
230D
330
2
100
AcDbEntity
  8
0
100
AcDbCircle
 10
95.30255031997592
 20
322.8505644746663
 30
0.0
 40
2.049999999999998
100
AcDbArc
 50
270.0
 51
278.0619600839818
  0
ARC
  5
230E
330
2
100
AcDbEntity
  8
0
100
AcDbCircle
 10
95.30255031997592
 20
322.8505644746663
 30
0.0
 40
2.049999999999998
100
AcDbArc
 50
171.9380399160178
 51
180.0
  0
ARC
  5
230F
330
2
100
AcDbEntity
  8
0
100
AcDbCircle
 10
95.30255031997592
 20
322.8505644746663
 30
0.0
 40
2.049999999999998
100
AcDbArc
 50
180.0
 51
188.0619600839821
  0
LINE
  5
2310
330
2
100
AcDbEntity
  8
0
100
AcDbLine
 10
91.30235131997597
 20
322.8505644746662
 30
0.0
 11
91.30235131997597
 21
326.3505644746662
 31
0.0
  0
ARC
  5
2311
330
2
100
AcDbEntity
  8
0
100
AcDbCircle
 10
93.27285031997599
 20
320.8208644746662
 30
0.0
 40
1.742199999999999
100
AcDbArc
 50
359.9986903345002
 51
90.00130966549649
  0
ARC
  5
2312
330
2
100
AcDbEntity
  8
0
100
AcDbCircle
 10
93.27285031997599
 20
324.8802644746662
 30
0.0
 40
1.742199999999999
100
AcDbArc
 50
269.9986903345002
 51
0.0013096654997424
  0
ARC
  5
2313
330
2
100
AcDbEntity
  8
0
100
AcDbCircle
 10
95.30255031997592
 20
322.8505644746663
 30
0.0
 40
2.049999999999998
100
AcDbArc
 50
0.0
 51
8.061960083982105
  0
ARC
  5
2314
330
2
100
AcDbEntity
  8
0
100
AcDbCircle
 10
95.30255031997592
 20
322.8505644746663
 30
0.0
 40
2.049999999999998
100
AcDbArc
 50
351.9380399160179
 51
0.0
  0
LINE
  5
2315
330
2
100
AcDbEntity
  8
0
100
AcDbLine
 10
608.7482443238041
 20
141.5229955477397
 30
0.0
 11
556.748237323804
 21
141.5229955477397
 31
0.0
  0
LINE
  5
2316
330
2
100
AcDbEntity
  8
CENTER
100
AcDbLine
 10
614.691993323804
 20
151.0229935477397
 30
0.0
 11
552.7959343600659
 21
151.0229935477397
 31
0.0
  0
LINE
  5
2317
330
2
100
AcDbEntity
  8
0
100
AcDbLine
 10
605.2482443238041
 20
129.5229955477397
 30
0.0
 11
558.748237323804
 21
129.5229955477397
 31
0.0
  0
LINE
  5
2318
330
2
100
AcDbEntity
  8
0
100
AcDbLine
 10
606.748244323804
 20
131.5229955477397
 30
0.0
 11
556.748237323804
 21
131.5229955477397
 31
0.0
  0
LINE
  5
231A
330
2
100
AcDbEntity
  8
0
100
AcDbLine
 10
564.2482377523749
 20
159.5229935477397
 30
0.0
 11
606.748244323804
 21
159.5229935477397
 31
0.0
  0
LINE
  5
231B
330
2
100
AcDbEntity
  8
0
100
AcDbLine
 10
561.5861461398294
 20
160.5229935477397
 30
0.0
 11
605.7482373238039
 21
160.5229935477397
 31
0.0
  0
LINE
  5
231C
330
2
100
AcDbEntity
  8
CENTER
100
AcDbLine
 10
581.748237323804
 20
124.8292945477397
 30
0.0
 11
581.748237323804
 21
165.9104935477397
 31
0.0
  0
LINE
  5
231D
330
2
100
AcDbEntity
  8
0
100
AcDbLine
 10
556.748237323804
 20
159.5229935477397
 30
0.0
 11
556.748237323804
 21
131.5229955477397
 31
0.0
  0
LINE
  5
231E
330
2
100
AcDbEntity
  8
0
100
AcDbLine
 10
344.196903654439
 20
159.5229925477397
 30
0.0
 11
344.196903654439
 21
144.486635085226
 31
0.0
  0
LINE
  5
2322
330
2
100
AcDbEntity
  8
0
100
AcDbLine
 10
558.748237323804
 20
129.5229955477397
 30
0.0
 11
556.748237323804
 21
131.5229955477397
 31
0.0
  0
LINE
  5
2323
330
2
100
AcDbEntity
  8
0
100
AcDbLine
 10
559.2482373238039
 20
129.5229955477397
 30
0.0
 11
559.2482373238039
 21
128.0229955477397
 31
0.0
  0
LINE
  5
2324
330
2
100
AcDbEntity
  8
0
100
AcDbLine
 10
344.1969186544389
 20
158.0229925477398
 30
0.0
 11
344.0989825155511
 21
159.1424077375581
 31
0.0
  0
LINE
  5
2325
330
2
100
AcDbEntity
  8
0
100
AcDbLine
 10
336.696903654439
 20
158.0229925477397
 30
0.0
 11
336.696903654439
 21
160.0229925477398
 31
0.0
  0
LINE
  5
2326
330
2
100
AcDbEntity
  8
0
100
AcDbLine
 10
337.196918654439
 20
158.0229925477398
 30
0.0
 11
337.2948547933269
 21
159.1424077375581
 31
0.0
  0
LINE
  5
2327
330
2
100
AcDbEntity
  8
0
100
AcDbLine
 10
336.696903654439
 20
158.0229925477397
 30
0.0
 11
344.196903654439
 21
158.0229925477398
 31
0.0
  0
ARC
  5
2328
330
2
100
AcDbEntity
  8
0
100
AcDbCircle
 10
340.696918654439
 20
151.6229925477398
 30
0.0
 40
9.0
100
AcDbArc
 50
74.11914999171883
 51
105.8808500082811
  0
LINE
  5
2329
330
2
100
AcDbEntity
  8
0
100
AcDbLine
 10
336.696903654439
 20
160.0229925477397
 30
0.0
 11
337.7519412648186
 21
160.0229925477397
 31
0.0
  0
LINE
  5
232A
330
2
100
AcDbEntity
  8
0
100
AcDbLine
 10
336.196903654439
 20
160.5229925477397
 30
0.0
 11
336.696903654439
 21
160.0229925477397
 31
0.0
  0
ARC
  5
232B
330
2
100
AcDbEntity
  8
0
100
AcDbCircle
 10
338.589907900846
 20
159.0291052719861
 30
0.0
 40
1.3
100
AcDbArc
 50
105.8808500082811
 51
175.0000000000002
  0
LINE
  5
232C
330
2
100
AcDbEntity
  8
0
100
AcDbLine
 10
343.196903654439
 20
160.5229925477397
 30
0.0
 11
344.196903654439
 21
159.5229925477397
 31
0.0
  0
ARC
  5
232D
330
2
100
AcDbEntity
  8
0
100
AcDbCircle
 10
342.8039294080319
 20
159.0291052719861
 30
0.0
 40
1.3
100
AcDbArc
 50
4.999999999999743
 51
74.11914999171883
  0
SPLINE
  5
232E
330
2
100
AcDbEntity
  8
0
100
AcDbSpline
210
0.0
220
0.0
230
1.0
 70
     8
 71
     3
 72
    11
 73
     7
 74
     0
 42
0.0000000001
 43
0.0000000001
 40
0.0
 40
0.0
 40
0.0
 40
0.0
 40
0.4601364636755307
 40
1.04988694485363
 40
1.713742833862792
 40
2.320347933405154
 40
2.320347933405154
 40
2.320347933405154
 40
2.320347933405179
 10
340.409418653984
 20
159.1059925477398
 30
0.0
 10
340.3870009968761
 20
159.2610159874196
 30
0.0
 10
340.3358509416429
 20
159.6147308053372
 30
0.0
 10
339.8999657801093
 20
160.0394584769389
 30
0.0
 10
339.2949150651018
 20
160.2586456569047
 30
0.0
 10
338.869730440926
 20
160.189654357294
 30
0.0
 10
338.6671788312749
 20
160.1754340851173
 30
0.0
  0
SPLINE
  5
232F
330
2
100
AcDbEntity
  8
0
100
AcDbSpline
210
0.0
220
0.0
230
1.0
 70
     8
 71
     3
 72
    11
 73
     7
 74
     0
 42
0.0000000001
 43
0.0000000001
 40
0.0
 40
0.0
 40
0.0
 40
0.0
 40
0.4601364636755307
 40
1.04988694485363
 40
1.713742833862792
 40
2.320347933405154
 40
2.320347933405154
 40
2.320347933405154
 40
2.320347933405179
 10
340.9844186548941
 20
159.1059925477398
 30
0.0
 10
341.0068363120018
 20
159.2610159874196
 30
0.0
 10
341.0579863672352
 20
159.6147308053372
 30
0.0
 10
341.4938715287687
 20
160.0394584769389
 30
0.0
 10
342.0989222437762
 20
160.2586456569047
 30
0.0
 10
342.524106867952
 20
160.189654357294
 30
0.0
 10
342.7266584776031
 20
160.1754340851173
 30
0.0
  0
LINE
  5
2330
330
2
100
AcDbEntity
  8
0
100
AcDbLine
 10
340.9844186548941
 20
159.1059925477398
 30
0.0
 11
340.409418653984
 21
159.1059925477398
 31
0.0
  0
LINE
  5
2331
330
2
100
AcDbEntity
  8
0
100
AcDbLine
 10
338.6671788312749
 20
160.1754340851173
 30
0.0
 11
338.646918654439
 21
160.386410830579
 31
0.0
  0
LINE
  5
2332
330
2
100
AcDbEntity
  8
0
100
AcDbLine
 10
342.7266584776031
 20
160.1754340851173
 30
0.0
 11
342.746918654439
 21
160.386410830579
 31
0.0
  0
LINE
  5
2333
330
2
100
AcDbEntity
  8
0
100
AcDbLine
 10
342.0348274704652
 20
160.5229925477397
 30
0.0
 11
343.196903654439
 21
160.5229925477397
 31
0.0
  0
LINE
  5
2334
330
2
100
AcDbEntity
  8
0
100
AcDbLine
 10
556.748237323804
 20
159.5229935477397
 30
0.0
 11
557.748237323804
 21
160.5229935477397
 31
0.0
  0
ARC
  5
2335
330
2
100
AcDbEntity
  8
0
100
AcDbCircle
 10
558.1412265702111
 20
159.029106271986
 30
0.0
 40
1.3
100
AcDbArc
 50
105.8808500082811
 51
175.0000000000002
  0
LINE
  5
2336
330
2
100
AcDbEntity
  8
0
100
AcDbLine
 10
564.2482377523749
 20
158.0229935477396
 30
0.0
 11
556.748237752375
 21
158.0229935477396
 31
0.0
  0
LINE
  5
2337
330
2
100
AcDbEntity
  8
0
100
AcDbLine
 10
556.748237323804
 20
158.0229935477396
 30
0.0
 11
556.8461734626919
 21
159.1424087375579
 31
0.0
  0
LINE
  5
2338
330
2
100
AcDbEntity
  8
0
100
AcDbLine
 10
564.2482377523749
 20
158.0229935477396
 30
0.0
 11
564.2482377523749
 21
160.0229935477397
 31
0.0
  0
LINE
  5
2339
330
2
100
AcDbEntity
  8
0
100
AcDbLine
 10
563.7482373238039
 20
158.0229935477396
 30
0.0
 11
563.6503011849161
 21
159.1424087375579
 31
0.0
  0
LINE
  5
233A
330
2
100
AcDbEntity
  8
0
100
AcDbLine
 10
564.748237752375
 20
160.5229935477396
 30
0.0
 11
564.2482377523749
 21
160.0229935477396
 31
0.0
  0
SPLINE
  5
233B
330
2
100
AcDbEntity
  8
0
100
AcDbSpline
210
0.0
220
0.0
230
1.0
 70
     8
 71
     3
 72
    11
 73
     7
 74
     0
 42
0.0000000001
 43
0.0000000001
 40
0.0
 40
0.0
 40
0.0
 40
0.0
 40
0.4601364636755307
 40
1.04988694485363
 40
1.713742833862792
 40
2.320347933405154
 40
2.320347933405154
 40
2.320347933405154
 40
2.320347933405179
 10
560.5357373242591
 20
159.1059935477396
 30
0.0
 10
560.5581549813669
 20
159.2610169874195
 30
0.0
 10
560.6093050366003
 20
159.614731805337
 30
0.0
 10
561.0451901981337
 20
160.0394594769387
 30
0.0
 10
561.6502409131412
 20
160.2586466569046
 30
0.0
 10
562.075425537317
 20
160.1896553572939
 30
0.0
 10
562.2779771469681
 20
160.1754350851172
 30
0.0
  0
LINE
  5
233C
330
2
100
AcDbEntity
  8
0
100
AcDbLine
 10
560.5357373242591
 20
159.1059935477396
 30
0.0
 11
559.960737323349
 21
159.1059935477396
 31
0.0
  0
LINE
  5
233D
330
2
100
AcDbEntity
  8
0
100
AcDbLine
 10
562.2779771469681
 20
160.1754350851172
 30
0.0
 11
562.298237323804
 21
160.3864118305788
 31
0.0
  0
ARC
  5
233E
330
2
100
AcDbEntity
  8
0
100
AcDbCircle
 10
562.3552480773969
 20
159.029106271986
 30
0.0
 40
1.3
100
AcDbArc
 50
4.999999999999743
 51
74.11914999171883
  0
LINE
  5
233F
330
2
100
AcDbEntity
  8
0
100
AcDbLine
 10
564.2482377523749
 20
160.0229935477396
 30
0.0
 11
563.1932147134242
 21
160.0229935477396
 31
0.0
  0
LINE
  5
2340
330
2
100
AcDbEntity
  8
0
100
AcDbLine
 10
557.748237323804
 20
160.5229935477397
 30
0.0
 11
558.9103285077786
 21
160.5229935477397
 31
0.0
  0
LINE
  5
2341
330
2
100
AcDbEntity
  8
0
100
AcDbLine
 10
558.2184975006399
 20
160.1754350851172
 30
0.0
 11
558.198237323804
 21
160.3864118305788
 31
0.0
  0
SPLINE
  5
2342
330
2
100
AcDbEntity
  8
0
100
AcDbSpline
210
0.0
220
0.0
230
1.0
 70
     8
 71
     3
 72
    11
 73
     7
 74
     0
 42
0.0000000001
 43
0.0000000001
 40
0.0
 40
0.0
 40
0.0
 40
0.0
 40
0.4601364636755307
 40
1.04988694485363
 40
1.713742833862792
 40
2.320347933405154
 40
2.320347933405154
 40
2.320347933405154
 40
2.320347933405179
 10
559.960737323349
 20
159.1059935477396
 30
0.0
 10
559.9383196662411
 20
159.2610169874195
 30
0.0
 10
559.8871696110079
 20
159.614731805337
 30
0.0
 10
559.4512844494743
 20
160.0394594769387
 30
0.0
 10
558.8462337344668
 20
160.2586466569046
 30
0.0
 10
558.421049110291
 20
160.1896553572939
 30
0.0
 10
558.2184975006399
 20
160.1754350851172
 30
0.0
  0
ARC
  5
2343
330
2
100
AcDbEntity
  8
0
100
AcDbCircle
 10
560.2482373238039
 20
151.6229935477396
 30
0.0
 40
9.0
100
AcDbArc
 50
74.11914999171883
 51
105.8808500082811
  0
LINE
  5
2344
330
2
100
AcDbEntity
  8
0
100
AcDbLine
 10
612.248229323804
 20
155.0229935477397
 30
0.0
 11
612.248229323804
 21
147.0229935477397
 31
0.0
  0
LINE
  5
2345
330
2
100
AcDbEntity
  8
0
100
AcDbLine
 10
608.748229323804
 20
157.5229935477397
 30
0.0
 11
608.7482443238041
 21
141.5229955477397
 31
0.0
  0
LINE
  5
2346
330
2
100
AcDbEntity
  8
0
100
AcDbLine
 10
606.748244323804
 20
159.5229935477397
 30
0.0
 11
606.748244323804
 21
131.5229955477397
 31
0.0
  0
LINE
  5
2348
330
2
100
AcDbEntity
  8
0
100
AcDbLine
 10
606.748244323804
 20
131.5229955477397
 30
0.0
 11
604.7482443238041
 21
129.5229955477397
 31
0.0
  0
LINE
  5
2349
330
2
100
AcDbEntity
  8
0
100
AcDbLine
 10
605.2482443238041
 20
129.5229955477397
 30
0.0
 11
605.2482443238041
 21
128.0229955477397
 31
0.0
  0
LINE
  5
234A
330
2
100
AcDbEntity
  8
0
100
AcDbLine
 10
612.2482443238041
 20
147.0229935477397
 30
0.0
 11
608.7482443238041
 21
145.5229935477397
 31
0.0
  0
LINE
  5
234B
330
2
100
AcDbEntity
  8
0
100
AcDbLine
 10
607.748244323804
 20
158.5229935477397
 30
0.0
 11
606.748244323804
 21
158.5229935477397
 31
0.0
  0
ARC
  5
234C
330
2
100
AcDbEntity
  8
0
100
AcDbCircle
 10
607.748229323804
 20
157.5229935477397
 30
0.0
 40
1.0
100
AcDbArc
 50
0.0
 51
90.0
  0
LINE
  5
234D
330
2
100
AcDbEntity
  8
0
100
AcDbLine
 10
612.248229323804
 20
155.0229935477397
 30
0.0
 11
608.748229323804
 21
156.5229935477397
 31
0.0
  0
LINE
  5
234E
330
2
100
AcDbEntity
  8
0
100
AcDbLine
 10
605.748244323804
 20
160.5229935477397
 30
0.0
 11
606.748244323804
 21
159.5229935477397
 31
0.0
  0
LINE
  5
238F
330
2
100
AcDbEntity
  8
0
100
AcDbLine
 10
53.64036713600149
 20
160.5229925477397
 30
0.0
 11
97.80245831997593
 21
160.5229925477397
 31
0.0
  0
LINE
  5
2390
330
2
100
AcDbEntity
  8
0
100
AcDbLine
 10
56.3024517485469
 20
159.5229925477397
 30
0.0
 11
98.80246531997602
 21
159.5229925477397
 31
0.0
  0
LINE
  5
2391
330
2
100
AcDbEntity
  8
0
100
AcDbLine
 10
50.30245131997594
 20
129.5229945477397
 30
0.0
 11
96.80245831997593
 21
129.5229945477397
 31
0.0
  0
LINE
  5
2392
330
2
100
AcDbEntity
  8
0
100
AcDbLine
 10
46.80245131997594
 20
141.5229945477397
 30
0.0
 11
98.80245831997592
 21
141.5229945477397
 31
0.0
  0
LINE
  5
2393
330
2
100
AcDbEntity
  8
0
100
AcDbLine
 10
48.80245131997594
 20
131.5229945477397
 30
0.0
 11
98.80245831997592
 21
131.5229945477397
 31
0.0
  0
LINE
  5
2394
330
2
100
AcDbEntity
  8
CENTER
100
AcDbLine
 10
40.85870231997591
 20
151.0229925477397
 30
0.0
 11
102.754761283714
 21
151.0229925477397
 31
0.0
  0
LINE
  5
2395
330
2
100
AcDbEntity
  8
CENTER
100
AcDbLine
 10
73.80245831997592
 20
124.8292935477397
 30
0.0
 11
73.80245831997592
 21
165.9104925477397
 31
0.0
  0
LINE
  5
2396
330
2
100
AcDbEntity
  8
0
100
AcDbLine
 10
48.80245131997594
 20
159.5229925477397
 30
0.0
 11
48.80245131997594
 21
131.5229945477397
 31
0.0
  0
LINE
  5
2397
330
2
100
AcDbEntity
  8
0
100
AcDbLine
 10
46.8024663199759
 20
157.5229925477397
 30
0.0
 11
46.80245131997594
 21
141.5229945477397
 31
0.0
  0
LINE
  5
2399
330
2
100
AcDbEntity
  8
0
100
AcDbLine
 10
48.80245131997594
 20
131.5229945477397
 30
0.0
 11
50.80245131997594
 21
129.5229945477397
 31
0.0
  0
LINE
  5
239A
330
2
100
AcDbEntity
  8
0
100
AcDbLine
 10
50.30245131997594
 20
129.5229945477397
 30
0.0
 11
50.30245131997594
 21
128.0229945477397
 31
0.0
  0
LINE
  5
239B
330
2
100
AcDbEntity
  8
0
100
AcDbLine
 10
43.3024663199759
 20
155.0229925477397
 30
0.0
 11
46.8024663199759
 21
156.5229925477397
 31
0.0
  0
LINE
  5
239C
330
2
100
AcDbEntity
  8
0
100
AcDbLine
 10
43.30245131997594
 20
147.0229925477397
 30
0.0
 11
46.80245131997594
 21
145.5229925477397
 31
0.0
  0
LINE
  5
239D
330
2
100
AcDbEntity
  8
0
100
AcDbLine
 10
43.3024663199759
 20
155.0229925477397
 30
0.0
 11
43.3024663199759
 21
147.0229925477397
 31
0.0
  0
ARC
  5
239E
330
2
100
AcDbEntity
  8
0
100
AcDbCircle
 10
52.30245831997604
 20
151.6229925477396
 30
0.0
 40
9.0
100
AcDbArc
 50
74.11914999171883
 51
105.8808500082811
  0
LINE
  5
239F
330
2
100
AcDbEntity
  8
0
100
AcDbLine
 10
52.58995832043104
 20
159.1059925477396
 30
0.0
 11
52.01495831952104
 21
159.1059925477396
 31
0.0
  0
LINE
  5
23A0
330
2
100
AcDbEntity
  8
0
100
AcDbLine
 10
56.3024517485469
 20
158.0229925477396
 30
0.0
 11
48.8024517485469
 21
158.0229925477397
 31
0.0
  0
SPLINE
  5
23A1
330
2
100
AcDbEntity
  8
0
100
AcDbSpline
210
0.0
220
0.0
230
1.0
 70
     8
 71
     3
 72
    11
 73
     7
 74
     0
 42
0.0000000001
 43
0.0000000001
 40
0.0
 40
0.0
 40
0.0
 40
0.0
 40
0.4601364636755307
 40
1.04988694485363
 40
1.713742833862792
 40
2.320347933405154
 40
2.320347933405154
 40
2.320347933405154
 40
2.320347933405179
 10
52.01495831952104
 20
159.1059925477396
 30
0.0
 10
51.99254066241315
 20
159.2610159874195
 30
0.0
 10
51.94139060717986
 20
159.6147308053371
 30
0.0
 10
51.50550544564623
 20
160.0394584769387
 30
0.0
 10
50.9004547306389
 20
160.2586456569046
 30
0.0
 10
50.47527010646297
 20
160.1896543572939
 30
0.0
 10
50.27271849681199
 20
160.1754340851172
 30
0.0
  0
LINE
  5
23A2
330
2
100
AcDbEntity
  8
0
100
AcDbLine
 10
50.27271849681199
 20
160.1754340851172
 30
0.0
 11
50.25245831997597
 21
160.3864108305788
 31
0.0
  0
LINE
  5
23A3
330
2
100
AcDbEntity
  8
0
100
AcDbLine
 10
49.8024517485469
 20
160.5229925477396
 30
0.0
 11
48.80245131997594
 21
159.5229925477397
 31
0.0
  0
LINE
  5
23A4
330
2
100
AcDbEntity
  8
0
100
AcDbLine
 10
48.80245131997594
 20
159.5229925477397
 30
0.0
 11
49.80245131997595
 21
160.5229925477397
 31
0.0
  0
LINE
  5
23A5
330
2
100
AcDbEntity
  8
0
100
AcDbLine
 10
49.80245131997595
 20
160.5229925477397
 30
0.0
 11
50.9645495039506
 21
160.5229925477397
 31
0.0
  0
ARC
  5
23A6
330
2
100
AcDbEntity
  8
0
100
AcDbCircle
 10
50.195447566383
 20
159.0291052719859
 30
0.0
 40
1.3
100
AcDbArc
 50
105.8808500082811
 51
175.0000000000002
  0
ARC
  5
23A7
330
2
100
AcDbEntity
  8
0
100
AcDbCircle
 10
47.80246631997591
 20
157.5229925477397
 30
0.0
 40
1.0
100
AcDbArc
 50
90.0
 51
180.0
  0
LINE
  5
23A8
330
2
100
AcDbEntity
  8
0
100
AcDbLine
 10
47.80245131997594
 20
158.5229925477397
 30
0.0
 11
48.80245131997594
 21
158.5229925477397
 31
0.0
  0
LINE
  5
23A9
330
2
100
AcDbEntity
  8
0
100
AcDbLine
 10
48.80245831997604
 20
158.0229925477397
 30
0.0
 11
48.90039445886384
 21
159.1424077375579
 31
0.0
  0
ARC
  5
23AA
330
2
100
AcDbEntity
  8
0
100
AcDbCircle
 10
54.40946907356885
 20
159.0291052719859
 30
0.0
 40
1.3
100
AcDbArc
 50
4.999999999999743
 51
74.11914999171883
  0
LINE
  5
23AB
330
2
100
AcDbEntity
  8
0
100
AcDbLine
 10
56.3024517485469
 20
160.0229925477396
 30
0.0
 11
55.24743570959618
 21
160.0229925477396
 31
0.0
  0
LINE
  5
23AC
330
2
100
AcDbEntity
  8
0
100
AcDbLine
 10
54.33219814314009
 20
160.1754340851172
 30
0.0
 11
54.35245831997611
 21
160.3864108305788
 31
0.0
  0
SPLINE
  5
23AD
330
2
100
AcDbEntity
  8
0
100
AcDbSpline
210
0.0
220
0.0
230
1.0
 70
     8
 71
     3
 72
    11
 73
     7
 74
     0
 42
0.0000000001
 43
0.0000000001
 40
0.0
 40
0.0
 40
0.0
 40
0.0
 40
0.4601364636755307
 40
1.04988694485363
 40
1.713742833862792
 40
2.320347933405154
 40
2.320347933405154
 40
2.320347933405154
 40
2.320347933405179
 10
52.58995832043104
 20
159.1059925477396
 30
0.0
 10
52.61237597753893
 20
159.2610159874195
 30
0.0
 10
52.66352603277221
 20
159.6147308053371
 30
0.0
 10
53.09941119430584
 20
160.0394584769387
 30
0.0
 10
53.70446190931318
 20
160.2586456569046
 30
0.0
 10
54.12964653348911
 20
160.1896543572939
 30
0.0
 10
54.33219814314009
 20
160.1754340851172
 30
0.0
  0
LINE
  5
23AE
330
2
100
AcDbEntity
  8
0
100
AcDbLine
 10
55.80245831997593
 20
158.0229925477397
 30
0.0
 11
55.70452218108812
 21
159.1424077375579
 31
0.0
  0
LINE
  5
23AF
330
2
100
AcDbEntity
  8
0
100
AcDbLine
 10
56.3024517485469
 20
158.0229925477396
 30
0.0
 11
56.3024517485469
 21
160.0229925477397
 31
0.0
  0
LINE
  5
23B0
330
2
100
AcDbEntity
  8
0
100
AcDbLine
 10
56.8024517485469
 20
160.5229925477396
 30
0.0
 11
56.3024517485469
 21
160.0229925477396
 31
0.0
  0
LINE
  5
23B2
330
2
100
AcDbEntity
  8
0
100
AcDbLine
 10
98.80245831997592
 20
159.5229925477397
 30
0.0
 11
98.80245831997592
 21
131.5229945477397
 31
0.0
  0
LINE
  5
23B3
330
2
100
AcDbEntity
  8
0
100
AcDbLine
 10
96.80245831997593
 20
129.5229945477397
 30
0.0
 11
98.80245831997592
 21
131.5229945477397
 31
0.0
  0
LINE
  5
23B4
330
2
100
AcDbEntity
  8
0
100
AcDbLine
 10
96.30245831997592
 20
129.5229945477397
 30
0.0
 11
96.30245831997592
 21
128.0229945477397
 31
0.0
  0
LINE
  5
23B5
330
2
100
AcDbEntity
  8
0
100
AcDbLine
 10
97.80246531997603
 20
160.5229925477397
 30
0.0
 11
98.80246531997602
 21
159.5229925477397
 31
0.0
  0
ARC
  5
24D4
330
2
100
AcDbEntity
  8
0
100
AcDbCircle
 10
352.1969186544391
 20
134.3229985477397
 30
0.0
 40
2.0
100
AcDbArc
 50
180.0
 51
270.0
  0
ARC
  5
24D5
330
2
100
AcDbEntity
  8
0
100
AcDbCircle
 10
352.1969186544391
 20
90.32299854773972
 30
0.0
 40
2.0
100
AcDbArc
 50
90.00000000000003
 51
180.0
  0
ARC
  5
24D6
330
2
100
AcDbEntity
  8
0
100
AcDbCircle
 10
286.1969186544388
 20
90.32299854773972
 30
0.0
 40
2.0
100
AcDbArc
 50
0.000000000000007
 51
89.99999999999998
  0
ARC
  5
24D7
330
2
100
AcDbEntity
  8
0
100
AcDbCircle
 10
286.1969186544388
 20
134.3229985477397
 30
0.0
 40
2.0
100
AcDbArc
 50
270.0
 51
0.000000000000007
  0
LINE
  5
24D8
330
2
100
AcDbEntity
  8
0
100
AcDbLine
 10
191.8024703199758
 20
266.3505654746663
 30
0.0
 11
153.8024663199759
 21
266.3505654746663
 31
0.0
  0
ARC
  5
24D9
330
2
100
AcDbEntity
  8
0
100
AcDbCircle
 10
194.802466319976
 20
268.3505644746661
 30
0.0
 40
2.0
100
AcDbArc
 50
90.00000000000003
 51
180.0
  0
LINE
  5
24DA
330
2
100
AcDbEntity
  8
0
100
AcDbLine
 10
192.8024703199758
 20
267.3505644746663
 30
0.0
 11
192.8024703199758
 21
268.3545644726421
 31
0.0
  0
ARC
  5
24DB
330
2
100
AcDbEntity
  8
0
100
AcDbCircle
 10
191.8024743199759
 20
267.3505644746663
 30
0.0
 40
1.0
100
AcDbArc
 50
270.0
 51
0.0
  0
ARC
  5
24DC
330
2
100
AcDbEntity
  8
0
100
AcDbCircle
 10
150.8024663199758
 20
268.3505644746661
 30
0.0
 40
2.0
100
AcDbArc
 50
0.0
 51
90.00000000000003
  0
LINE
  5
24DD
330
2
100
AcDbEntity
  8
0
100
AcDbLine
 10
152.8024663199759
 20
267.3505644746663
 30
0.0
 11
152.8024663199759
 21
268.3505644746661
 31
0.0
  0
ARC
  5
24DE
330
2
100
AcDbEntity
  8
0
100
AcDbCircle
 10
153.8024663199759
 20
267.3505644746663
 30
0.0
 40
1.0
100
AcDbArc
 50
180.0
 51
270.0
  0
ARC
  5
24DF
330
2
100
AcDbEntity
  8
0
100
AcDbCircle
 10
150.8024663199758
 20
334.3505644746664
 30
0.0
 40
2.0
100
AcDbArc
 50
270.0
 51
0.0
  0
ARC
  5
24E0
330
2
100
AcDbEntity
  8
0
100
AcDbCircle
 10
194.802466319976
 20
334.3505644746664
 30
0.0
 40
2.0
100
AcDbArc
 50
180.0
 51
270.0
  0
ENDSEC
  0
SECTION
  2
OBJECTS
  0
DICTIONARY
  5
7
330
0
100
AcDbDictionary
  3
ACAD_GROUP
350
75
  3
ACAD_LAYOUT
350
61
  3
ACAD_MLINESTYLE
350
76
  3
ACAD_PLOTSETTINGS
350
77
  3
ACAD_PLOTSTYLENAME
350
6
  3
ACADDIM
350
480
  3
ACDBHEADERROUNDTRIPXREC
350
251F
  3
ACDBVARIABLEDICTIONARY
350
102
  3
DWGPROPS
350
3D2
  0
DICTIONARY
  5
2540
330
2
100
AcDbDictionary
280
     1
  3
ACAD_LAYOUTSELFREF
360
2541
  0
DICTIONARY
  5
2542
330
2519
100
AcDbDictionary
280
     1
  3
ACAD_LAYOUTSELFREF
360
2543
  0
DICTIONARY
  5
75
102
{ACAD_REACTORS
330
7
102
}
330
7
100
AcDbDictionary
  0
DICTIONARY
  5
61
102
{ACAD_REACTORS
330
7
102
}
330
7
100
AcDbDictionary
  0
DICTIONARY
  5
76
102
{ACAD_REACTORS
330
7
102
}
330
7
100
AcDbDictionary
  3
STANDARD
350
78
  0
DICTIONARY
  5
77
102
{ACAD_REACTORS
330
7
102
}
330
7
100
AcDbDictionary
  0
ACDBDICTIONARYWDFLT
  5
6
102
{ACAD_REACTORS
330
7
102
}
330
7
100
AcDbDictionary
281
     1
  3
Normal
350
5
100
AcDbDictionaryWithDefault
340
5
  0
XRECORD
  5
480
102
{ACAD_REACTORS
330
7
102
}
330
7
100
AcDbXrecord
 90
   990106
  3

 60
     0
 61
     0
 62
     1
 63
     3
 64
     1
 65
     0
 66
     0
 67
     3
 68
     1
 69
     0
 70
     0
 71
     0
 72
     0
 40
0.0
170
     2
340
0
  0
DICTIONARY
  5
251F
102
{ACAD_REACTORS
330
7
102
}
330
7
100
AcDbDictionary
  3
CEPSNTYPE
350
2529
  3
DIMSTYLEDATA
350
252D
  3
FINGERPRINTGUID
350
252A
  3
HYPERLINKBASE
350
2522
  3
INSUNITS
350
2528
  3
LAYOUTDICT
350
2524
  3
LWETCUNION
350
2527
  3
PLOTSETDICT
350
2525
  3
PLOTSTYLNAMDICT
350
2526
  3
PSVPSCALE
350
252C
  3
PUCSBASE
350
2530
  3
PUCSORGBACK
350
2536
  3
PUCSORGBOTTOM
350
2532
  3
PUCSORGFRONT
350
2535
  3
PUCSORGLEFT
350
2533
  3
PUCSORGRIGHT
350
2534
  3
PUCSORGTOP
350
2531
  3
PUCSORTHOREF
350
252E
  3
PUCSORTHOVIEW
350
252F
  3
STYLESHEET
350
2523
  3
TSTACKALIGN
350
2520
  3
TSTACKSIZE
350
2521
  3
UCSBASE
350
2539
  3
UCSORGBACK
350
253F
  3
UCSORGBOTTOM
350
253B
  3
UCSORGFRONT
350
253E
  3
UCSORGLEFT
350
253C
  3
UCSORGRIGHT
350
253D
  3
UCSORGTOP
350
253A
  3
UCSORTHOREF
350
2537
  3
UCSORTHOVIEW
350
2538
  3
VERSIONGUID
350
252B
  0
DICTIONARY
  5
102
102
{ACAD_REACTORS
330
7
102
}
330
7
100
AcDbDictionary
  3
DIMASSOC
350
103
  0
XRECORD
  5
3D2
102
{ACAD_REACTORS
330
7
102
}
330
7
100
AcDbXrecord
  1
DWGPROPS COOKIE
  2

  3

  4

  6

  7

  8

  9

300
=
301
=
302
=
303
=
304
=
305
=
306
=
307
=
308
=
309
=
 40
0.5353330671296296
 41
2452052.431989363
 42
2453406.550756377
  1

 90
        0
  0
XRECORD
  5
2541
102
{ACAD_REACTORS
330
2540
102
}
330
2540
100
AcDbXrecord
340
2
  0
XRECORD
  5
2543
102
{ACAD_REACTORS
330
2542
102
}
330
2542
100
AcDbXrecord
340
2519
  0
MLINESTYLE
  5
78
102
{ACAD_REACTORS
330
76
102
}
330
76
100
AcDbMlineStyle
  2
STANDARD
 70
     0
  3

 62
     0
 51
90.0
 52
90.0
 71
     2
 49
0.5
 62
   256
  6
BYLAYER
 49
-0.5
 62
   256
  6
BYLAYER
  0
ACDBPLACEHOLDER
  5
5
102
{ACAD_REACTORS
330
6
102
}
330
6
100
AcDbPlaceHolder
280
     0
  0
XRECORD
  5
2529
102
{ACAD_REACTORS
330
251F
102
}
330
251F
100
AcDbXrecord
 90
        0
  0
XRECORD
  5
252D
102
{ACAD_REACTORS
330
251F
102
}
330
251F
100
AcDbXrecord
1000
DSTYLE
1002
{
1070
   179
 70
     2
1070
   277
 70
     6
1002
}
  0
XRECORD
  5
252A
102
{ACAD_REACTORS
330
251F
102
}
330
251F
100
AcDbXrecord
  1
{6385560B-F4B1-4644-A7C2-A3E32AC3D232}
  0
XRECORD
  5
2522
102
{ACAD_REACTORS
330
251F
102
}
330
251F
100
AcDbXrecord
  1

  0
XRECORD
  5
2528
102
{ACAD_REACTORS
330
251F
102
}
330
251F
100
AcDbXrecord
 90
        0
  0
XRECORD
  5
2524
102
{ACAD_REACTORS
330
251F
102
}
330
251F
100
AcDbXrecord
340
61
  0
XRECORD
  5
2527
102
{ACAD_REACTORS
330
251F
102
}
330
251F
100
AcDbXrecord
 90
    10781
  0
XRECORD
  5
2525
102
{ACAD_REACTORS
330
251F
102
}
330
251F
100
AcDbXrecord
340
77
  0
XRECORD
  5
2526
102
{ACAD_REACTORS
330
251F
102
}
330
251F
100
AcDbXrecord
340
6
  0
XRECORD
  5
252C
102
{ACAD_REACTORS
330
251F
102
}
330
251F
100
AcDbXrecord
 40
0.0
  0
XRECORD
  5
2530
102
{ACAD_REACTORS
330
251F
102
}
330
251F
100
AcDbXrecord
340
0
  0
XRECORD
  5
2536
102
{ACAD_REACTORS
330
251F
102
}
330
251F
100
AcDbXrecord
 10
0.0
 20
0.0
 30
0.0
  0
XRECORD
  5
2532
102
{ACAD_REACTORS
330
251F
102
}
330
251F
100
AcDbXrecord
 10
0.0
 20
0.0
 30
0.0
  0
XRECORD
  5
2535
102
{ACAD_REACTORS
330
251F
102
}
330
251F
100
AcDbXrecord
 10
0.0
 20
0.0
 30
0.0
  0
XRECORD
  5
2533
102
{ACAD_REACTORS
330
251F
102
}
330
251F
100
AcDbXrecord
 10
0.0
 20
0.0
 30
0.0
  0
XRECORD
  5
2534
102
{ACAD_REACTORS
330
251F
102
}
330
251F
100
AcDbXrecord
 10
0.0
 20
0.0
 30
0.0
  0
XRECORD
  5
2531
102
{ACAD_REACTORS
330
251F
102
}
330
251F
100
AcDbXrecord
 10
0.0
 20
0.0
 30
0.0
  0
XRECORD
  5
252E
102
{ACAD_REACTORS
330
251F
102
}
330
251F
100
AcDbXrecord
340
0
  0
XRECORD
  5
252F
102
{ACAD_REACTORS
330
251F
102
}
330
251F
100
AcDbXrecord
 70
     0
  0
XRECORD
  5
2523
102
{ACAD_REACTORS
330
251F
102
}
330
251F
100
AcDbXrecord
  1
Sekkei.ctb
  0
XRECORD
  5
2520
102
{ACAD_REACTORS
330
251F
102
}
330
251F
100
AcDbXrecord
 90
        1
  0
XRECORD
  5
2521
102
{ACAD_REACTORS
330
251F
102
}
330
251F
100
AcDbXrecord
 90
       70
  0
XRECORD
  5
2539
102
{ACAD_REACTORS
330
251F
102
}
330
251F
100
AcDbXrecord
340
0
  0
XRECORD
  5
253F
102
{ACAD_REACTORS
330
251F
102
}
330
251F
100
AcDbXrecord
 10
0.0
 20
0.0
 30
0.0
  0
XRECORD
  5
253B
102
{ACAD_REACTORS
330
251F
102
}
330
251F
100
AcDbXrecord
 10
0.0
 20
0.0
 30
0.0
  0
XRECORD
  5
253E
102
{ACAD_REACTORS
330
251F
102
}
330
251F
100
AcDbXrecord
 10
0.0
 20
0.0
 30
0.0
  0
XRECORD
  5
253C
102
{ACAD_REACTORS
330
251F
102
}
330
251F
100
AcDbXrecord
 10
0.0
 20
0.0
 30
0.0
  0
XRECORD
  5
253D
102
{ACAD_REACTORS
330
251F
102
}
330
251F
100
AcDbXrecord
 10
0.0
 20
0.0
 30
0.0
  0
XRECORD
  5
253A
102
{ACAD_REACTORS
330
251F
102
}
330
251F
100
AcDbXrecord
 10
0.0
 20
0.0
 30
0.0
  0
XRECORD
  5
2537
102
{ACAD_REACTORS
330
251F
102
}
330
251F
100
AcDbXrecord
340
0
  0
XRECORD
  5
2538
102
{ACAD_REACTORS
330
251F
102
}
330
251F
100
AcDbXrecord
 70
     0
  0
XRECORD
  5
252B
102
{ACAD_REACTORS
330
251F
102
}
330
251F
100
AcDbXrecord
  1
{62358F04-1E2F-4766-B99C-A6021AC7AF4B}
  0
DICTIONARYVAR
  5
103
102
{ACAD_REACTORS
330
102
102
}
330
102
100
DictionaryVariables
280
     0
  1
1
  0
ENDSEC
  0
EOF
