  0
SECTION
  2
HEADER
  9
$ACADVER
  1
AC1014
  9
$ACADMAINTVER
 70
     9
  9
$DWGCODEPAGE
  3
ANSI_932
  9
$INSBASE
 10
0.0
 20
0.0
 30
0.0
  9
$EXTMIN
 10
34.98560778128563
 20
42.73653744718714
 30
0.0
  9
$EXTMAX
 10
452.2287316459169
 20
340.1927784471872
 30
0.0
  9
$LIMMIN
 10
0.0
 20
0.0
  9
$LIMMAX
 10
297.0
 20
210.0
  9
$ORTHOMODE
 70
     1
  9
$REGENMODE
 70
     1
  9
$FILLMODE
 70
     1
  9
$QTEXTMODE
 70
     0
  9
$MIRRTEXT
 70
     0
  9
$DRAGMODE
 70
     2
  9
$LTSCALE
 40
2.0
  9
$OSMODE
 70
    37
  9
$ATTMODE
 70
     1
  9
$TEXTSIZE
 40
2.0
  9
$TRACEWID
 40
1.0
  9
$TEXTSTYLE
  7
STANDARD
  9
$CLAYER
  8
0
  9
$CELTYPE
  6
BYLAYER
  9
$CECOLOR
 62
   256
  9
$CELTSCALE
 40
1.0
  9
$DELOBJ
 70
     1
  9
$DISPSILH
 70
     0
  9
$DIMSCALE
 40
2.0
  9
$DIMASZ
 40
1.8
  9
$DIMEXO
 40
0.625
  9
$DIMDLI
 40
3.75
  9
$DIMRND
 40
0.0
  9
$DIMDLE
 40
0.0
  9
$DIMEXE
 40
0.8
  9
$DIMTP
 40
0.0
  9
$DIMTM
 40
0.0
  9
$DIMTXT
 40
1.8
  9
$DIMCEN
 40
2.5
  9
$DIMTSZ
 40
0.0
  9
$DIMTOL
 70
     0
  9
$DIMLIM
 70
     0
  9
$DIMTIH
 70
     0
  9
$DIMTOH
 70
     0
  9
$DIMSE1
 70
     0
  9
$DIMSE2
 70
     0
  9
$DIMTAD
 70
     1
  9
$DIMZIN
 70
     8
  9
$DIMBLK
  1

  9
$DIMASO
 70
     1
  9
$DIMSHO
 70
     1
  9
$DIMPOST
  1

  9
$DIMAPOST
  1

  9
$DIMALT
 70
     0
  9
$DIMALTD
 70
     4
  9
$DIMALTF
 40
0.0394
  9
$DIMLFAC
 40
1.0
  9
$DIMTOFL
 70
     1
  9
$DIMTVP
 40
0.0
  9
$DIMTIX
 70
     0
  9
$DIMSOXD
 70
     0
  9
$DIMSAH
 70
     0
  9
$DIMBLK1
  1

  9
$DIMBLK2
  1

  9
$DIMSTYLE
  2
STANDARD
  9
$DIMCLRD
 70
     0
  9
$DIMCLRE
 70
     0
  9
$DIMCLRT
 70
     0
  9
$DIMTFAC
 40
1.0
  9
$DIMGAP
 40
0.75
  9
$DIMJUST
 70
     0
  9
$DIMSD1
 70
     0
  9
$DIMSD2
 70
     0
  9
$DIMTOLJ
 70
     1
  9
$DIMTZIN
 70
     0
  9
$DIMALTZ
 70
     0
  9
$DIMALTTZ
 70
     0
  9
$DIMFIT
 70
     3
  9
$DIMUPT
 70
     0
  9
$DIMUNIT
 70
     8
  9
$DIMDEC
 70
     2
  9
$DIMTDEC
 70
     2
  9
$DIMALTU
 70
     8
  9
$DIMALTTD
 70
     4
  9
$DIMTXSTY
  7
STANDARD
  9
$DIMAUNIT
 70
     0
  9
$LUNITS
 70
     2
  9
$LUPREC
 70
     3
  9
$SKETCHINC
 40
1.0
  9
$FILLETRAD
 40
10.0
  9
$AUNITS
 70
     0
  9
$AUPREC
 70
     2
  9
$MENU
  1
.
  9
$ELEVATION
 40
0.0
  9
$PELEVATION
 40
0.0
  9
$THICKNESS
 40
0.0
  9
$LIMCHECK
 70
     0
  9
$BLIPMODE
 70
     0
  9
$CHAMFERA
 40
0.0
  9
$CHAMFERB
 40
0.0
  9
$CHAMFERC
 40
20.0
  9
$CHAMFERD
 40
0.0
  9
$SKPOLY
 70
     0
  9
$TDCREATE
 40
2453752.650018808
  9
$TDUPDATE
 40
2454399.551429571
  9
$TDINDWG
 40
0.1603804977
  9
$TDUSRTIMER
 40
0.1603804977
  9
$USRTIMER
 70
     1
  9
$ANGBASE
 50
0.0
  9
$ANGDIR
 70
     0
  9
$PDMODE
 70
     0
  9
$PDSIZE
 40
-10.0
  9
$PLINEWID
 40
0.0
  9
$COORDS
 70
     1
  9
$SPLFRAME
 70
     0
  9
$SPLINETYPE
 70
     6
  9
$SPLINESEGS
 70
     8
  9
$ATTDIA
 70
     0
  9
$ATTREQ
 70
     1
  9
$HANDLING
 70
-16383
  9
$HANDSEED
  5
FCB
  9
$SURFTAB1
 70
     6
  9
$SURFTAB2
 70
     6
  9
$SURFTYPE
 70
     6
  9
$SURFU
 70
     6
  9
$SURFV
 70
     6
  9
$UCSNAME
  2

  9
$UCSORG
 10
0.0
 20
0.0
 30
0.0
  9
$UCSXDIR
 10
1.0
 20
0.0
 30
0.0
  9
$UCSYDIR
 10
0.0
 20
1.0
 30
0.0
  9
$PUCSNAME
  2

  9
$PUCSORG
 10
0.0
 20
0.0
 30
0.0
  9
$PUCSXDIR
 10
1.0
 20
0.0
 30
0.0
  9
$PUCSYDIR
 10
0.0
 20
1.0
 30
0.0
  9
$USERI1
 70
     0
  9
$USERI2
 70
     0
  9
$USERI3
 70
     0
  9
$USERI4
 70
     0
  9
$USERI5
 70
     0
  9
$USERR1
 40
0.0
  9
$USERR2
 40
0.0
  9
$USERR3
 40
0.0
  9
$USERR4
 40
0.0
  9
$USERR5
 40
0.0
  9
$WORLDVIEW
 70
     1
  9
$SHADEDGE
 70
     3
  9
$SHADEDIF
 70
    70
  9
$TILEMODE
 70
     1
  9
$MAXACTVP
 70
    48
  9
$PINSBASE
 10
0.0
 20
0.0
 30
0.0
  9
$PLIMCHECK
 70
     0
  9
$PEXTMIN
 10
0.0
 20
0.0
 30
0.0
  9
$PEXTMAX
 10
0.0
 20
0.0
 30
0.0
  9
$PLIMMIN
 10
0.0
 20
0.0
  9
$PLIMMAX
 10
12.0
 20
9.0
  9
$UNITMODE
 70
     0
  9
$VISRETAIN
 70
     1
  9
$PLINEGEN
 70
     0
  9
$PSLTSCALE
 70
     1
  9
$TREEDEPTH
 70
  3020
  9
$PICKSTYLE
 70
     1
  9
$CMLSTYLE
  2
STANDARD
  9
$CMLJUST
 70
     0
  9
$CMLSCALE
 40
1.0
  9
$PROXYGRAPHICS
 70
     1
  9
$MEASUREMENT
 70
     0
  0
ENDSEC
  0
SECTION
  2
CLASSES
  0
CLASS
  1
DICTIONARYVAR
  2
AcDbDictionaryVar
  3
AutoCAD 2000
 90
        0
280
     0
281
     0
  0
CLASS
  1
ACDBDICTIONARYWDFLT
  2
AcDbDictionaryWithDefault
  3
AutoCAD 2000
 90
        0
280
     0
281
     0
  0
CLASS
  1
ACDBPLACEHOLDER
  2
AcDbPlaceHolder
  3
AutoCAD 2000
 90
        0
280
     0
281
     0
  0
CLASS
  1
LAYOUT
  2
AcDbLayout
  3
AutoCAD 2000
 90
        0
280
     0
281
     0
  0
CLASS
  1
LONG_TRANSACTION
  2
AcDbLongTransaction
  3
AutoCAD 2000
 90
        0
280
     0
281
     0
  0
CLASS
  1
LWPOLYLINE
  2
AcDbPolyline
  3
AutoCAD 2000
 90
        0
280
     0
281
     1
  0
CLASS
  1
HATCH
  2
AcDbHatch
  3
AutoCAD 2000
 90
        0
280
     0
281
     1
  0
CLASS
  1
XRECORD
  2
AcDbXrecord
  3
AutoCAD 2000
 90
        0
280
     0
281
     0
  0
ENDSEC
  0
SECTION
  2
TABLES
  0
TABLE
  2
VPORT
  5
6E
330
0
100
AcDbSymbolTable
 70
     2
  0
VPORT
  5
FA5
330
6E
100
AcDbSymbolTableRecord
100
AcDbViewportTableRecord
  2
*ACTIVE
 70
     0
 10
0.0
 20
0.0
 11
1.0
 21
1.0
 12
236.9653446795516
 22
179.7904515160591
 13
0.0
 23
0.0
 14
10.0
 24
10.0
 15
10.0
 25
10.0
 16
0.0
 26
0.0
 36
1.0
 17
0.0
 27
0.0
 37
0.0
 40
323.2838514965866
 41
1.540920716112531
 42
50.0
 43
0.0
 44
0.0
 50
0.0
 51
0.0
 71
     0
 72
   100
 73
     1
 74
     3
 75
     0
 76
     0
 77
     0
 78
     0
  0
ENDTAB
  0
TABLE
  2
LTYPE
  5
69
330
0
100
AcDbSymbolTable
 70
     4
  0
LTYPE
  5
6A
330
69
100
AcDbSymbolTableRecord
100
AcDbLinetypeTableRecord
  2
BYBLOCK
 70
     0
  3

 72
    65
 73
     0
 40
0.0
  0
LTYPE
  5
6B
330
69
100
AcDbSymbolTableRecord
100
AcDbLinetypeTableRecord
  2
BYLAYER
 70
     0
  3

 72
    65
 73
     0
 40
0.0
  0
LTYPE
  5
8
330
69
100
AcDbSymbolTableRecord
100
AcDbLinetypeTableRecord
  2
CONTINUOUS
 70
     0
  3
Solid line
 72
    65
 73
     0
 40
0.0
  0
LTYPE
  5
27C
330
69
100
AcDbSymbolTableRecord
100
AcDbLinetypeTableRecord
  2
SEKKEI_A2_
 70
     0
  3
center(A2)  ____ _ ____ _ ____ _ ____ _ ____ _ 
 72
    65
 73
     4
 40
14.28749999999999
 49
9.525
 74
     0
 49
-1.587499999999999
 74
     0
 49
1.587499999999999
 74
     0
 49
-1.587499999999999
 74
     0
  0
LTYPE
  5
2B4
330
69
100
AcDbSymbolTableRecord
100
AcDbLinetypeTableRecord
  2
HIDDEN2
 70
     0
  3
Hidden (.5x) _ _ _ _ _ _ _ _ _ _ _ _ _ _ _ _ _
 72
    65
 73
     2
 40
4.762499999999999
 49
3.174999999999999
 74
     0
 49
-1.587499999999999
 74
     0
  0
LTYPE
  5
48F
330
69
100
AcDbSymbolTableRecord
100
AcDbLinetypeTableRecord
  2
SEKKEI_H
 70
     0
  3
Hidden-S _ _ _ _ _ _ _ _ _ _ _ _ _ _ _ _ _
 72
    65
 73
     2
 40
2.381249999999999
 49
1.587499999999999
 74
     0
 49
-0.79375
 74
     0
  0
ENDTAB
  0
TABLE
  2
LAYER
  5
66
330
0
100
AcDbSymbolTable
 70
     9
  0
LAYER
  5
5E
330
66
100
AcDbSymbolTableRecord
100
AcDbLayerTableRecord
  2
0
 70
     0
 62
     7
  6
CONTINUOUS
  0
LAYER
  5
3E
330
66
100
AcDbSymbolTableRecord
100
AcDbLayerTableRecord
  2
CENTER
 70
     0
 62
     3
  6
SEKKEI_A2_
  0
LAYER
  5
2B5
330
66
100
AcDbSymbolTableRecord
100
AcDbLayerTableRecord
  2
HIDS
 70
     0
 62
     1
  6
HIDDEN2
  0
LAYER
  5
2BA
330
66
100
AcDbSymbolTableRecord
100
AcDbLayerTableRecord
  2
HOJO
 70
     0
 62
     4
  6
CONTINUOUS
  0
LAYER
  5
3FA
330
66
100
AcDbSymbolTableRecord
100
AcDbLayerTableRecord
  2
TITLE
 70
     0
 62
     4
  6
CONTINUOUS
  0
ENDTAB
  0
TABLE
  2
STYLE
  5
67
330
0
100
AcDbSymbolTable
 70
     1
  0
STYLE
  5
16
330
67
100
AcDbSymbolTableRecord
100
AcDbTextStyleTableRecord
  2
STANDARD
 70
     0
 40
0.0
 41
1.0
 50
0.0
 71
     0
 42
2.0
  3
simplex.shx
  4
extfont.shx
  0
ENDTAB
  0
TABLE
  2
VIEW
  5
6C
330
0
100
AcDbSymbolTable
 70
     0
  0
ENDTAB
  0
TABLE
  2
UCS
  5
6D
330
0
100
AcDbSymbolTable
 70
     0
  0
ENDTAB
  0
TABLE
  2
APPID
  5
70
330
0
100
AcDbSymbolTable
 70
     1
  0
APPID
  5
71
330
70
100
AcDbSymbolTableRecord
100
AcDbRegAppTableRecord
  2
ACAD
 70
     0
  0
ENDTAB
  0
TABLE
  2
DIMSTYLE
  5
72
330
0
100
AcDbSymbolTable
 70
     1
  0
DIMSTYLE
105
73
330
72
100
AcDbSymbolTableRecord
100
AcDbDimStyleTableRecord
  2
STANDARD
 70
     0
  3

  4

  5

  6

  7

 40
2.0
 41
1.8
 42
0.625
 43
3.75
 44
0.8
 45
0.0
 46
0.0
 47
0.0
 48
0.0
140
1.8
141
2.5
142
0.0
143
0.0394
144
1.0
145
0.0
146
1.0
147
0.75
 71
     0
 72
     0
 73
     0
 74
     0
 75
     0
 76
     0
 77
     1
 78
     8
170
     0
171
     4
172
     1
173
     0
174
     0
175
     0
176
     0
177
     0
178
     0
270
     8
271
     2
272
     2
273
     8
274
     4
340
16
275
     0
280
     0
281
     0
282
     0
283
     1
284
     0
285
     0
286
     0
287
     3
288
     0
  0
ENDTAB
  0
TABLE
  2
BLOCK_RECORD
  5
1
330
0
100
AcDbSymbolTable
 70
    42
  0
BLOCK_RECORD
  5
2
102
{ACAD_XDICTIONARY
360
FC7
102
}
330
1
100
AcDbSymbolTableRecord
100
AcDbBlockTableRecord
  2
*MODEL_SPACE
  0
BLOCK_RECORD
  5
FA0
102
{ACAD_XDICTIONARY
360
FC9
102
}
330
1
100
AcDbSymbolTableRecord
100
AcDbBlockTableRecord
  2
*PAPER_SPACE
  0
ENDTAB
  0
ENDSEC
  0
SECTION
  2
BLOCKS
  0
BLOCK
  5
5D
330
2
100
AcDbEntity
  8
0
100
AcDbBlockBegin
  2
*MODEL_SPACE
 70
     0
 10
0.0
 20
0.0
 30
0.0
  3
*MODEL_SPACE
  1

  0
ENDBLK
  5
5F
330
2
100
AcDbEntity
  8
0
100
AcDbBlockEnd
  0
BLOCK
  5
FA2
330
FA0
100
AcDbEntity
 67
     1
  8
0
100
AcDbBlockBegin
  2
*PAPER_SPACE
 70
     0
 10
0.0
 20
0.0
 30
0.0
  3
*PAPER_SPACE
  1

  0
ENDBLK
  5
FA3
330
FA0
100
AcDbEntity
 67
     1
  8
0
100
AcDbBlockEnd
  0
ENDSEC
  0
SECTION
  2
ENTITIES
  0
LINE
  5
607
330
2
100
AcDbEntity
  8
0
100
AcDbLine
 10
215.4856047812856
 20
333.1927784471871
 30
0.0
 11
254.2171267812856
 21
333.1927784471871
 31
0.0
  0
LINE
  5
608
330
2
100
AcDbEntity
  8
0
100
AcDbLine
 10
234.4856047812856
 20
251.1927944471871
 30
0.0
 11
196.4856047812856
 21
251.1927944471871
 31
0.0
  0
LINE
  5
609
330
2
100
AcDbEntity
  8
0
100
AcDbLine
 10
206.9856047812856
 20
249.1927944471871
 30
0.0
 11
223.9856047812856
 21
249.1927944471871
 31
0.0
  0
LINE
  5
60A
330
2
100
AcDbEntity
  8
0
100
AcDbLine
 10
207.9856047812856
 20
222.1927944471871
 30
0.0
 11
224.9856047812856
 21
222.1927944471871
 31
0.0
  0
LINE
  5
60B
330
2
100
AcDbEntity
  8
0
100
AcDbLine
 10
175.4921047812856
 20
255.192794447187
 30
0.0
 11
255.4791047812856
 21
255.192794447187
 31
0.0
  0
LINE
  5
60C
330
2
100
AcDbEntity
  8
0
100
AcDbLine
 10
175.4921047812856
 20
317.1927784471871
 30
0.0
 11
255.4791047812856
 21
317.1927784471871
 31
0.0
  0
LINE
  5
60D
330
2
100
AcDbEntity
  8
CENTER
100
AcDbLine
 10
34.98560778128572
 20
286.1927944471871
 30
0.0
 11
264.9856047812857
 21
286.1927944471871
 31
0.0
  0
LINE
  5
60E
330
2
100
AcDbEntity
  8
0
100
AcDbLine
 10
221.8606047812856
 20
87.12862744718714
 30
0.0
 11
222.3337037812856
 21
87.12862744718714
 31
0.0
  0
LINE
  5
60F
330
2
100
AcDbEntity
  8
0
100
AcDbLine
 10
223.8652127812856
 20
78.73653744718715
 30
0.0
 11
221.8606047812856
 21
78.73653744718715
 31
0.0
  0
LINE
  5
610
330
2
100
AcDbEntity
  8
0
100
AcDbLine
 10
221.8606047812856
 20
79.73262744718716
 30
0.0
 11
222.3337037812856
 21
79.73262744718716
 31
0.0
  0
LINE
  5
611
330
2
100
AcDbEntity
  8
0
100
AcDbLine
 10
221.8606047812856
 20
88.29903744718714
 30
0.0
 11
225.6831147812856
 21
88.29903744718714
 31
0.0
  0
CIRCLE
  5
612
330
2
100
AcDbEntity
  8
0
100
AcDbCircle
 10
215.4856047812856
 20
114.7365414471871
 30
0.0
 40
20.0
  0
ARC
  5
613
330
2
100
AcDbEntity
  8
0
100
AcDbCircle
 10
215.4856047812856
 20
114.7365414471871
 30
0.0
 40
7.5
100
AcDbArc
 50
19.47121000000005
 51
340.5288089999999
  0
LINE
  5
614
330
2
100
AcDbEntity
  8
0
100
AcDbLine
 10
219.9856047812856
 20
112.2365414471871
 30
0.0
 11
224.9856047812856
 21
112.2365414471871
 31
0.0
  0
LINE
  5
615
330
2
100
AcDbEntity
  8
0
100
AcDbLine
 10
219.9856047812856
 20
117.2365414471871
 30
0.0
 11
224.9856047812856
 21
117.2365414471871
 31
0.0
  0
ARC
  5
616
330
2
100
AcDbEntity
  8
0
100
AcDbCircle
 10
215.4856047812856
 20
101.7365374471871
 30
0.0
 40
42.5
100
AcDbArc
 50
19.749901
 51
160.2501069999997
  0
ARC
  5
617
330
2
100
AcDbEntity
  8
0
100
AcDbCircle
 10
215.4856047812856
 20
101.7365374471871
 30
0.0
 40
42.5
100
AcDbArc
 50
199.7498930000002
 51
340.2500920000002
  0
LINE
  5
618
330
2
100
AcDbEntity
  8
0
100
AcDbLine
 10
174.9856047812856
 20
57.73653744718714
 30
0.0
 11
255.9856047812857
 21
57.73653744718714
 31
0.0
  0
LINE
  5
619
330
2
100
AcDbEntity
  8
0
100
AcDbLine
 10
202.0651027812856
 20
147.3365394471871
 30
0.0
 11
228.9061067812856
 21
147.3365394471871
 31
0.0
  0
LINE
  5
61A
330
2
100
AcDbEntity
  8
0
100
AcDbLine
 10
172.9856047812856
 20
49.73653744718714
 30
0.0
 11
257.9856047812857
 21
49.73653744718714
 31
0.0
  0
LINE
  5
61B
330
2
100
AcDbEntity
  8
CENTER
100
AcDbLine
 10
188.7356672888835
 20
114.7365414471871
 30
0.0
 11
242.7355422736876
 21
114.7365414471871
 31
0.0
  0
LINE
  5
61C
330
2
100
AcDbEntity
  8
0
100
AcDbLine
 10
100.4855587812856
 20
62.18753744718715
 30
0.0
 11
172.9856047812856
 21
62.18753744718715
 31
0.0
  0
LINE
  5
61D
330
2
100
AcDbEntity
  8
0
100
AcDbLine
 10
100.4855587812856
 20
122.6855384471871
 30
0.0
 11
172.9856047812856
 21
122.6855384471871
 31
0.0
  0
LINE
  5
61E
330
2
100
AcDbEntity
  8
0
100
AcDbLine
 10
100.4856087812856
 20
54.43653744718715
 30
0.0
 11
172.9856047812856
 21
54.43653744718715
 31
0.0
  0
LINE
  5
61F
330
2
100
AcDbEntity
  8
0
100
AcDbLine
 10
100.4856087812856
 20
130.4365384471871
 30
0.0
 11
176.4053127812856
 21
130.4365384471871
 31
0.0
  0
LINE
  5
620
330
2
100
AcDbEntity
  8
CENTER
100
AcDbLine
 10
34.98560778128563
 20
92.43653844718716
 30
0.0
 11
192.2356047812856
 21
92.43653844718716
 31
0.0
  0
LINE
  5
621
330
2
100
AcDbEntity
  8
0
100
AcDbLine
 10
100.4856087812856
 20
54.43653744718715
 30
0.0
 11
100.4856087812856
 21
130.4365384471871
 31
0.0
  0
LINE
  5
622
330
2
100
AcDbEntity
  8
0
100
AcDbLine
 10
41.98560778128563
 20
57.43653744718715
 30
0.0
 11
41.98560778128563
 21
127.4365384471871
 31
0.0
  0
LINE
  5
623
330
2
100
AcDbEntity
  8
0
100
AcDbLine
 10
90.98560878128564
 20
52.43653744718715
 30
0.0
 11
90.98560878128564
 21
132.4365384471871
 31
0.0
  0
ARC
  5
624
330
2
100
AcDbEntity
  8
0
100
AcDbCircle
 10
46.98560778128563
 20
57.43653744718715
 30
0.0
 40
5.0
100
AcDbArc
 50
180.0
 51
270.0
  0
LINE
  5
625
330
2
100
AcDbEntity
  8
0
100
AcDbLine
 10
44.48560778128563
 20
68.43653844718715
 30
0.0
 11
90.98560878128564
 21
68.43653844718715
 31
0.0
  0
LINE
  5
626
330
2
100
AcDbEntity
  8
0
100
AcDbLine
 10
46.98560878128563
 20
52.43653744718715
 30
0.0
 11
90.98560878128564
 21
52.43653744718715
 31
0.0
  0
LINE
  5
627
330
2
100
AcDbEntity
  8
0
100
AcDbLine
 10
90.98560878128564
 20
62.18753744718715
 30
0.0
 11
100.4856087812856
 21
62.18753744718715
 31
0.0
  0
LINE
  5
628
330
2
100
AcDbEntity
  8
0
100
AcDbLine
 10
90.98560878128564
 20
54.43653744718715
 30
0.0
 11
100.4856087812856
 21
54.43653744718715
 31
0.0
  0
ARC
  5
629
330
2
100
AcDbEntity
  8
0
100
AcDbCircle
 10
46.98563278128562
 20
127.4365604471871
 30
0.0
 40
5.0
100
AcDbArc
 50
90.0
 51
180.0
  0
LINE
  5
62A
330
2
100
AcDbEntity
  8
0
100
AcDbLine
 10
44.48560778128563
 20
118.4365384471871
 30
0.0
 11
90.98560878128564
 21
118.4365384471871
 31
0.0
  0
LINE
  5
62B
330
2
100
AcDbEntity
  8
0
100
AcDbLine
 10
46.98560778128563
 20
132.4365384471871
 30
0.0
 11
90.98560878128564
 21
132.4365384471871
 31
0.0
  0
LINE
  5
62C
330
2
100
AcDbEntity
  8
0
100
AcDbLine
 10
100.1856097812856
 20
144.3115384471871
 30
0.0
 11
100.1856097812856
 21
131.9365384471871
 31
0.0
  0
LINE
  5
62D
330
2
100
AcDbEntity
  8
0
100
AcDbLine
 10
94.78560778128565
 20
143.4990384471871
 30
0.0
 11
94.78560778128565
 21
131.9365384471871
 31
0.0
  0
LINE
  5
62E
330
2
100
AcDbEntity
  8
0
100
AcDbLine
 10
96.58560678128566
 20
145.5615384471871
 30
0.0
 11
96.58560678128566
 21
131.9365384471871
 31
0.0
  0
LINE
  5
62F
330
2
100
AcDbEntity
  8
0
100
AcDbLine
 10
98.38561778128564
 20
144.9365384471871
 30
0.0
 11
98.38561778128564
 21
131.9365384471871
 31
0.0
  0
LINE
  5
630
330
2
100
AcDbEntity
  8
0
100
AcDbLine
 10
90.98560878128564
 20
122.6855384471871
 30
0.0
 11
100.4856087812856
 21
122.6855384471871
 31
0.0
  0
LINE
  5
631
330
2
100
AcDbEntity
  8
0
100
AcDbLine
 10
93.98560878128563
 20
131.9365384471871
 30
0.0
 11
100.9856047812856
 21
131.9365384471871
 31
0.0
  0
LINE
  5
632
330
2
100
AcDbEntity
  8
0
100
AcDbLine
 10
90.98560878128564
 20
130.4365384471871
 30
0.0
 11
100.4856087812856
 21
130.4365384471871
 31
0.0
  0
LINE
  5
633
330
2
100
AcDbEntity
  8
0
100
AcDbLine
 10
93.98560878128563
 20
131.9365384471871
 30
0.0
 11
93.98560878128563
 21
130.4365384471871
 31
0.0
  0
LINE
  5
634
330
2
100
AcDbEntity
  8
0
100
AcDbLine
 10
100.9856047812856
 20
131.9365384471871
 30
0.0
 11
100.9856047812856
 21
130.4365384471871
 31
0.0
  0
LINE
  5
635
330
2
100
AcDbEntity
  8
HOJO
100
AcDbLine
 10
96.58560678128566
 20
145.5615384471871
 30
0.0
 11
98.38561778128564
 21
144.9365384471871
 31
0.0
  0
LINE
  5
636
330
2
100
AcDbEntity
  8
HOJO
100
AcDbLine
 10
94.78560778128565
 20
143.4990384471871
 30
0.0
 11
96.58560678128566
 21
144.1240384471871
 31
0.0
  0
LINE
  5
637
330
2
100
AcDbEntity
  8
HOJO
100
AcDbLine
 10
100.1856097812856
 20
144.3115384471871
 30
0.0
 11
98.38661678128563
 21
143.8638294471871
 31
0.0
  0
LINE
  5
638
330
2
100
AcDbEntity
  8
0
100
AcDbLine
 10
175.4856047812856
 20
116.0978084471871
 30
0.0
 11
175.4856047812856
 21
87.37499944718715
 31
0.0
  0
LINE
  5
639
330
2
100
AcDbEntity
  8
CENTER
100
AcDbLine
 10
215.4856047812856
 20
154.3365394471871
 30
0.0
 11
215.4856047812856
 21
42.73653744718714
 31
0.0
  0
LINE
  5
63A
330
2
100
AcDbEntity
  8
0
100
AcDbLine
 10
172.9856047812856
 20
125.4371404471871
 30
0.0
 11
172.9856047812856
 21
49.73653744718714
 31
0.0
  0
LINE
  5
63B
330
2
100
AcDbEntity
  8
HIDS
  6
SEKKEI_H
100
AcDbLine
 10
178.2356047812856
 20
57.73653744718714
 30
0.0
 11
178.2356047812856
 21
49.73653744718714
 31
0.0
  0
LINE
  5
63C
330
2
100
AcDbEntity
  8
HIDS
  6
SEKKEI_H
100
AcDbLine
 10
184.7356047812856
 20
57.73653744718714
 30
0.0
 11
184.7356047812856
 21
49.73653744718714
 31
0.0
  0
LINE
  5
63D
330
2
100
AcDbEntity
  8
CENTER
100
AcDbLine
 10
181.4856047812855
 20
61.23653744718713
 30
0.0
 11
181.4856047812856
 21
46.23653744718715
 31
0.0
  0
ARC
  5
63E
330
2
100
AcDbEntity
  8
0
100
AcDbCircle
 10
174.9856047812856
 20
55.73654744718715
 30
0.0
 40
2.0
100
AcDbArc
 50
90.0
 51
180.0
  0
LINE
  5
63F
330
2
100
AcDbEntity
  8
0
100
AcDbLine
 10
206.5208067812856
 20
84.28976044718714
 30
0.0
 11
209.1106047812856
 21
84.28976044718714
 31
0.0
  0
LINE
  5
640
330
2
100
AcDbEntity
  8
0
100
AcDbLine
 10
203.9654017812856
 20
78.73653744718715
 30
0.0
 11
207.2807097812856
 21
78.73653744718715
 31
0.0
  0
ARC
  5
641
330
2
100
AcDbEntity
  8
0
100
AcDbCircle
 10
206.1970147812856
 20
81.84932644718713
 30
0.0
 40
1.992186999999999
100
AcDbArc
 50
270.0002139999998
 51
0.0001089999998967
  0
LINE
  5
642
330
2
100
AcDbEntity
  8
0
100
AcDbLine
 10
208.1892027812856
 20
83.24386144718715
 30
0.0
 11
206.5208067812856
 21
83.24386144718715
 31
0.0
  0
LINE
  5
643
330
2
100
AcDbEntity
  8
0
100
AcDbLine
 10
203.8930147812856
 20
88.29903744718714
 30
0.0
 11
208.1796047812856
 21
88.29903744718714
 31
0.0
  0
LINE
  5
644
330
2
100
AcDbEntity
  8
0
100
AcDbLine
 10
207.5981077812856
 20
87.02901744718715
 30
0.0
 11
204.5262087812856
 21
87.02901744718715
 31
0.0
  0
LINE
  5
645
330
2
100
AcDbEntity
  8
0
100
AcDbLine
 10
203.8930147812856
 20
88.29903744718714
 30
0.0
 11
202.7356047812856
 21
86.81703844718715
 31
0.0
  0
LINE
  5
646
330
2
100
AcDbEntity
  8
0
100
AcDbLine
 10
203.8064057812856
 20
86.13651544718715
 30
0.0
 11
203.8064057812856
 21
80.62745644718715
 31
0.0
  0
LINE
  5
647
330
2
100
AcDbEntity
  8
0
100
AcDbLine
 10
202.7356047812856
 20
86.81703844718715
 30
0.0
 11
202.7356047812856
 21
79.97739744718714
 31
0.0
  0
LINE
  5
648
330
2
100
AcDbEntity
  8
0
100
AcDbLine
 10
202.7356047812856
 20
79.97739744718714
 30
0.0
 11
203.9654017812856
 21
78.73653744718715
 31
0.0
  0
LINE
  5
649
330
2
100
AcDbEntity
  8
0
100
AcDbLine
 10
206.1970147812856
 20
79.85713944718714
 30
0.0
 11
204.5377137812856
 21
79.85713944718714
 31
0.0
  0
LINE
  5
64A
330
2
100
AcDbEntity
  8
0
100
AcDbLine
 10
203.8064057812856
 20
80.62745644718715
 30
0.0
 11
204.5377137812856
 21
79.85713944718714
 31
0.0
  0
LINE
  5
64B
330
2
100
AcDbEntity
  8
0
100
AcDbLine
 10
206.5208067812856
 20
84.28976044718714
 30
0.0
 11
206.5208067812856
 21
83.24386144718715
 31
0.0
  0
LINE
  5
64C
330
2
100
AcDbEntity
  8
0
100
AcDbLine
 10
204.5262087812856
 20
87.02901744718715
 30
0.0
 11
203.8064057812856
 21
86.13651544718715
 31
0.0
  0
LINE
  5
64D
330
2
100
AcDbEntity
  8
0
100
AcDbLine
 10
221.8606047812856
 20
88.29903744718714
 30
0.0
 11
221.8606047812856
 21
87.12862744718714
 31
0.0
  0
LINE
  5
64E
330
2
100
AcDbEntity
  8
0
100
AcDbLine
 10
208.1796047812856
 20
88.29903744718714
 30
0.0
 11
209.1106047812856
 21
87.26589544718715
 31
0.0
  0
LINE
  5
64F
330
2
100
AcDbEntity
  8
0
100
AcDbLine
 10
218.6731047812856
 20
86.30684944718714
 30
0.0
 11
218.6731047812856
 21
88.29903744718714
 31
0.0
  0
LINE
  5
650
330
2
100
AcDbEntity
  8
0
100
AcDbLine
 10
212.2981047812856
 20
86.30684944718714
 30
0.0
 11
212.2981047812856
 21
88.29903744718714
 31
0.0
  0
LINE
  5
651
330
2
100
AcDbEntity
  8
0
100
AcDbLine
 10
214.8630007812856
 20
87.12862744718714
 30
0.0
 11
213.3481077812856
 21
87.12862744718714
 31
0.0
  0
LINE
  5
652
330
2
100
AcDbEntity
  8
0
100
AcDbLine
 10
214.3899017812856
 20
79.78243544718714
 30
0.0
 11
214.8630007812856
 21
79.78243544718714
 31
0.0
  0
LINE
  5
653
330
2
100
AcDbEntity
  8
0
100
AcDbLine
 10
214.3899017812856
 20
78.73653744718715
 30
0.0
 11
216.4568117812856
 21
78.73653744718715
 31
0.0
  0
LINE
  5
654
330
2
100
AcDbEntity
  8
0
100
AcDbLine
 10
209.1106047812856
 20
84.28976044718714
 30
0.0
 11
209.1106047812856
 21
78.73653744718715
 31
0.0
  0
LINE
  5
655
330
2
100
AcDbEntity
  8
0
100
AcDbLine
 10
208.1892027812856
 20
79.49879744718714
 30
0.0
 11
207.2807097812856
 21
78.73653744718715
 31
0.0
  0
LINE
  5
656
330
2
100
AcDbEntity
  8
0
100
AcDbLine
 10
208.1892027812856
 20
78.73653744718715
 30
0.0
 11
209.1106047812856
 21
78.73653744718715
 31
0.0
  0
LINE
  5
657
330
2
100
AcDbEntity
  8
0
100
AcDbLine
 10
208.1892027812856
 20
79.49879744718714
 30
0.0
 11
208.1892027812856
 21
78.73653744718715
 31
0.0
  0
LINE
  5
658
330
2
100
AcDbEntity
  8
0
100
AcDbLine
 10
214.3899017812856
 20
79.78243544718714
 30
0.0
 11
214.3899017812856
 21
78.73653744718715
 31
0.0
  0
LINE
  5
659
330
2
100
AcDbEntity
  8
0
100
AcDbLine
 10
208.1892027812856
 20
86.45757244718714
 30
0.0
 11
208.1892027812856
 21
86.30684944718714
 31
0.0
  0
LINE
  5
65A
330
2
100
AcDbEntity
  8
0
100
AcDbLine
 10
208.1892027812856
 20
83.24386144718715
 30
0.0
 11
208.1892027812856
 21
81.84932644718713
 31
0.0
  0
LINE
  5
65B
330
2
100
AcDbEntity
  8
0
100
AcDbLine
 10
209.1106047812856
 20
87.26589544718715
 30
0.0
 11
209.1106047812856
 21
86.30684944718714
 31
0.0
  0
LINE
  5
65C
330
2
100
AcDbEntity
  8
0
100
AcDbLine
 10
208.1892027812856
 20
82.24776744718715
 30
0.0
 11
208.1892027812856
 21
83.04464244718715
 31
0.0
  0
LINE
  5
65D
330
2
100
AcDbEntity
  8
0
100
AcDbLine
 10
208.1892027812856
 20
86.30684944718714
 30
0.0
 11
209.1106047812856
 21
86.30684944718714
 31
0.0
  0
LINE
  5
65E
330
2
100
AcDbEntity
  8
0
100
AcDbLine
 10
208.1892027812856
 20
86.45757244718714
 30
0.0
 11
207.5860077812856
 21
87.02901744718715
 31
0.0
  0
LINE
  5
65F
330
2
100
AcDbEntity
  8
0
100
AcDbLine
 10
213.3481077812856
 20
87.12862744718714
 30
0.0
 11
213.0057007812856
 21
86.30684944718714
 31
0.0
  0
LINE
  5
660
330
2
100
AcDbEntity
  8
0
100
AcDbLine
 10
212.2981047812856
 20
86.30684944718714
 30
0.0
 11
213.0057007812856
 21
86.30684944718714
 31
0.0
  0
LINE
  5
661
330
2
100
AcDbEntity
  8
0
100
AcDbLine
 10
216.0584047812856
 20
87.12862744718714
 30
0.0
 11
216.0584047812856
 21
79.78243544718714
 31
0.0
  0
LINE
  5
662
330
2
100
AcDbEntity
  8
0
100
AcDbLine
 10
214.8630007812856
 20
87.12862744718714
 30
0.0
 11
214.8630007812856
 21
79.78243544718714
 31
0.0
  0
LINE
  5
663
330
2
100
AcDbEntity
  8
0
100
AcDbLine
 10
216.4568117812856
 20
79.78243544718714
 30
0.0
 11
216.4568117812856
 21
78.73653744718715
 31
0.0
  0
LINE
  5
664
330
2
100
AcDbEntity
  8
0
100
AcDbLine
 10
216.0584047812856
 20
79.78243544718714
 30
0.0
 11
216.4568117812856
 21
79.78243544718714
 31
0.0
  0
LINE
  5
665
330
2
100
AcDbEntity
  8
0
100
AcDbLine
 10
221.8606047812856
 20
79.73262744718716
 30
0.0
 11
221.8606047812856
 21
78.73653744718715
 31
0.0
  0
LINE
  5
666
330
2
100
AcDbEntity
  8
0
100
AcDbLine
 10
218.0081117812856
 20
86.30684944718714
 30
0.0
 11
218.6731047812856
 21
86.30684944718714
 31
0.0
  0
LINE
  5
667
330
2
100
AcDbEntity
  8
0
100
AcDbLine
 10
216.0584047812856
 20
87.12862744718714
 30
0.0
 11
217.7194147812856
 21
87.12862744718714
 31
0.0
  0
LINE
  5
668
330
2
100
AcDbEntity
  8
0
100
AcDbLine
 10
217.7194147812856
 20
87.12862744718714
 30
0.0
 11
218.0081117812856
 21
86.30684944718714
 31
0.0
  0
LINE
  5
669
330
2
100
AcDbEntity
  8
0
100
AcDbLine
 10
212.2981047812856
 20
88.29903744718714
 30
0.0
 11
218.6731047812856
 21
88.29903744718714
 31
0.0
  0
LINE
  5
66A
330
2
100
AcDbEntity
  8
0
100
AcDbLine
 10
175.1133057812856
 20
129.5297994471871
 30
0.0
 11
199.1927117812856
 21
146.4291914471871
 31
0.0
  0
ARC
  5
66B
330
2
100
AcDbEntity
  8
0
100
AcDbCircle
 10
177.9856047812856
 20
125.4371564471871
 30
0.0
 40
5.0
100
AcDbArc
 50
125.0623019999999
 51
180.0
  0
LINE
  5
66C
330
2
100
AcDbEntity
  8
0
100
AcDbLine
 10
197.2982117812856
 20
122.4365384471871
 30
0.0
 11
197.2983027812856
 21
122.4365384471871
 31
0.0
  0
LINE
  5
66D
330
2
100
AcDbEntity
  8
0
100
AcDbLine
 10
219.9856047812856
 20
112.2365414471871
 30
0.0
 11
219.9856047812856
 21
117.2365414471871
 31
0.0
  0
ARC
  5
66E
330
2
100
AcDbEntity
  8
0
100
AcDbCircle
 10
202.0651027812856
 20
142.3365474471871
 30
0.0
 40
5.0
100
AcDbArc
 50
90.0
 51
125.0622019999999
  0
LINE
  5
66F
330
2
100
AcDbEntity
  8
0
100
AcDbLine
 10
100.4856087812856
 20
263.1927944471871
 30
0.0
 11
176.4052827812856
 21
263.1927944471871
 31
0.0
  0
LINE
  5
670
330
2
100
AcDbEntity
  8
0
100
AcDbLine
 10
100.4856087812856
 20
248.1927944471871
 30
0.0
 11
170.9856047812856
 21
248.1927944471871
 31
0.0
  0
LINE
  5
671
330
2
100
AcDbEntity
  8
0
100
AcDbLine
 10
100.4856087812856
 20
309.1927784471871
 30
0.0
 11
176.4052827812856
 21
309.1927784471871
 31
0.0
  0
LINE
  5
672
330
2
100
AcDbEntity
  8
0
100
AcDbLine
 10
170.9856047812856
 20
324.1927784471871
 30
0.0
 11
100.4856087812856
 21
324.1927784471871
 31
0.0
  0
LINE
  5
673
330
2
100
AcDbEntity
  8
0
100
AcDbLine
 10
41.98560778128563
 20
251.1927944471871
 30
0.0
 11
41.98560778128563
 21
321.1927784471871
 31
0.0
  0
LINE
  5
674
330
2
100
AcDbEntity
  8
0
100
AcDbLine
 10
90.98560878128564
 20
246.1927944471871
 30
0.0
 11
90.98560878128564
 21
326.1927784471871
 31
0.0
  0
LINE
  5
675
330
2
100
AcDbEntity
  8
0
100
AcDbLine
 10
96.48560878128563
 20
282.6927944471871
 30
0.0
 11
96.48560878128563
 21
289.6927944471871
 31
0.0
  0
LINE
  5
676
330
2
100
AcDbEntity
  8
0
100
AcDbLine
 10
98.48560878128564
 20
282.6927944471871
 30
0.0
 11
98.48560878128564
 21
289.6927944471871
 31
0.0
  0
LINE
  5
677
330
2
100
AcDbEntity
  8
0
100
AcDbLine
 10
100.9856047812856
 20
280.192794447187
 30
0.0
 11
100.9856047812856
 21
292.1927944471871
 31
0.0
  0
LINE
  5
678
330
2
100
AcDbEntity
  8
0
100
AcDbLine
 10
93.98560878128563
 20
280.192794447187
 30
0.0
 11
93.98560878128563
 21
292.1927944471871
 31
0.0
  0
ARC
  5
679
330
2
100
AcDbEntity
  8
0
100
AcDbCircle
 10
46.98560778128563
 20
251.1927944471871
 30
0.0
 40
5.0
100
AcDbArc
 50
180.0
 51
270.0
  0
LINE
  5
67A
330
2
100
AcDbEntity
  8
0
100
AcDbLine
 10
44.48560778128563
 20
260.1927944471871
 30
0.0
 11
90.98560878128564
 21
260.1927944471871
 31
0.0
  0
LINE
  5
67B
330
2
100
AcDbEntity
  8
0
100
AcDbLine
 10
46.98560778128563
 20
246.1927944471871
 30
0.0
 11
90.98560878128564
 21
246.1927944471871
 31
0.0
  0
LINE
  5
67C
330
2
100
AcDbEntity
  8
0
100
AcDbLine
 10
100.4856087812856
 20
248.1927944471871
 30
0.0
 11
100.4856087812856
 21
279.3267664471871
 31
0.0
  0
LINE
  5
67D
330
2
100
AcDbEntity
  8
0
100
AcDbLine
 10
90.98560878128564
 20
248.1927944471871
 30
0.0
 11
100.4856087812856
 21
248.1927944471871
 31
0.0
  0
LINE
  5
67E
330
2
100
AcDbEntity
  8
0
100
AcDbLine
 10
90.98560878128564
 20
263.1927944471871
 30
0.0
 11
100.4856087812856
 21
263.1927944471871
 31
0.0
  0
ARC
  5
67F
330
2
100
AcDbEntity
  8
0
100
AcDbCircle
 10
94.98560878128563
 20
280.192794447187
 30
0.0
 40
1.0
100
AcDbArc
 50
180.0
 51
270.0
  0
LINE
  5
680
330
2
100
AcDbEntity
  8
0
100
AcDbLine
 10
99.98560878128564
 20
279.1927944471871
 30
0.0
 11
94.98560878128563
 21
279.1927944471871
 31
0.0
  0
ARC
  5
681
330
2
100
AcDbEntity
  8
0
100
AcDbCircle
 10
99.98560878128564
 20
280.192794447187
 30
0.0
 40
1.0
100
AcDbArc
 50
270.0
 51
0.0
  0
ARC
  5
682
330
2
100
AcDbEntity
  8
0
100
AcDbCircle
 10
97.48560878128564
 20
282.6927944471871
 30
0.0
 40
1.0
100
AcDbArc
 50
270.0
 51
0.0
  0
ARC
  5
683
330
2
100
AcDbEntity
  8
0
100
AcDbCircle
 10
97.48560878128564
 20
282.6927944471871
 30
0.0
 40
1.0
100
AcDbArc
 50
180.0
 51
270.0
  0
ARC
  5
684
330
2
100
AcDbEntity
  8
0
100
AcDbCircle
 10
46.98562778128564
 20
321.1928094471871
 30
0.0
 40
5.0
100
AcDbArc
 50
90.0
 51
180.0
  0
LINE
  5
685
330
2
100
AcDbEntity
  8
0
100
AcDbLine
 10
44.48560778128563
 20
310.1927784471871
 30
0.0
 11
90.98560878128564
 21
310.1927784471871
 31
0.0
  0
LINE
  5
686
330
2
100
AcDbEntity
  8
0
100
AcDbLine
 10
46.98560778128563
 20
326.1927784471871
 30
0.0
 11
90.98560878128564
 21
326.1927784471871
 31
0.0
  0
LINE
  5
687
330
2
100
AcDbEntity
  8
0
100
AcDbLine
 10
100.4856087812856
 20
293.0588064471871
 30
0.0
 11
100.4856087812856
 21
324.1927784471871
 31
0.0
  0
ARC
  5
688
330
2
100
AcDbEntity
  8
0
100
AcDbCircle
 10
94.98560878128563
 20
292.1927944471871
 30
0.0
 40
1.0
100
AcDbArc
 50
90.0
 51
180.0
  0
ARC
  5
689
330
2
100
AcDbEntity
  8
0
100
AcDbCircle
 10
97.48560878128564
 20
289.6927944471871
 30
0.0
 40
1.0
100
AcDbArc
 50
0.0
 51
90.0
  0
ARC
  5
68A
330
2
100
AcDbEntity
  8
0
100
AcDbCircle
 10
97.48560878128564
 20
289.6927944471871
 30
0.0
 40
1.0
100
AcDbArc
 50
90.0
 51
180.0
  0
LINE
  5
68B
330
2
100
AcDbEntity
  8
0
100
AcDbLine
 10
94.98560878128563
 20
293.1927944471871
 30
0.0
 11
99.98560878128564
 21
293.1927944471871
 31
0.0
  0
ARC
  5
68C
330
2
100
AcDbEntity
  8
0
100
AcDbCircle
 10
99.98560878128564
 20
292.1927944471871
 30
0.0
 40
1.0
100
AcDbArc
 50
0.0
 51
90.0
  0
LINE
  5
68D
330
2
100
AcDbEntity
  8
0
100
AcDbLine
 10
90.98560878128564
 20
309.1927784471871
 30
0.0
 11
100.4856087812856
 21
309.1927784471871
 31
0.0
  0
LINE
  5
68E
330
2
100
AcDbEntity
  8
0
100
AcDbLine
 10
90.98560878128564
 20
324.1927784471871
 30
0.0
 11
100.4856087812856
 21
324.1927784471871
 31
0.0
  0
LINE
  5
68F
330
2
100
AcDbEntity
  8
0
100
AcDbLine
 10
176.4052827812856
 20
265.1927944471871
 30
0.0
 11
176.4052827812856
 21
307.1930534471871
 31
0.0
  0
LINE
  5
690
330
2
100
AcDbEntity
  8
0
100
AcDbLine
 10
200.4856047812856
 20
315.2276914471871
 30
0.0
 11
200.4856047812856
 21
257.1578824471871
 31
0.0
  0
LINE
  5
691
330
2
100
AcDbEntity
  8
CENTER
100
AcDbLine
 10
215.4856047812856
 20
340.1927784471872
 30
0.0
 11
215.4856047812856
 21
215.1927944471871
 31
0.0
  0
LINE
  5
692
330
2
100
AcDbEntity
  8
0
100
AcDbLine
 10
207.9856047812856
 20
222.1927944471871
 30
0.0
 11
207.9856047812856
 21
249.1927944471871
 31
0.0
  0
ARC
  5
694
330
2
100
AcDbEntity
  8
0
100
AcDbCircle
 10
176.7539767812856
 20
242.1927944471871
 30
0.0
 40
3.0
100
AcDbArc
 50
180.9998470000002
 51
270.0
  0
LINE
  5
695
330
2
100
AcDbEntity
  8
0
100
AcDbLine
 10
176.7539767812856
 20
239.1927944471871
 30
0.0
 11
207.9856047812856
 21
239.1927944471871
 31
0.0
  0
LINE
  5
696
330
2
100
AcDbEntity
  8
0
100
AcDbLine
 10
173.4923337812856
 20
257.1578824471871
 30
0.0
 11
173.3870177812856
 21
263.1927944471871
 31
0.0
  0
LINE
  5
698
330
2
100
AcDbEntity
  8
0
100
AcDbLine
 10
172.9856047812856
 20
250.1927944471871
 30
0.0
 11
172.9856047812856
 21
253.8406364471871
 31
0.0
  0
LINE
  5
699
330
2
100
AcDbEntity
  8
0
100
AcDbLine
 10
173.7544337812856
 20
242.1404414471871
 30
0.0
 11
173.5300537812856
 21
254.9968864471872
 31
0.0
  0
ARC
  5
69A
330
2
100
AcDbEntity
  8
0
100
AcDbCircle
 10
170.9856047812856
 20
250.1927944471871
 30
0.0
 40
2.0
100
AcDbArc
 50
270.0
 51
0.0
  0
ARC
  5
69B
330
2
100
AcDbEntity
  8
0
100
AcDbCircle
 10
175.4921047812856
 20
257.1927944471871
 30
0.0
 40
2.0
100
AcDbArc
 50
181.0000000000001
 51
270.0
  0
ARC
  5
69C
330
2
100
AcDbEntity
  8
0
100
AcDbCircle
 10
174.4856047812856
 20
253.8406364471871
 30
0.0
 40
1.5
100
AcDbArc
 50
73.28735399999994
 51
180.0
  0
CIRCLE
  5
69D
330
2
100
AcDbEntity
  8
0
100
AcDbCircle
 10
181.4856047812856
 20
246.1927944471871
 30
0.0
 40
3.25
  0
LINE
  5
69E
330
2
100
AcDbEntity
  8
0
100
AcDbLine
 10
206.9856047812856
 20
249.1927944471871
 30
0.0
 11
206.9856047812856
 21
251.1927944471871
 31
0.0
  0
ARC
  5
69F
330
2
100
AcDbEntity
  8
0
100
AcDbCircle
 10
196.4856047812856
 20
252.1927944471871
 30
0.0
 40
1.0
100
AcDbArc
 50
180.0
 51
270.0
  0
LINE
  5
6A0
330
2
100
AcDbEntity
  8
0
100
AcDbLine
 10
195.4856047812856
 20
252.1927944471871
 30
0.0
 11
195.4856047812856
 21
253.192794447187
 31
0.0
  0
ARC
  5
6A2
330
2
100
AcDbEntity
  8
0
100
AcDbCircle
 10
176.7539767812856
 20
330.1927784471871
 30
0.0
 40
3.0
100
AcDbArc
 50
90.0
 51
179.0001529999997
  0
LINE
  5
6A3
330
2
100
AcDbEntity
  8
0
100
AcDbLine
 10
173.4923337812856
 20
315.2276914471871
 30
0.0
 11
173.3870177812856
 21
309.1927784471871
 31
0.0
  0
LINE
  5
6A5
330
2
100
AcDbEntity
  8
0
100
AcDbLine
 10
172.9856047812856
 20
322.1927784471871
 30
0.0
 11
172.9856047812856
 21
318.5449514471871
 31
0.0
  0
LINE
  5
6A6
330
2
100
AcDbEntity
  8
0
100
AcDbLine
 10
173.7544337812856
 20
330.2451474471871
 30
0.0
 11
173.5300537812856
 21
317.3887014471871
 31
0.0
  0
ARC
  5
6A7
330
2
100
AcDbEntity
  8
0
100
AcDbCircle
 10
175.4921047812856
 20
315.1927784471871
 30
0.0
 40
2.0
100
AcDbArc
 50
90.0
 51
178.9999999999998
  0
ARC
  5
6A8
330
2
100
AcDbEntity
  8
0
100
AcDbCircle
 10
174.4856047812856
 20
318.5449514471871
 30
0.0
 40
1.5
100
AcDbArc
 50
180.0
 51
286.712646
  0
ARC
  5
6A9
330
2
100
AcDbEntity
  8
0
100
AcDbCircle
 10
170.9856047812856
 20
322.1927784471871
 30
0.0
 40
2.0
100
AcDbArc
 50
0.0
 51
90.0
  0
CIRCLE
  5
6AA
330
2
100
AcDbEntity
  8
0
100
AcDbCircle
 10
181.4856047812856
 20
326.1927784471871
 30
0.0
 40
3.25
  0
LINE
  5
6AB
330
2
100
AcDbEntity
  8
0
100
AcDbLine
 10
176.7539767812856
 20
333.1927784471871
 30
0.0
 11
215.4856047812856
 21
333.1927784471871
 31
0.0
  0
LINE
  5
6AC
330
2
100
AcDbEntity
  8
CENTER
100
AcDbLine
 10
357.8145180835438
 20
92.43653844718716
 30
0.0
 11
451.8145180835438
 21
92.43653844718716
 31
0.0
  0
LINE
  5
6AD
330
2
100
AcDbEntity
  8
0
100
AcDbLine
 10
434.2448150835438
 20
128.0365444471871
 30
0.0
 11
375.3330110835438
 21
128.0365444471871
 31
0.0
  0
LINE
  5
6AE
330
2
100
AcDbEntity
  8
0
100
AcDbLine
 10
375.7796360835437
 20
146.8297494471871
 30
0.0
 11
404.8145180835438
 21
147.3365474471871
 31
0.0
  0
LINE
  5
6AF
330
2
100
AcDbEntity
  8
0
100
AcDbLine
 10
451.8145180835438
 20
49.73653744718714
 30
0.0
 11
357.8145180835438
 21
49.73653744718714
 31
0.0
  0
LINE
  5
6B0
330
2
100
AcDbEntity
  8
CENTER
100
AcDbLine
 10
451.8007279911954
 20
114.7365414471871
 30
0.0
 11
333.8145180835438
 21
114.7365414471871
 31
0.0
  0
LINE
  5
6B1
330
2
100
AcDbEntity
  8
0
100
AcDbLine
 10
364.8145180835438
 20
70.50760744718715
 30
0.0
 11
364.8145180835438
 21
107.2365374471871
 31
0.0
  0
ARC
  5
6B2
330
2
100
AcDbEntity
  8
0
100
AcDbCircle
 10
404.8145180835438
 20
92.43653844718716
 30
0.0
 40
38.0
100
AcDbArc
 50
158.7057950000002
 51
215.3954929999994
  0
LINE
  5
6B3
330
2
100
AcDbEntity
  8
0
100
AcDbLine
 10
369.8145180835438
 20
95.73653744718715
 30
0.0
 11
369.8145180835438
 21
133.7365414471871
 31
0.0
  0
LINE
  5
6B4
330
2
100
AcDbEntity
  8
0
100
AcDbLine
 10
373.8145180835438
 20
60.73653744718715
 30
0.0
 11
373.8145180835438
 21
144.8300474471871
 31
0.0
  0
LINE
  5
6B5
330
2
100
AcDbEntity
  8
0
100
AcDbLine
 10
255.4856047812857
 20
116.0979374471871
 30
0.0
 11
255.4856047812857
 21
87.37539944718713
 31
0.0
  0
LINE
  5
6B6
330
2
100
AcDbEntity
  8
0
100
AcDbLine
 10
257.9856047812857
 20
125.4371174471871
 30
0.0
 11
257.9856047812857
 21
49.73653744718714
 31
0.0
  0
LINE
  5
6B7
330
2
100
AcDbEntity
  8
HIDS
  6
SEKKEI_H
100
AcDbLine
 10
246.2356047812856
 20
57.73653744718714
 30
0.0
 11
246.2356047812856
 21
49.73653744718714
 31
0.0
  0
LINE
  5
6B8
330
2
100
AcDbEntity
  8
HIDS
  6
SEKKEI_H
100
AcDbLine
 10
252.7356047812856
 20
57.73653744718714
 30
0.0
 11
252.7356047812856
 21
49.73653744718714
 31
0.0
  0
LINE
  5
6B9
330
2
100
AcDbEntity
  8
CENTER
100
AcDbLine
 10
249.4856047812857
 20
61.23653744718713
 30
0.0
 11
249.4856047812857
 21
46.23653744718715
 31
0.0
  0
ARC
  5
6BA
330
2
100
AcDbEntity
  8
0
100
AcDbCircle
 10
225.6831147812856
 20
85.74654744718714
 30
0.0
 40
2.55249
100
AcDbArc
 50
286.0181269999995
 51
90.00350999999964
  0
LINE
  5
6BB
330
2
100
AcDbEntity
  8
0
100
AcDbLine
 10
225.4699037812856
 20
83.20650844718716
 30
0.0
 11
226.9649137812856
 21
79.73262744718716
 31
0.0
  0
LINE
  5
6BC
330
2
100
AcDbEntity
  8
0
100
AcDbLine
 10
226.3874147812856
 20
83.29315844718715
 30
0.0
 11
227.9673097812856
 21
79.73262744718716
 31
0.0
  0
LINE
  5
6BD
330
2
100
AcDbEntity
  8
0
100
AcDbLine
 10
223.4294067812856
 20
83.20650844718716
 30
0.0
 11
223.4294067812856
 21
79.73262744718716
 31
0.0
  0
LINE
  5
6BE
330
2
100
AcDbEntity
  8
0
100
AcDbLine
 10
222.3337037812856
 20
87.12862744718714
 30
0.0
 11
222.3337037812856
 21
79.73262744718716
 31
0.0
  0
LINE
  5
6BF
330
2
100
AcDbEntity
  8
0
100
AcDbLine
 10
223.8652127812856
 20
79.73262744718716
 30
0.0
 11
223.8652127812856
 21
78.73653744718715
 31
0.0
  0
LINE
  5
6C0
330
2
100
AcDbEntity
  8
0
100
AcDbLine
 10
223.4294067812856
 20
79.73262744718716
 30
0.0
 11
223.8652127812856
 21
79.73262744718716
 31
0.0
  0
LINE
  5
6C1
330
2
100
AcDbEntity
  8
0
100
AcDbLine
 10
226.7664117812856
 20
79.73262744718716
 30
0.0
 11
226.7664117812856
 21
78.73653744718715
 31
0.0
  0
LINE
  5
6C2
330
2
100
AcDbEntity
  8
0
100
AcDbLine
 10
228.2356047812856
 20
79.73262744718716
 30
0.0
 11
228.2356047812856
 21
78.73653744718715
 31
0.0
  0
LINE
  5
6C3
330
2
100
AcDbEntity
  8
0
100
AcDbLine
 10
226.7664117812856
 20
78.73653744718715
 30
0.0
 11
228.2356047812856
 21
78.73653744718715
 31
0.0
  0
LINE
  5
6C4
330
2
100
AcDbEntity
  8
0
100
AcDbLine
 10
227.9673097812856
 20
79.73262744718716
 30
0.0
 11
228.2356047812856
 21
79.73262744718716
 31
0.0
  0
LINE
  5
6C5
330
2
100
AcDbEntity
  8
0
100
AcDbLine
 10
226.7664117812856
 20
79.73262744718716
 30
0.0
 11
226.9649137812856
 21
79.73262744718716
 31
0.0
  0
LINE
  5
6C6
330
2
100
AcDbEntity
  8
0
100
AcDbLine
 10
223.4294067812856
 20
87.12862744718714
 30
0.0
 11
226.4043057812856
 21
87.12668944718714
 31
0.0
  0
ARC
  5
6C7
330
2
100
AcDbEntity
  8
0
100
AcDbCircle
 10
225.6831147812856
 20
85.74654744718714
 30
0.0
 40
1.557193
100
AcDbArc
 50
277.4147260000004
 51
62.41184999999949
  0
LINE
  5
6C8
330
2
100
AcDbEntity
  8
0
100
AcDbLine
 10
223.4294067812856
 20
83.20650844718716
 30
0.0
 11
225.4699037812856
 21
83.20650844718716
 31
0.0
  0
LINE
  5
6C9
330
2
100
AcDbEntity
  8
0
100
AcDbLine
 10
223.4294067812856
 20
84.20237244718714
 30
0.0
 11
225.8841027812855
 21
84.20237244718714
 31
0.0
  0
LINE
  5
6CA
330
2
100
AcDbEntity
  8
0
100
AcDbLine
 10
223.4294067812856
 20
87.12862744718714
 30
0.0
 11
223.4294067812856
 21
84.20237244718714
 31
0.0
  0
ARC
  5
6CB
330
2
100
AcDbEntity
  8
0
100
AcDbCircle
 10
255.9856047812857
 20
55.73652744718714
 30
0.0
 40
2.0
100
AcDbArc
 50
0.0
 51
90.0
  0
LINE
  5
6CC
330
2
100
AcDbEntity
  8
HIDS
  6
SEKKEI_H
100
AcDbLine
 10
368.0645180835438
 20
57.73653744718714
 30
0.0
 11
368.0645180835438
 21
49.73653744718714
 31
0.0
  0
LINE
  5
6CD
330
2
100
AcDbEntity
  8
HIDS
  6
SEKKEI_H
100
AcDbLine
 10
361.5645180835438
 20
57.73653744718714
 30
0.0
 11
361.5645180835438
 21
49.73653744718714
 31
0.0
  0
LINE
  5
6CE
330
2
100
AcDbEntity
  8
CENTER
100
AcDbLine
 10
364.8145180835437
 20
61.23653744718715
 30
0.0
 11
364.8145180835438
 21
46.23653744718713
 31
0.0
  0
LINE
  5
6CF
330
2
100
AcDbEntity
  8
0
100
AcDbLine
 10
357.8145180835438
 20
55.73653744718715
 30
0.0
 11
357.8145180835438
 21
49.73653744718714
 31
0.0
  0
ARC
  5
6D0
330
2
100
AcDbEntity
  8
0
100
AcDbCircle
 10
369.8145180835438
 20
70.50763844718715
 30
0.0
 40
5.0
100
AcDbArc
 50
180.0
 51
225.0003970000001
  0
LINE
  5
6D1
330
2
100
AcDbEntity
  8
0
100
AcDbLine
 10
370.8145180835438
 20
57.73653744718714
 30
0.0
 11
359.8145180835438
 21
57.73653744718714
 31
0.0
  0
ARC
  5
6D2
330
2
100
AcDbEntity
  8
0
100
AcDbCircle
 10
359.8145180835438
 20
55.73652744718714
 30
0.0
 40
2.0
100
AcDbArc
 50
90.0
 51
180.0
  0
LINE
  5
6D3
330
2
100
AcDbEntity
  8
0
100
AcDbLine
 10
366.2790260835437
 20
66.97206844718715
 30
0.0
 11
373.6081270835438
 21
59.64296644718714
 31
0.0
  0
ARC
  5
6D4
330
2
100
AcDbEntity
  8
0
100
AcDbCircle
 10
370.8145180835438
 20
60.73652744718714
 30
0.0
 40
3.0
100
AcDbArc
 50
270.0
 51
0.0
  0
LINE
  5
6D5
330
2
100
AcDbEntity
  8
0
100
AcDbLine
 10
370.8145180835438
 20
94.73653744718715
 30
0.0
 11
371.8185180815388
 21
94.73653744718715
 31
0.0
  0
ARC
  5
6D6
330
2
100
AcDbEntity
  8
0
100
AcDbCircle
 10
370.8145180835438
 20
95.73653344718715
 30
0.0
 40
1.0
100
AcDbArc
 50
180.0
 51
270.0
  0
LINE
  5
6D7
330
2
100
AcDbEntity
  8
0
100
AcDbLine
 10
255.8579037812856
 20
129.5297994471871
 30
0.0
 11
231.7784057812856
 21
146.4291984471871
 31
0.0
  0
LINE
  5
6D8
330
2
100
AcDbEntity
  8
0
100
AcDbLine
 10
224.9856047812856
 20
117.2365414471871
 30
0.0
 11
224.9856047812856
 21
112.2365414471871
 31
0.0
  0
ARC
  5
6D9
330
2
100
AcDbEntity
  8
0
100
AcDbCircle
 10
252.9856047812856
 20
125.4371174471871
 30
0.0
 40
5.0
100
AcDbArc
 50
0.0
 51
54.93836999999954
  0
ARC
  5
6DA
330
2
100
AcDbEntity
  8
0
100
AcDbCircle
 10
228.9062127812856
 20
142.3365244471871
 30
0.0
 40
5.0
100
AcDbArc
 50
54.93843100000013
 51
90.0
  0
ARC
  5
6DB
330
2
100
AcDbEntity
  8
0
100
AcDbCircle
 10
375.8145180835438
 20
144.8300474471871
 30
0.0
 40
2.0
100
AcDbArc
 50
90.99986299999994
 51
180.0
  0
LINE
  5
6DC
330
2
100
AcDbEntity
  8
0
100
AcDbLine
 10
340.8145180835438
 20
112.2365414471871
 30
0.0
 11
362.3145180835438
 21
112.2365414471871
 31
0.0
  0
LINE
  5
6DD
330
2
100
AcDbEntity
  8
0
100
AcDbLine
 10
340.8145180835438
 20
117.2365414471871
 30
0.0
 11
362.3145180835438
 21
117.2365414471871
 31
0.0
  0
LINE
  5
6DE
330
2
100
AcDbEntity
  8
0
100
AcDbLine
 10
340.8145180835438
 20
107.2365374471871
 30
0.0
 11
367.8145180835438
 21
107.2365374471871
 31
0.0
  0
LINE
  5
6DF
330
2
100
AcDbEntity
  8
0
100
AcDbLine
 10
340.8145180835438
 20
122.2365414471871
 30
0.0
 11
367.8145180835438
 21
122.2365414471871
 31
0.0
  0
LINE
  5
6E0
330
2
100
AcDbEntity
  8
0
100
AcDbLine
 10
340.8145180835438
 20
122.2365414471871
 30
0.0
 11
340.8145180835438
 21
107.2365374471871
 31
0.0
  0
LINE
  5
6E1
330
2
100
AcDbEntity
  8
0
100
AcDbLine
 10
367.8145180835438
 20
123.2365414471871
 30
0.0
 11
367.8145180835438
 21
106.2365374471871
 31
0.0
  0
ARC
  5
6E2
330
2
100
AcDbEntity
  8
0
100
AcDbCircle
 10
362.3145180835438
 20
114.7365414471871
 30
0.0
 40
2.5
100
AcDbArc
 50
270.0
 51
0.0
  0
ARC
  5
6E3
330
2
100
AcDbEntity
  8
0
100
AcDbCircle
 10
362.3145180835438
 20
114.7365254471871
 30
0.0
 40
2.5
100
AcDbArc
 50
0.0
 51
90.0
  0
LINE
  5
6E4
330
2
100
AcDbEntity
  8
0
100
AcDbLine
 10
367.8145180835438
 20
106.2365374471871
 30
0.0
 11
369.8145180835438
 21
106.2365374471871
 31
0.0
  0
ARC
  5
6E5
330
2
100
AcDbEntity
  8
0
100
AcDbCircle
 10
370.8145180835438
 20
133.7365414471871
 30
0.0
 40
1.0
100
AcDbArc
 50
90.0
 51
180.0
  0
LINE
  5
6E6
330
2
100
AcDbEntity
  8
0
100
AcDbLine
 10
367.8145180835438
 20
123.2365414471871
 30
0.0
 11
369.8145180835438
 21
123.2365414471871
 31
0.0
  0
LINE
  5
6E7
330
2
100
AcDbEntity
  8
0
100
AcDbLine
 10
370.8145180835438
 20
134.7365414471871
 30
0.0
 11
371.8145180835438
 21
134.7365414471871
 31
0.0
  0
LINE
  5
6E8
330
2
100
AcDbEntity
  8
0
100
AcDbLine
 10
444.8145180835438
 20
114.3654704471871
 30
0.0
 11
444.8145180835438
 21
69.43653844718714
 31
0.0
  0
LINE
  5
6E9
330
2
100
AcDbEntity
  8
0
100
AcDbLine
 10
439.8145180835438
 20
95.73653744718715
 30
0.0
 11
439.8145180835438
 21
133.7365414471871
 31
0.0
  0
ARC
  5
6EA
330
2
100
AcDbEntity
  8
0
100
AcDbCircle
 10
404.8145180835438
 20
92.43653844718716
 30
0.0
 40
38.0
100
AcDbArc
 50
324.6655999999999
 51
22.91949100000018
  0
LINE
  5
6EB
330
2
100
AcDbEntity
  8
0
100
AcDbLine
 10
435.8145180835438
 20
60.73653744718715
 30
0.0
 11
435.8145180835438
 21
144.8299404471871
 31
0.0
  0
LINE
  5
6EC
330
2
100
AcDbEntity
  8
CENTER
100
AcDbLine
 10
404.8145180835438
 20
42.73653744718714
 30
0.0
 11
404.8145180835438
 21
154.3365474471871
 31
0.0
  0
LINE
  5
6ED
330
2
100
AcDbEntity
  8
0
100
AcDbLine
 10
441.8145180835438
 20
66.43653844718715
 30
0.0
 11
438.2115210835437
 21
66.43653844718715
 31
0.0
  0
LINE
  5
6EE
330
2
100
AcDbEntity
  8
0
100
AcDbLine
 10
438.8145180835437
 20
57.73653744718714
 30
0.0
 11
449.8145180835438
 21
57.73653744718714
 31
0.0
  0
ARC
  5
6EF
330
2
100
AcDbEntity
  8
0
100
AcDbCircle
 10
438.8145180835437
 20
60.73653744718715
 30
0.0
 40
3.0
100
AcDbArc
 50
180.0
 51
270.0
  0
LINE
  5
6F0
330
2
100
AcDbEntity
  8
0
100
AcDbLine
 10
435.8145180835438
 20
64.03955744718714
 30
0.0
 11
438.2115210835437
 21
66.43653844718715
 31
0.0
  0
LINE
  5
6F1
330
2
100
AcDbEntity
  8
0
100
AcDbLine
 10
438.8145180835437
 20
94.73653744718715
 30
0.0
 11
437.810518085549
 21
94.73653744718715
 31
0.0
  0
ARC
  5
6F2
330
2
100
AcDbEntity
  8
0
100
AcDbCircle
 10
438.8145180835437
 20
95.73653344718715
 30
0.0
 40
1.0
100
AcDbArc
 50
270.0
 51
0.0
  0
LINE
  5
6F3
330
2
100
AcDbEntity
  8
HIDS
  6
SEKKEI_H
100
AcDbLine
 10
448.0645180835438
 20
57.73653744718714
 30
0.0
 11
448.0645180835438
 21
49.73653744718714
 31
0.0
  0
LINE
  5
6F4
330
2
100
AcDbEntity
  8
HIDS
  6
SEKKEI_H
100
AcDbLine
 10
441.5645180835438
 20
57.73653744718714
 30
0.0
 11
441.5645180835438
 21
49.73653744718714
 31
0.0
  0
LINE
  5
6F5
330
2
100
AcDbEntity
  8
CENTER
100
AcDbLine
 10
444.8145180835438
 20
61.23653744718716
 30
0.0
 11
444.8145180835438
 21
46.23653744718713
 31
0.0
  0
LINE
  5
6F6
330
2
100
AcDbEntity
  8
0
100
AcDbLine
 10
451.8145180835438
 20
55.73653744718715
 30
0.0
 11
451.8145180835438
 21
49.73653744718714
 31
0.0
  0
ARC
  5
6F7
330
2
100
AcDbEntity
  8
0
100
AcDbCircle
 10
449.8145180835438
 20
55.73654744718715
 30
0.0
 40
2.0
100
AcDbArc
 50
0.0
 51
90.0
  0
ARC
  5
6F8
330
2
100
AcDbEntity
  8
0
100
AcDbCircle
 10
441.8145180835438
 20
69.43652644718715
 30
0.0
 40
3.0
100
AcDbArc
 50
270.0
 51
0.0
  0
LINE
  5
6F9
330
2
100
AcDbEntity
  8
0
100
AcDbLine
 10
443.3500400835438
 20
117.9010084471871
 30
0.0
 11
439.8145180835438
 21
121.4365154471871
 31
0.0
  0
ARC
  5
6FA
330
2
100
AcDbEntity
  8
0
100
AcDbCircle
 10
433.8145180835438
 20
144.8299474471871
 30
0.0
 40
2.0
100
AcDbArc
 50
0.0
 51
88.99935900000036
  0
ARC
  5
6FB
330
2
100
AcDbEntity
  8
0
100
AcDbCircle
 10
438.8145180835437
 20
133.7365414471871
 30
0.0
 40
1.0
100
AcDbArc
 50
0.0
 51
90.0
  0
LINE
  5
6FC
330
2
100
AcDbEntity
  8
0
100
AcDbLine
 10
438.8145180835437
 20
134.7365414471871
 30
0.0
 11
437.8145180835439
 21
134.7365414471871
 31
0.0
  0
LINE
  5
6FD
330
2
100
AcDbEntity
  8
0
100
AcDbLine
 10
433.8494300835438
 20
146.8296354471871
 30
0.0
 11
404.8145180835438
 21
147.3365474471871
 31
0.0
  0
ARC
  5
6FE
330
2
100
AcDbEntity
  8
0
100
AcDbCircle
 10
439.8145180835438
 20
114.3654474471871
 30
0.0
 40
5.0
100
AcDbArc
 50
0.0
 51
45.00025199999998
  0
LINE
  5
700
330
2
100
AcDbEntity
  8
0
100
AcDbLine
 10
230.4856047812856
 20
315.2276914471871
 30
0.0
 11
230.4856047812856
 21
257.1578824471871
 31
0.0
  0
LINE
  5
701
330
2
100
AcDbEntity
  8
0
100
AcDbLine
 10
257.2166687812856
 20
330.2451474471871
 30
0.0
 11
257.9856047812857
 21
286.1927944471871
 31
0.0
  0
LINE
  5
702
330
2
100
AcDbEntity
  8
0
100
AcDbLine
 10
222.5566037812856
 20
246.1927944471871
 30
0.0
 11
222.5566037812856
 21
222.1927944471871
 31
0.0
  0
LINE
  5
703
330
2
100
AcDbEntity
  8
0
100
AcDbLine
 10
224.9856047812856
 20
246.1927944471871
 30
0.0
 11
224.9856047812856
 21
222.1927944471871
 31
0.0
  0
ARC
  5
705
330
2
100
AcDbEntity
  8
0
100
AcDbCircle
 10
254.2171267812856
 20
242.1927944471871
 30
0.0
 40
3.0
100
AcDbArc
 50
270.0
 51
358.9999999999998
  0
LINE
  5
706
330
2
100
AcDbEntity
  8
0
100
AcDbLine
 10
224.9856047812856
 20
239.1927944471871
 30
0.0
 11
254.2171267812856
 21
239.1927944471871
 31
0.0
  0
CIRCLE
  5
708
330
2
100
AcDbEntity
  8
0
100
AcDbCircle
 10
249.4856047812857
 20
246.1927944471871
 30
0.0
 40
3.25
  0
LINE
  5
709
330
2
100
AcDbEntity
  8
0
100
AcDbLine
 10
223.9856047812856
 20
249.1927944471871
 30
0.0
 11
223.9856047812856
 21
251.1927944471871
 31
0.0
  0
ARC
  5
70A
330
2
100
AcDbEntity
  8
0
100
AcDbCircle
 10
234.4856047812856
 20
252.1927944471871
 30
0.0
 40
1.0
100
AcDbArc
 50
270.0
 51
0.0
  0
LINE
  5
70B
330
2
100
AcDbEntity
  8
0
100
AcDbLine
 10
222.9856047812856
 20
246.1927944471871
 30
0.0
 11
222.9856047812856
 21
249.1927944471871
 31
0.0
  0
LINE
  5
70C
330
2
100
AcDbEntity
  8
0
100
AcDbLine
 10
222.5566037812856
 20
246.1927944471871
 30
0.0
 11
224.9856047812856
 21
246.1927944471871
 31
0.0
  0
LINE
  5
70D
330
2
100
AcDbEntity
  8
0
100
AcDbLine
 10
235.4856047812856
 20
252.1927944471871
 30
0.0
 11
235.4856047812856
 21
253.192794447187
 31
0.0
  0
LINE
  5
70E
330
2
100
AcDbEntity
  8
0
100
AcDbLine
 10
257.2166687812856
 20
242.140426447187
 30
0.0
 11
257.9856047812857
 21
286.1927944471871
 31
0.0
  0
ARC
  5
70F
330
2
100
AcDbEntity
  8
0
100
AcDbCircle
 10
255.4791047812856
 20
257.1927944471871
 30
0.0
 40
2.0
100
AcDbArc
 50
270.0
 51
358.9999999999998
  0
LINE
  5
710
330
2
100
AcDbEntity
  8
CENTER
100
AcDbLine
 10
249.4856047812857
 20
332.295462302536
 30
0.0
 11
249.4856047812857
 21
320.0900945918383
 31
0.0
  0
ARC
  5
711
330
2
100
AcDbEntity
  8
0
100
AcDbCircle
 10
254.2171267812856
 20
330.1927784471871
 30
0.0
 40
3.0
100
AcDbArc
 50
1.000000000000147
 51
90.0
  0
LINE
  5
712
330
2
100
AcDbEntity
  8
CENTER
100
AcDbLine
 10
243.3829209259368
 20
326.1927784471871
 30
0.0
 11
255.5882886366345
 21
326.1927784471871
 31
0.0
  0
CIRCLE
  5
713
330
2
100
AcDbEntity
  8
0
100
AcDbCircle
 10
249.4856047812857
 20
326.1927784471871
 30
0.0
 40
3.25
  0
ARC
  5
714
330
2
100
AcDbEntity
  8
0
100
AcDbCircle
 10
255.4791047812856
 20
315.1927784471871
 30
0.0
 40
2.0
100
AcDbArc
 50
1.000000000000147
 51
90.0
  0
LINE
  5
844
330
2
100
AcDbEntity
  8
CENTER
100
AcDbLine
 10
175.3829209259367
 20
326.1927784471871
 30
0.0
 11
187.5882886366344
 21
326.1927784471871
 31
0.0
  0
LINE
  5
845
330
2
100
AcDbEntity
  8
CENTER
100
AcDbLine
 10
181.4856047812856
 20
332.295462302536
 30
0.0
 11
181.4856047812856
 21
320.0900945918383
 31
0.0
  0
LINE
  5
846
330
2
100
AcDbEntity
  8
CENTER
100
AcDbLine
 10
175.3829209259367
 20
246.1927944471871
 30
0.0
 11
187.5882886366344
 21
246.1927944471871
 31
0.0
  0
LINE
  5
847
330
2
100
AcDbEntity
  8
CENTER
100
AcDbLine
 10
181.4856047812856
 20
252.295478302536
 30
0.0
 11
181.4856047812856
 21
240.0901105918383
 31
0.0
  0
LINE
  5
848
330
2
100
AcDbEntity
  8
CENTER
100
AcDbLine
 10
243.3829209259368
 20
246.1927944471871
 30
0.0
 11
255.5882886366345
 21
246.1927944471871
 31
0.0
  0
LINE
  5
849
330
2
100
AcDbEntity
  8
CENTER
100
AcDbLine
 10
249.4856047812857
 20
252.295478302536
 30
0.0
 11
249.4856047812857
 21
240.0901105918383
 31
0.0
  0
TEXT
  5
857
330
2
100
AcDbEntity
  8
TITLE
100
AcDbText
 10
334.69412798249
 20
295.579555562152
 30
0.0
 40
5.0
  1
HLM-15R-10~120-T40W
 41
0.8
100
AcDbText
  0
TEXT
  5
858
330
2
100
AcDbEntity
  8
TITLE
100
AcDbText
 10
334.69412798249
 20
287.5795555621521
 30
0.0
 40
5.0
  1
HLM-15R-10~60-T60
 41
0.8
100
AcDbText
  0
TEXT
  5
859
330
2
100
AcDbEntity
  8
TITLE
100
AcDbText
 10
334.69412798249
 20
279.5795555621521
 30
0.0
 40
5.0
  1
HLM-15R-10~120-S40
 41
0.8
100
AcDbText
  0
TEXT
  5
85A
330
2
100
AcDbEntity
  8
TITLE
100
AcDbText
 10
334.69412798249
 20
271.5795555621521
 30
0.0
 40
5.0
  1
HLM-15R-10~120-S40W
 41
0.8
100
AcDbText
  0
ARC
  5
F56
330
2
100
AcDbEntity
  8
0
100
AcDbCircle
 10
437.8145180835439
 20
136.7365414471871
 30
0.0
 40
2.0
100
AcDbArc
 50
180.0
 51
270.0
  0
ARC
  5
F57
330
2
100
AcDbEntity
  8
0
100
AcDbCircle
 10
437.8145180835439
 20
92.73654144718713
 30
0.0
 40
2.0
100
AcDbArc
 50
90.00000000000003
 51
180.0
  0
ARC
  5
F58
330
2
100
AcDbEntity
  8
0
100
AcDbCircle
 10
371.8145180835438
 20
92.73654144718713
 30
0.0
 40
2.0
100
AcDbArc
 50
0.000000000000007
 51
89.99999999999998
  0
ARC
  5
F59
330
2
100
AcDbEntity
  8
0
100
AcDbCircle
 10
371.8145180835438
 20
136.7365414471871
 30
0.0
 40
2.0
100
AcDbArc
 50
270.0
 51
0.000000000000007
  0
LINE
  5
F5A
330
2
100
AcDbEntity
  8
0
100
AcDbLine
 10
235.4856087812856
 20
320.192794447187
 30
0.0
 11
235.4856087812856
 21
319.1887944491922
 31
0.0
  0
LINE
  5
F5B
330
2
100
AcDbEntity
  8
0
100
AcDbLine
 10
195.4856047812856
 20
320.192794447187
 30
0.0
 11
195.4856047812856
 21
319.1927944471872
 31
0.0
  0
ARC
  5
F5C
330
2
100
AcDbEntity
  8
0
100
AcDbCircle
 10
237.4856047812857
 20
319.1927944471872
 30
0.0
 40
2.0
100
AcDbArc
 50
180.0
 51
270.0
  0
ARC
  5
F5D
330
2
100
AcDbEntity
  8
0
100
AcDbCircle
 10
193.4856047812856
 20
319.1927944471872
 30
0.0
 40
2.0
100
AcDbArc
 50
270.0
 51
0.0
  0
LINE
  5
F5E
330
2
100
AcDbEntity
  8
0
100
AcDbLine
 10
234.4856087812857
 20
321.192794447187
 30
0.0
 11
196.4856047812856
 21
321.192794447187
 31
0.0
  0
ARC
  5
F5F
330
2
100
AcDbEntity
  8
0
100
AcDbCircle
 10
234.4856127812857
 20
320.192794447187
 30
0.0
 40
1.0
100
AcDbArc
 50
0.0
 51
90.0
  0
ARC
  5
F60
330
2
100
AcDbEntity
  8
0
100
AcDbCircle
 10
196.4856047812856
 20
320.192794447187
 30
0.0
 40
1.0
100
AcDbArc
 50
90.0
 51
180.0
  0
ARC
  5
F61
330
2
100
AcDbEntity
  8
0
100
AcDbCircle
 10
193.4856047812856
 20
253.192794447187
 30
0.0
 40
2.0
100
AcDbArc
 50
0.0
 51
90.00000000000003
  0
ARC
  5
F62
330
2
100
AcDbEntity
  8
0
100
AcDbCircle
 10
237.4856047812857
 20
253.192794447187
 30
0.0
 40
2.0
100
AcDbArc
 50
90.00000000000003
 51
179.9999999999999
  0
ENDSEC
  0
SECTION
  2
OBJECTS
  0
DICTIONARY
  5
7
330
0
100
AcDbDictionary
  3
ACAD_GROUP
350
75
  3
ACAD_LAYOUT
350
61
  3
ACAD_MLINESTYLE
350
76
  3
ACAD_PLOTSETTINGS
350
77
  3
ACAD_PLOTSTYLENAME
350
6
  3
ACADDIM
350
480
  3
ACDBHEADERROUNDTRIPXREC
350
FA6
  3
ACDBVARIABLEDICTIONARY
350
102
  3
DWGPROPS
350
3D2
  0
DICTIONARY
  5
FC7
330
2
100
AcDbDictionary
280
     1
  3
ACAD_LAYOUTSELFREF
360
FC8
  0
DICTIONARY
  5
FC9
330
FA0
100
AcDbDictionary
280
     1
  3
ACAD_LAYOUTSELFREF
360
FCA
  0
DICTIONARY
  5
75
102
{ACAD_REACTORS
330
7
102
}
330
7
100
AcDbDictionary
  0
DICTIONARY
  5
61
102
{ACAD_REACTORS
330
7
102
}
330
7
100
AcDbDictionary
  0
DICTIONARY
  5
76
102
{ACAD_REACTORS
330
7
102
}
330
7
100
AcDbDictionary
  3
STANDARD
350
78
  0
DICTIONARY
  5
77
102
{ACAD_REACTORS
330
7
102
}
330
7
100
AcDbDictionary
  0
ACDBDICTIONARYWDFLT
  5
6
102
{ACAD_REACTORS
330
7
102
}
330
7
100
AcDbDictionary
281
     1
  3
Normal
350
5
100
AcDbDictionaryWithDefault
340
5
  0
XRECORD
  5
480
102
{ACAD_REACTORS
330
7
102
}
330
7
100
AcDbXrecord
 90
   990106
  3

 60
     0
 61
     0
 62
     1
 63
     3
 64
     1
 65
     0
 66
     0
 67
     3
 68
     1
 69
     0
 70
     0
 71
     0
 72
     0
 40
0.0
170
     2
340
0
  0
DICTIONARY
  5
FA6
102
{ACAD_REACTORS
330
7
102
}
330
7
100
AcDbDictionary
  3
CEPSNTYPE
350
FB0
  3
DIMSTYLEDATA
350
FB4
  3
FINGERPRINTGUID
350
FB1
  3
HYPERLINKBASE
350
FA9
  3
INSUNITS
350
FAF
  3
LAYOUTDICT
350
FAB
  3
LWETCUNION
350
FAE
  3
PLOTSETDICT
350
FAC
  3
PLOTSTYLNAMDICT
350
FAD
  3
PSVPSCALE
350
FB3
  3
PUCSBASE
350
FB7
  3
PUCSORGBACK
350
FBD
  3
PUCSORGBOTTOM
350
FB9
  3
PUCSORGFRONT
350
FBC
  3
PUCSORGLEFT
350
FBA
  3
PUCSORGRIGHT
350
FBB
  3
PUCSORGTOP
350
FB8
  3
PUCSORTHOREF
350
FB5
  3
PUCSORTHOVIEW
350
FB6
  3
STYLESHEET
350
FAA
  3
TSTACKALIGN
350
FA7
  3
TSTACKSIZE
350
FA8
  3
UCSBASE
350
FC0
  3
UCSORGBACK
350
FC6
  3
UCSORGBOTTOM
350
FC2
  3
UCSORGFRONT
350
FC5
  3
UCSORGLEFT
350
FC3
  3
UCSORGRIGHT
350
FC4
  3
UCSORGTOP
350
FC1
  3
UCSORTHOREF
350
FBE
  3
UCSORTHOVIEW
350
FBF
  3
VERSIONGUID
350
FB2
  0
DICTIONARY
  5
102
102
{ACAD_REACTORS
330
7
102
}
330
7
100
AcDbDictionary
  3
DIMASSOC
350
103
  0
XRECORD
  5
3D2
102
{ACAD_REACTORS
330
7
102
}
330
7
100
AcDbXrecord
  1
DWGPROPS COOKIE
  2

  3

  4

  6

  7

  8

  9

300
=
301
=
302
=
303
=
304
=
305
=
306
=
307
=
308
=
309
=
 40
0.5353330671296296
 41
2452052.431989363
 42
2453406.550756377
  1

 90
        0
  0
XRECORD
  5
FC8
102
{ACAD_REACTORS
330
FC7
102
}
330
FC7
100
AcDbXrecord
340
2
  0
XRECORD
  5
FCA
102
{ACAD_REACTORS
330
FC9
102
}
330
FC9
100
AcDbXrecord
340
FA0
  0
MLINESTYLE
  5
78
102
{ACAD_REACTORS
330
76
102
}
330
76
100
AcDbMlineStyle
  2
STANDARD
 70
     0
  3

 62
     0
 51
90.0
 52
90.0
 71
     2
 49
0.5
 62
   256
  6
BYLAYER
 49
-0.5
 62
   256
  6
BYLAYER
  0
ACDBPLACEHOLDER
  5
5
102
{ACAD_REACTORS
330
6
102
}
330
6
100
AcDbPlaceHolder
280
     0
  0
XRECORD
  5
FB0
102
{ACAD_REACTORS
330
FA6
102
}
330
FA6
100
AcDbXrecord
 90
        0
  0
XRECORD
  5
FB4
102
{ACAD_REACTORS
330
FA6
102
}
330
FA6
100
AcDbXrecord
1000
DSTYLE
1002
{
1070
   179
 70
     2
1070
   277
 70
     6
1002
}
  0
XRECORD
  5
FB1
102
{ACAD_REACTORS
330
FA6
102
}
330
FA6
100
AcDbXrecord
  1
{6385560B-F4B1-4644-A7C2-A3E32AC3D232}
  0
XRECORD
  5
FA9
102
{ACAD_REACTORS
330
FA6
102
}
330
FA6
100
AcDbXrecord
  1

  0
XRECORD
  5
FAF
102
{ACAD_REACTORS
330
FA6
102
}
330
FA6
100
AcDbXrecord
 90
        0
  0
XRECORD
  5
FAB
102
{ACAD_REACTORS
330
FA6
102
}
330
FA6
100
AcDbXrecord
340
61
  0
XRECORD
  5
FAE
102
{ACAD_REACTORS
330
FA6
102
}
330
FA6
100
AcDbXrecord
 90
    10781
  0
XRECORD
  5
FAC
102
{ACAD_REACTORS
330
FA6
102
}
330
FA6
100
AcDbXrecord
340
77
  0
XRECORD
  5
FAD
102
{ACAD_REACTORS
330
FA6
102
}
330
FA6
100
AcDbXrecord
340
6
  0
XRECORD
  5
FB3
102
{ACAD_REACTORS
330
FA6
102
}
330
FA6
100
AcDbXrecord
 40
0.0
  0
XRECORD
  5
FB7
102
{ACAD_REACTORS
330
FA6
102
}
330
FA6
100
AcDbXrecord
340
0
  0
XRECORD
  5
FBD
102
{ACAD_REACTORS
330
FA6
102
}
330
FA6
100
AcDbXrecord
 10
0.0
 20
0.0
 30
0.0
  0
XRECORD
  5
FB9
102
{ACAD_REACTORS
330
FA6
102
}
330
FA6
100
AcDbXrecord
 10
0.0
 20
0.0
 30
0.0
  0
XRECORD
  5
FBC
102
{ACAD_REACTORS
330
FA6
102
}
330
FA6
100
AcDbXrecord
 10
0.0
 20
0.0
 30
0.0
  0
XRECORD
  5
FBA
102
{ACAD_REACTORS
330
FA6
102
}
330
FA6
100
AcDbXrecord
 10
0.0
 20
0.0
 30
0.0
  0
XRECORD
  5
FBB
102
{ACAD_REACTORS
330
FA6
102
}
330
FA6
100
AcDbXrecord
 10
0.0
 20
0.0
 30
0.0
  0
XRECORD
  5
FB8
102
{ACAD_REACTORS
330
FA6
102
}
330
FA6
100
AcDbXrecord
 10
0.0
 20
0.0
 30
0.0
  0
XRECORD
  5
FB5
102
{ACAD_REACTORS
330
FA6
102
}
330
FA6
100
AcDbXrecord
340
0
  0
XRECORD
  5
FB6
102
{ACAD_REACTORS
330
FA6
102
}
330
FA6
100
AcDbXrecord
 70
     0
  0
XRECORD
  5
FAA
102
{ACAD_REACTORS
330
FA6
102
}
330
FA6
100
AcDbXrecord
  1
Sekkei.ctb
  0
XRECORD
  5
FA7
102
{ACAD_REACTORS
330
FA6
102
}
330
FA6
100
AcDbXrecord
 90
        1
  0
XRECORD
  5
FA8
102
{ACAD_REACTORS
330
FA6
102
}
330
FA6
100
AcDbXrecord
 90
       70
  0
XRECORD
  5
FC0
102
{ACAD_REACTORS
330
FA6
102
}
330
FA6
100
AcDbXrecord
340
0
  0
XRECORD
  5
FC6
102
{ACAD_REACTORS
330
FA6
102
}
330
FA6
100
AcDbXrecord
 10
0.0
 20
0.0
 30
0.0
  0
XRECORD
  5
FC2
102
{ACAD_REACTORS
330
FA6
102
}
330
FA6
100
AcDbXrecord
 10
0.0
 20
0.0
 30
0.0
  0
XRECORD
  5
FC5
102
{ACAD_REACTORS
330
FA6
102
}
330
FA6
100
AcDbXrecord
 10
0.0
 20
0.0
 30
0.0
  0
XRECORD
  5
FC3
102
{ACAD_REACTORS
330
FA6
102
}
330
FA6
100
AcDbXrecord
 10
0.0
 20
0.0
 30
0.0
  0
XRECORD
  5
FC4
102
{ACAD_REACTORS
330
FA6
102
}
330
FA6
100
AcDbXrecord
 10
0.0
 20
0.0
 30
0.0
  0
XRECORD
  5
FC1
102
{ACAD_REACTORS
330
FA6
102
}
330
FA6
100
AcDbXrecord
 10
0.0
 20
0.0
 30
0.0
  0
XRECORD
  5
FBE
102
{ACAD_REACTORS
330
FA6
102
}
330
FA6
100
AcDbXrecord
340
0
  0
XRECORD
  5
FBF
102
{ACAD_REACTORS
330
FA6
102
}
330
FA6
100
AcDbXrecord
 70
     0
  0
XRECORD
  5
FB2
102
{ACAD_REACTORS
330
FA6
102
}
330
FA6
100
AcDbXrecord
  1
{51207B60-D9C1-4DFD-AECB-0B3E55F4B8BE}
  0
DICTIONARYVAR
  5
103
102
{ACAD_REACTORS
330
102
102
}
330
102
100
DictionaryVariables
280
     0
  1
1
  0
ENDSEC
  0
EOF
