  0
SECTION
  2
HEADER
  9
$ACADVER
  1
AC1014
  9
$ACADMAINTVER
 70
     9
  9
$DWGCODEPAGE
  3
ANSI_932
  9
$INSBASE
 10
0.0
 20
0.0
 30
0.0
  9
$EXTMIN
 10
34.98560778128563
 20
42.73653744718714
 30
0.0
  9
$EXTMAX
 10
452.2287316459169
 20
361.3200875734116
 30
0.0
  9
$LIMMIN
 10
0.0
 20
0.0
  9
$LIMMAX
 10
297.0
 20
210.0
  9
$ORTHOMODE
 70
     1
  9
$REGENMODE
 70
     1
  9
$FILLMODE
 70
     1
  9
$QTEXTMODE
 70
     0
  9
$MIRRTEXT
 70
     0
  9
$DRAGMODE
 70
     2
  9
$LTSCALE
 40
2.0
  9
$OSMODE
 70
    37
  9
$ATTMODE
 70
     1
  9
$TEXTSIZE
 40
2.0
  9
$TRACEWID
 40
1.0
  9
$TEXTSTYLE
  7
STANDARD
  9
$CLAYER
  8
0
  9
$CELTYPE
  6
BYLAYER
  9
$CECOLOR
 62
   256
  9
$CELTSCALE
 40
1.0
  9
$DELOBJ
 70
     1
  9
$DISPSILH
 70
     0
  9
$DIMSCALE
 40
2.0
  9
$DIMASZ
 40
1.8
  9
$DIMEXO
 40
0.625
  9
$DIMDLI
 40
3.75
  9
$DIMRND
 40
0.0
  9
$DIMDLE
 40
0.0
  9
$DIMEXE
 40
0.8
  9
$DIMTP
 40
0.0
  9
$DIMTM
 40
0.0
  9
$DIMTXT
 40
1.8
  9
$DIMCEN
 40
2.5
  9
$DIMTSZ
 40
0.0
  9
$DIMTOL
 70
     0
  9
$DIMLIM
 70
     0
  9
$DIMTIH
 70
     0
  9
$DIMTOH
 70
     0
  9
$DIMSE1
 70
     0
  9
$DIMSE2
 70
     0
  9
$DIMTAD
 70
     1
  9
$DIMZIN
 70
     8
  9
$DIMBLK
  1

  9
$DIMASO
 70
     1
  9
$DIMSHO
 70
     1
  9
$DIMPOST
  1

  9
$DIMAPOST
  1

  9
$DIMALT
 70
     0
  9
$DIMALTD
 70
     4
  9
$DIMALTF
 40
0.0394
  9
$DIMLFAC
 40
1.0
  9
$DIMTOFL
 70
     1
  9
$DIMTVP
 40
0.0
  9
$DIMTIX
 70
     0
  9
$DIMSOXD
 70
     0
  9
$DIMSAH
 70
     0
  9
$DIMBLK1
  1

  9
$DIMBLK2
  1

  9
$DIMSTYLE
  2
STANDARD
  9
$DIMCLRD
 70
     0
  9
$DIMCLRE
 70
     0
  9
$DIMCLRT
 70
     0
  9
$DIMTFAC
 40
1.0
  9
$DIMGAP
 40
0.75
  9
$DIMJUST
 70
     0
  9
$DIMSD1
 70
     0
  9
$DIMSD2
 70
     0
  9
$DIMTOLJ
 70
     1
  9
$DIMTZIN
 70
     0
  9
$DIMALTZ
 70
     0
  9
$DIMALTTZ
 70
     0
  9
$DIMFIT
 70
     3
  9
$DIMUPT
 70
     0
  9
$DIMUNIT
 70
     8
  9
$DIMDEC
 70
     2
  9
$DIMTDEC
 70
     2
  9
$DIMALTU
 70
     8
  9
$DIMALTTD
 70
     4
  9
$DIMTXSTY
  7
STANDARD
  9
$DIMAUNIT
 70
     0
  9
$LUNITS
 70
     2
  9
$LUPREC
 70
     3
  9
$SKETCHINC
 40
1.0
  9
$FILLETRAD
 40
10.0
  9
$AUNITS
 70
     0
  9
$AUPREC
 70
     2
  9
$MENU
  1
.
  9
$ELEVATION
 40
0.0
  9
$PELEVATION
 40
0.0
  9
$THICKNESS
 40
0.0
  9
$LIMCHECK
 70
     0
  9
$BLIPMODE
 70
     0
  9
$CHAMFERA
 40
0.0
  9
$CHAMFERB
 40
0.0
  9
$CHAMFERC
 40
20.0
  9
$CHAMFERD
 40
0.0
  9
$SKPOLY
 70
     0
  9
$TDCREATE
 40
2453752.650018808
  9
$TDUPDATE
 40
2454399.553073819
  9
$TDINDWG
 40
0.3123960301
  9
$TDUSRTIMER
 40
0.3123960301
  9
$USRTIMER
 70
     1
  9
$ANGBASE
 50
0.0
  9
$ANGDIR
 70
     0
  9
$PDMODE
 70
     0
  9
$PDSIZE
 40
-10.0
  9
$PLINEWID
 40
0.0
  9
$COORDS
 70
     1
  9
$SPLFRAME
 70
     0
  9
$SPLINETYPE
 70
     6
  9
$SPLINESEGS
 70
     8
  9
$ATTDIA
 70
     0
  9
$ATTREQ
 70
     1
  9
$HANDLING
 70
-16383
  9
$HANDSEED
  5
1624
  9
$SURFTAB1
 70
     6
  9
$SURFTAB2
 70
     6
  9
$SURFTYPE
 70
     6
  9
$SURFU
 70
     6
  9
$SURFV
 70
     6
  9
$UCSNAME
  2

  9
$UCSORG
 10
0.0
 20
0.0
 30
0.0
  9
$UCSXDIR
 10
1.0
 20
0.0
 30
0.0
  9
$UCSYDIR
 10
0.0
 20
1.0
 30
0.0
  9
$PUCSNAME
  2

  9
$PUCSORG
 10
0.0
 20
0.0
 30
0.0
  9
$PUCSXDIR
 10
1.0
 20
0.0
 30
0.0
  9
$PUCSYDIR
 10
0.0
 20
1.0
 30
0.0
  9
$USERI1
 70
     0
  9
$USERI2
 70
     0
  9
$USERI3
 70
     0
  9
$USERI4
 70
     0
  9
$USERI5
 70
     0
  9
$USERR1
 40
0.0
  9
$USERR2
 40
0.0
  9
$USERR3
 40
0.0
  9
$USERR4
 40
0.0
  9
$USERR5
 40
0.0
  9
$WORLDVIEW
 70
     1
  9
$SHADEDGE
 70
     3
  9
$SHADEDIF
 70
    70
  9
$TILEMODE
 70
     1
  9
$MAXACTVP
 70
    48
  9
$PINSBASE
 10
0.0
 20
0.0
 30
0.0
  9
$PLIMCHECK
 70
     0
  9
$PEXTMIN
 10
0.0
 20
0.0
 30
0.0
  9
$PEXTMAX
 10
0.0
 20
0.0
 30
0.0
  9
$PLIMMIN
 10
0.0
 20
0.0
  9
$PLIMMAX
 10
12.0
 20
9.0
  9
$UNITMODE
 70
     0
  9
$VISRETAIN
 70
     1
  9
$PLINEGEN
 70
     0
  9
$PSLTSCALE
 70
     1
  9
$TREEDEPTH
 70
  3020
  9
$PICKSTYLE
 70
     1
  9
$CMLSTYLE
  2
STANDARD
  9
$CMLJUST
 70
     0
  9
$CMLSCALE
 40
1.0
  9
$PROXYGRAPHICS
 70
     1
  9
$MEASUREMENT
 70
     0
  0
ENDSEC
  0
SECTION
  2
CLASSES
  0
CLASS
  1
DICTIONARYVAR
  2
AcDbDictionaryVar
  3
AutoCAD 2000
 90
        0
280
     0
281
     0
  0
CLASS
  1
ACDBDICTIONARYWDFLT
  2
AcDbDictionaryWithDefault
  3
AutoCAD 2000
 90
        0
280
     0
281
     0
  0
CLASS
  1
ACDBPLACEHOLDER
  2
AcDbPlaceHolder
  3
AutoCAD 2000
 90
        0
280
     0
281
     0
  0
CLASS
  1
LAYOUT
  2
AcDbLayout
  3
AutoCAD 2000
 90
        0
280
     0
281
     0
  0
CLASS
  1
LONG_TRANSACTION
  2
AcDbLongTransaction
  3
AutoCAD 2000
 90
        0
280
     0
281
     0
  0
CLASS
  1
LWPOLYLINE
  2
AcDbPolyline
  3
AutoCAD 2000
 90
        0
280
     0
281
     1
  0
CLASS
  1
HATCH
  2
AcDbHatch
  3
AutoCAD 2000
 90
        0
280
     0
281
     1
  0
CLASS
  1
XRECORD
  2
AcDbXrecord
  3
AutoCAD 2000
 90
        0
280
     0
281
     0
  0
ENDSEC
  0
SECTION
  2
TABLES
  0
TABLE
  2
VPORT
  5
6E
330
0
100
AcDbSymbolTable
 70
     2
  0
VPORT
  5
15FE
330
6E
100
AcDbSymbolTableRecord
100
AcDbViewportTableRecord
  2
*ACTIVE
 70
     0
 10
0.0
 20
0.0
 11
1.0
 21
1.0
 12
236.9653446795516
 22
190.3496816923241
 13
0.0
 23
0.0
 14
10.0
 24
10.0
 15
10.0
 25
10.0
 16
0.0
 26
0.0
 36
1.0
 17
0.0
 27
0.0
 37
0.0
 40
344.5832717813329
 41
1.540920716112531
 42
50.0
 43
0.0
 44
0.0
 50
0.0
 51
0.0
 71
     0
 72
   100
 73
     1
 74
     3
 75
     0
 76
     0
 77
     0
 78
     0
  0
ENDTAB
  0
TABLE
  2
LTYPE
  5
69
330
0
100
AcDbSymbolTable
 70
     4
  0
LTYPE
  5
6A
330
69
100
AcDbSymbolTableRecord
100
AcDbLinetypeTableRecord
  2
BYBLOCK
 70
     0
  3

 72
    65
 73
     0
 40
0.0
  0
LTYPE
  5
6B
330
69
100
AcDbSymbolTableRecord
100
AcDbLinetypeTableRecord
  2
BYLAYER
 70
     0
  3

 72
    65
 73
     0
 40
0.0
  0
LTYPE
  5
8
330
69
100
AcDbSymbolTableRecord
100
AcDbLinetypeTableRecord
  2
CONTINUOUS
 70
     0
  3
Solid line
 72
    65
 73
     0
 40
0.0
  0
LTYPE
  5
27C
330
69
100
AcDbSymbolTableRecord
100
AcDbLinetypeTableRecord
  2
SEKKEI_A2_
 70
     0
  3
center(A2)  ____ _ ____ _ ____ _ ____ _ ____ _ 
 72
    65
 73
     4
 40
14.28749999999999
 49
9.525
 74
     0
 49
-1.587499999999999
 74
     0
 49
1.587499999999999
 74
     0
 49
-1.587499999999999
 74
     0
  0
LTYPE
  5
2B4
330
69
100
AcDbSymbolTableRecord
100
AcDbLinetypeTableRecord
  2
HIDDEN2
 70
     0
  3
Hidden (.5x) _ _ _ _ _ _ _ _ _ _ _ _ _ _ _ _ _
 72
    65
 73
     2
 40
4.762499999999999
 49
3.174999999999999
 74
     0
 49
-1.587499999999999
 74
     0
  0
LTYPE
  5
48F
330
69
100
AcDbSymbolTableRecord
100
AcDbLinetypeTableRecord
  2
SEKKEI_H
 70
     0
  3
Hidden-S _ _ _ _ _ _ _ _ _ _ _ _ _ _ _ _ _
 72
    65
 73
     2
 40
2.381249999999999
 49
1.587499999999999
 74
     0
 49
-0.79375
 74
     0
  0
ENDTAB
  0
TABLE
  2
LAYER
  5
66
330
0
100
AcDbSymbolTable
 70
     8
  0
LAYER
  5
5E
330
66
100
AcDbSymbolTableRecord
100
AcDbLayerTableRecord
  2
0
 70
     0
 62
     7
  6
CONTINUOUS
  0
LAYER
  5
3E
330
66
100
AcDbSymbolTableRecord
100
AcDbLayerTableRecord
  2
CENTER
 70
     0
 62
     3
  6
SEKKEI_A2_
  0
LAYER
  5
2B5
330
66
100
AcDbSymbolTableRecord
100
AcDbLayerTableRecord
  2
HIDS
 70
     0
 62
     1
  6
HIDDEN2
  0
LAYER
  5
3FA
330
66
100
AcDbSymbolTableRecord
100
AcDbLayerTableRecord
  2
TITLE
 70
     0
 62
     4
  6
CONTINUOUS
  0
ENDTAB
  0
TABLE
  2
STYLE
  5
67
330
0
100
AcDbSymbolTable
 70
     1
  0
STYLE
  5
16
330
67
100
AcDbSymbolTableRecord
100
AcDbTextStyleTableRecord
  2
STANDARD
 70
     0
 40
0.0
 41
1.0
 50
0.0
 71
     0
 42
2.0
  3
simplex.shx
  4
extfont.shx
  0
ENDTAB
  0
TABLE
  2
VIEW
  5
6C
330
0
100
AcDbSymbolTable
 70
     0
  0
ENDTAB
  0
TABLE
  2
UCS
  5
6D
330
0
100
AcDbSymbolTable
 70
     0
  0
ENDTAB
  0
TABLE
  2
APPID
  5
70
330
0
100
AcDbSymbolTable
 70
     1
  0
APPID
  5
71
330
70
100
AcDbSymbolTableRecord
100
AcDbRegAppTableRecord
  2
ACAD
 70
     0
  0
ENDTAB
  0
TABLE
  2
DIMSTYLE
  5
72
330
0
100
AcDbSymbolTable
 70
     1
  0
DIMSTYLE
105
73
330
72
100
AcDbSymbolTableRecord
100
AcDbDimStyleTableRecord
  2
STANDARD
 70
     0
  3

  4

  5

  6

  7

 40
2.0
 41
1.8
 42
0.625
 43
3.75
 44
0.8
 45
0.0
 46
0.0
 47
0.0
 48
0.0
140
1.8
141
2.5
142
0.0
143
0.0394
144
1.0
145
0.0
146
1.0
147
0.75
 71
     0
 72
     0
 73
     0
 74
     0
 75
     0
 76
     0
 77
     1
 78
     8
170
     0
171
     4
172
     1
173
     0
174
     0
175
     0
176
     0
177
     0
178
     0
270
     8
271
     2
272
     2
273
     8
274
     4
340
16
275
     0
280
     0
281
     0
282
     0
283
     1
284
     0
285
     0
286
     0
287
     3
288
     0
  0
ENDTAB
  0
TABLE
  2
BLOCK_RECORD
  5
1
330
0
100
AcDbSymbolTable
 70
    45
  0
BLOCK_RECORD
  5
2
102
{ACAD_XDICTIONARY
360
1620
102
}
330
1
100
AcDbSymbolTableRecord
100
AcDbBlockTableRecord
  2
*MODEL_SPACE
  0
BLOCK_RECORD
  5
15F9
102
{ACAD_XDICTIONARY
360
1622
102
}
330
1
100
AcDbSymbolTableRecord
100
AcDbBlockTableRecord
  2
*PAPER_SPACE
  0
ENDTAB
  0
ENDSEC
  0
SECTION
  2
BLOCKS
  0
BLOCK
  5
5D
330
2
100
AcDbEntity
  8
0
100
AcDbBlockBegin
  2
*MODEL_SPACE
 70
     0
 10
0.0
 20
0.0
 30
0.0
  3
*MODEL_SPACE
  1

  0
ENDBLK
  5
5F
330
2
100
AcDbEntity
  8
0
100
AcDbBlockEnd
  0
BLOCK
  5
15FB
330
15F9
100
AcDbEntity
 67
     1
  8
0
100
AcDbBlockBegin
  2
*PAPER_SPACE
 70
     0
 10
0.0
 20
0.0
 30
0.0
  3
*PAPER_SPACE
  1

  0
ENDBLK
  5
15FC
330
15F9
100
AcDbEntity
 67
     1
  8
0
100
AcDbBlockEnd
  0
ENDSEC
  0
SECTION
  2
ENTITIES
  0
LINE
  5
608
330
2
100
AcDbEntity
  8
0
100
AcDbLine
 10
234.4856047812856
 20
272.3201035734116
 30
0.0
 11
196.4856047812856
 21
272.3201035734116
 31
0.0
  0
LINE
  5
609
330
2
100
AcDbEntity
  8
0
100
AcDbLine
 10
206.9856047812856
 20
270.3201035734116
 30
0.0
 11
223.9856047812856
 21
270.3201035734116
 31
0.0
  0
LINE
  5
60A
330
2
100
AcDbEntity
  8
0
100
AcDbLine
 10
207.9856047812856
 20
243.3201035734116
 30
0.0
 11
224.9856047812856
 21
243.3201035734116
 31
0.0
  0
LINE
  5
60B
330
2
100
AcDbEntity
  8
0
100
AcDbLine
 10
175.4921047812856
 20
276.3201035734115
 30
0.0
 11
255.4791047812856
 21
276.3201035734115
 31
0.0
  0
LINE
  5
60C
330
2
100
AcDbEntity
  8
0
100
AcDbLine
 10
175.4921047812856
 20
338.3200875734115
 30
0.0
 11
255.4791047812856
 21
338.3200875734115
 31
0.0
  0
LINE
  5
60D
330
2
100
AcDbEntity
  8
CENTER
100
AcDbLine
 10
34.98560778128569
 20
307.3201035734115
 30
0.0
 11
264.9856047812857
 21
307.3201035734115
 31
0.0
  0
LINE
  5
60E
330
2
100
AcDbEntity
  8
0
100
AcDbLine
 10
221.8606047812856
 20
87.12862744718714
 30
0.0
 11
222.3337037812856
 21
87.12862744718714
 31
0.0
  0
LINE
  5
60F
330
2
100
AcDbEntity
  8
0
100
AcDbLine
 10
223.8652127812856
 20
78.73653744718715
 30
0.0
 11
221.8606047812856
 21
78.73653744718715
 31
0.0
  0
LINE
  5
610
330
2
100
AcDbEntity
  8
0
100
AcDbLine
 10
221.8606047812856
 20
79.73262744718716
 30
0.0
 11
222.3337037812856
 21
79.73262744718716
 31
0.0
  0
LINE
  5
611
330
2
100
AcDbEntity
  8
0
100
AcDbLine
 10
221.8606047812856
 20
88.29903744718714
 30
0.0
 11
225.6831147812856
 21
88.29903744718714
 31
0.0
  0
CIRCLE
  5
612
330
2
100
AcDbEntity
  8
0
100
AcDbCircle
 10
215.4856047812856
 20
114.7365414471871
 30
0.0
 40
20.0
  0
ARC
  5
613
330
2
100
AcDbEntity
  8
0
100
AcDbCircle
 10
215.4856047812856
 20
114.7365414471871
 30
0.0
 40
7.5
100
AcDbArc
 50
19.47121000000005
 51
340.5288089999999
  0
LINE
  5
614
330
2
100
AcDbEntity
  8
0
100
AcDbLine
 10
219.9856047812856
 20
112.2365414471871
 30
0.0
 11
224.9856047812856
 21
112.2365414471871
 31
0.0
  0
LINE
  5
615
330
2
100
AcDbEntity
  8
0
100
AcDbLine
 10
219.9856047812856
 20
117.2365414471871
 30
0.0
 11
224.9856047812856
 21
117.2365414471871
 31
0.0
  0
ARC
  5
616
330
2
100
AcDbEntity
  8
0
100
AcDbCircle
 10
215.4856047812856
 20
101.7365374471871
 30
0.0
 40
42.5
100
AcDbArc
 50
19.749901
 51
160.2501069999997
  0
ARC
  5
617
330
2
100
AcDbEntity
  8
0
100
AcDbCircle
 10
215.4856047812856
 20
101.7365374471871
 30
0.0
 40
42.5
100
AcDbArc
 50
199.7498930000002
 51
340.2500920000002
  0
LINE
  5
618
330
2
100
AcDbEntity
  8
0
100
AcDbLine
 10
174.9856047812856
 20
57.73653744718714
 30
0.0
 11
255.9856047812857
 21
57.73653744718714
 31
0.0
  0
LINE
  5
619
330
2
100
AcDbEntity
  8
0
100
AcDbLine
 10
202.0651027812856
 20
147.3365394471871
 30
0.0
 11
228.9061067812856
 21
147.3365394471871
 31
0.0
  0
LINE
  5
61A
330
2
100
AcDbEntity
  8
0
100
AcDbLine
 10
172.9856047812856
 20
49.73653744718714
 30
0.0
 11
257.9856047812857
 21
49.73653744718714
 31
0.0
  0
LINE
  5
61B
330
2
100
AcDbEntity
  8
CENTER
100
AcDbLine
 10
188.7356672888835
 20
114.7365414471871
 30
0.0
 11
242.7355422736876
 21
114.7365414471871
 31
0.0
  0
LINE
  5
61C
330
2
100
AcDbEntity
  8
0
100
AcDbLine
 10
100.4855587812856
 20
62.18753744718715
 30
0.0
 11
172.9856047812856
 21
62.18753744718715
 31
0.0
  0
LINE
  5
61D
330
2
100
AcDbEntity
  8
0
100
AcDbLine
 10
100.4855587812856
 20
122.6855384471871
 30
0.0
 11
172.9856047812856
 21
122.6855384471871
 31
0.0
  0
LINE
  5
61E
330
2
100
AcDbEntity
  8
0
100
AcDbLine
 10
100.4856087812856
 20
54.43653744718715
 30
0.0
 11
172.9856047812856
 21
54.43653744718715
 31
0.0
  0
LINE
  5
61F
330
2
100
AcDbEntity
  8
0
100
AcDbLine
 10
100.4856087812856
 20
130.4365384471871
 30
0.0
 11
176.4053127812856
 21
130.4365384471871
 31
0.0
  0
LINE
  5
620
330
2
100
AcDbEntity
  8
CENTER
100
AcDbLine
 10
34.98560778128563
 20
92.43653844718716
 30
0.0
 11
192.2356047812856
 21
92.43653844718716
 31
0.0
  0
LINE
  5
621
330
2
100
AcDbEntity
  8
0
100
AcDbLine
 10
100.4856087812856
 20
54.43653744718715
 30
0.0
 11
100.4856087812856
 21
130.4365384471871
 31
0.0
  0
LINE
  5
622
330
2
100
AcDbEntity
  8
0
100
AcDbLine
 10
41.98560778128563
 20
57.43653744718715
 30
0.0
 11
41.98560778128563
 21
127.4365384471871
 31
0.0
  0
LINE
  5
623
330
2
100
AcDbEntity
  8
0
100
AcDbLine
 10
90.98560878128564
 20
52.43653744718715
 30
0.0
 11
90.98560878128564
 21
132.4365384471871
 31
0.0
  0
ARC
  5
624
330
2
100
AcDbEntity
  8
0
100
AcDbCircle
 10
46.98560778128563
 20
57.43653744718715
 30
0.0
 40
5.0
100
AcDbArc
 50
180.0
 51
270.0
  0
LINE
  5
625
330
2
100
AcDbEntity
  8
0
100
AcDbLine
 10
44.48560778128563
 20
68.43653844718715
 30
0.0
 11
90.98560878128564
 21
68.43653844718715
 31
0.0
  0
LINE
  5
626
330
2
100
AcDbEntity
  8
0
100
AcDbLine
 10
46.98560878128563
 20
52.43653744718715
 30
0.0
 11
90.98560878128564
 21
52.43653744718715
 31
0.0
  0
LINE
  5
627
330
2
100
AcDbEntity
  8
0
100
AcDbLine
 10
90.98560878128564
 20
62.18753744718715
 30
0.0
 11
100.4856087812856
 21
62.18753744718715
 31
0.0
  0
LINE
  5
628
330
2
100
AcDbEntity
  8
0
100
AcDbLine
 10
90.98560878128564
 20
54.43653744718715
 30
0.0
 11
100.4856087812856
 21
54.43653744718715
 31
0.0
  0
ARC
  5
629
330
2
100
AcDbEntity
  8
0
100
AcDbCircle
 10
46.98563278128562
 20
127.4365604471871
 30
0.0
 40
5.0
100
AcDbArc
 50
90.0
 51
180.0
  0
LINE
  5
62A
330
2
100
AcDbEntity
  8
0
100
AcDbLine
 10
44.48560778128563
 20
118.4365384471871
 30
0.0
 11
90.98560878128564
 21
118.4365384471871
 31
0.0
  0
LINE
  5
62B
330
2
100
AcDbEntity
  8
0
100
AcDbLine
 10
46.98560778128563
 20
132.4365384471871
 30
0.0
 11
90.98560878128564
 21
132.4365384471871
 31
0.0
  0
LINE
  5
630
330
2
100
AcDbEntity
  8
0
100
AcDbLine
 10
90.98560878128564
 20
122.6855384471871
 30
0.0
 11
100.4856087812856
 21
122.6855384471871
 31
0.0
  0
LINE
  5
632
330
2
100
AcDbEntity
  8
0
100
AcDbLine
 10
90.98560878128564
 20
130.4365384471871
 30
0.0
 11
100.4856087812856
 21
130.4365384471871
 31
0.0
  0
LINE
  5
638
330
2
100
AcDbEntity
  8
0
100
AcDbLine
 10
175.4856047812856
 20
116.0978084471871
 30
0.0
 11
175.4856047812856
 21
87.37499944718715
 31
0.0
  0
LINE
  5
639
330
2
100
AcDbEntity
  8
CENTER
100
AcDbLine
 10
215.4856047812856
 20
154.3365394471871
 30
0.0
 11
215.4856047812856
 21
42.73653744718714
 31
0.0
  0
LINE
  5
63A
330
2
100
AcDbEntity
  8
0
100
AcDbLine
 10
172.9856047812856
 20
125.4371404471871
 30
0.0
 11
172.9856047812856
 21
49.73653744718714
 31
0.0
  0
LINE
  5
63B
330
2
100
AcDbEntity
  8
HIDS
  6
SEKKEI_H
100
AcDbLine
 10
178.2356047812856
 20
57.73653744718714
 30
0.0
 11
178.2356047812856
 21
49.73653744718714
 31
0.0
  0
LINE
  5
63C
330
2
100
AcDbEntity
  8
HIDS
  6
SEKKEI_H
100
AcDbLine
 10
184.7356047812856
 20
57.73653744718714
 30
0.0
 11
184.7356047812856
 21
49.73653744718714
 31
0.0
  0
LINE
  5
63D
330
2
100
AcDbEntity
  8
CENTER
100
AcDbLine
 10
181.4856047812855
 20
61.23653744718713
 30
0.0
 11
181.4856047812856
 21
46.23653744718715
 31
0.0
  0
ARC
  5
63E
330
2
100
AcDbEntity
  8
0
100
AcDbCircle
 10
174.9856047812856
 20
55.73654744718715
 30
0.0
 40
2.0
100
AcDbArc
 50
90.0
 51
180.0
  0
LINE
  5
63F
330
2
100
AcDbEntity
  8
0
100
AcDbLine
 10
206.5208067812856
 20
84.28976044718714
 30
0.0
 11
209.1106047812856
 21
84.28976044718714
 31
0.0
  0
LINE
  5
640
330
2
100
AcDbEntity
  8
0
100
AcDbLine
 10
203.9654017812856
 20
78.73653744718715
 30
0.0
 11
207.2807097812856
 21
78.73653744718715
 31
0.0
  0
ARC
  5
641
330
2
100
AcDbEntity
  8
0
100
AcDbCircle
 10
206.1970147812856
 20
81.84932644718713
 30
0.0
 40
1.992186999999999
100
AcDbArc
 50
270.0002139999998
 51
0.0001089999998967
  0
LINE
  5
642
330
2
100
AcDbEntity
  8
0
100
AcDbLine
 10
208.1892027812856
 20
83.24386144718715
 30
0.0
 11
206.5208067812856
 21
83.24386144718715
 31
0.0
  0
LINE
  5
643
330
2
100
AcDbEntity
  8
0
100
AcDbLine
 10
203.8930147812856
 20
88.29903744718714
 30
0.0
 11
208.1796047812856
 21
88.29903744718714
 31
0.0
  0
LINE
  5
644
330
2
100
AcDbEntity
  8
0
100
AcDbLine
 10
207.5981077812856
 20
87.02901744718715
 30
0.0
 11
204.5262087812856
 21
87.02901744718715
 31
0.0
  0
LINE
  5
645
330
2
100
AcDbEntity
  8
0
100
AcDbLine
 10
203.8930147812856
 20
88.29903744718714
 30
0.0
 11
202.7356047812856
 21
86.81703844718715
 31
0.0
  0
LINE
  5
646
330
2
100
AcDbEntity
  8
0
100
AcDbLine
 10
203.8064057812856
 20
86.13651544718715
 30
0.0
 11
203.8064057812856
 21
80.62745644718715
 31
0.0
  0
LINE
  5
647
330
2
100
AcDbEntity
  8
0
100
AcDbLine
 10
202.7356047812856
 20
86.81703844718715
 30
0.0
 11
202.7356047812856
 21
79.97739744718714
 31
0.0
  0
LINE
  5
648
330
2
100
AcDbEntity
  8
0
100
AcDbLine
 10
202.7356047812856
 20
79.97739744718714
 30
0.0
 11
203.9654017812856
 21
78.73653744718715
 31
0.0
  0
LINE
  5
649
330
2
100
AcDbEntity
  8
0
100
AcDbLine
 10
206.1970147812856
 20
79.85713944718714
 30
0.0
 11
204.5377137812856
 21
79.85713944718714
 31
0.0
  0
LINE
  5
64A
330
2
100
AcDbEntity
  8
0
100
AcDbLine
 10
203.8064057812856
 20
80.62745644718715
 30
0.0
 11
204.5377137812856
 21
79.85713944718714
 31
0.0
  0
LINE
  5
64B
330
2
100
AcDbEntity
  8
0
100
AcDbLine
 10
206.5208067812856
 20
84.28976044718714
 30
0.0
 11
206.5208067812856
 21
83.24386144718715
 31
0.0
  0
LINE
  5
64C
330
2
100
AcDbEntity
  8
0
100
AcDbLine
 10
204.5262087812856
 20
87.02901744718715
 30
0.0
 11
203.8064057812856
 21
86.13651544718715
 31
0.0
  0
LINE
  5
64D
330
2
100
AcDbEntity
  8
0
100
AcDbLine
 10
221.8606047812856
 20
88.29903744718714
 30
0.0
 11
221.8606047812856
 21
87.12862744718714
 31
0.0
  0
LINE
  5
64E
330
2
100
AcDbEntity
  8
0
100
AcDbLine
 10
208.1796047812856
 20
88.29903744718714
 30
0.0
 11
209.1106047812856
 21
87.26589544718715
 31
0.0
  0
LINE
  5
64F
330
2
100
AcDbEntity
  8
0
100
AcDbLine
 10
218.6731047812856
 20
86.30684944718714
 30
0.0
 11
218.6731047812856
 21
88.29903744718714
 31
0.0
  0
LINE
  5
650
330
2
100
AcDbEntity
  8
0
100
AcDbLine
 10
212.2981047812856
 20
86.30684944718714
 30
0.0
 11
212.2981047812856
 21
88.29903744718714
 31
0.0
  0
LINE
  5
651
330
2
100
AcDbEntity
  8
0
100
AcDbLine
 10
214.8630007812856
 20
87.12862744718714
 30
0.0
 11
213.3481077812856
 21
87.12862744718714
 31
0.0
  0
LINE
  5
652
330
2
100
AcDbEntity
  8
0
100
AcDbLine
 10
214.3899017812856
 20
79.78243544718714
 30
0.0
 11
214.8630007812856
 21
79.78243544718714
 31
0.0
  0
LINE
  5
653
330
2
100
AcDbEntity
  8
0
100
AcDbLine
 10
214.3899017812856
 20
78.73653744718715
 30
0.0
 11
216.4568117812856
 21
78.73653744718715
 31
0.0
  0
LINE
  5
654
330
2
100
AcDbEntity
  8
0
100
AcDbLine
 10
209.1106047812856
 20
84.28976044718714
 30
0.0
 11
209.1106047812856
 21
78.73653744718715
 31
0.0
  0
LINE
  5
655
330
2
100
AcDbEntity
  8
0
100
AcDbLine
 10
208.1892027812856
 20
79.49879744718714
 30
0.0
 11
207.2807097812856
 21
78.73653744718715
 31
0.0
  0
LINE
  5
656
330
2
100
AcDbEntity
  8
0
100
AcDbLine
 10
208.1892027812856
 20
78.73653744718715
 30
0.0
 11
209.1106047812856
 21
78.73653744718715
 31
0.0
  0
LINE
  5
657
330
2
100
AcDbEntity
  8
0
100
AcDbLine
 10
208.1892027812856
 20
79.49879744718714
 30
0.0
 11
208.1892027812856
 21
78.73653744718715
 31
0.0
  0
LINE
  5
658
330
2
100
AcDbEntity
  8
0
100
AcDbLine
 10
214.3899017812856
 20
79.78243544718714
 30
0.0
 11
214.3899017812856
 21
78.73653744718715
 31
0.0
  0
LINE
  5
659
330
2
100
AcDbEntity
  8
0
100
AcDbLine
 10
208.1892027812856
 20
86.45757244718714
 30
0.0
 11
208.1892027812856
 21
86.30684944718714
 31
0.0
  0
LINE
  5
65A
330
2
100
AcDbEntity
  8
0
100
AcDbLine
 10
208.1892027812856
 20
83.24386144718715
 30
0.0
 11
208.1892027812856
 21
81.84932644718713
 31
0.0
  0
LINE
  5
65B
330
2
100
AcDbEntity
  8
0
100
AcDbLine
 10
209.1106047812856
 20
87.26589544718715
 30
0.0
 11
209.1106047812856
 21
86.30684944718714
 31
0.0
  0
LINE
  5
65C
330
2
100
AcDbEntity
  8
0
100
AcDbLine
 10
208.1892027812856
 20
82.24776744718715
 30
0.0
 11
208.1892027812856
 21
83.04464244718715
 31
0.0
  0
LINE
  5
65D
330
2
100
AcDbEntity
  8
0
100
AcDbLine
 10
208.1892027812856
 20
86.30684944718714
 30
0.0
 11
209.1106047812856
 21
86.30684944718714
 31
0.0
  0
LINE
  5
65E
330
2
100
AcDbEntity
  8
0
100
AcDbLine
 10
208.1892027812856
 20
86.45757244718714
 30
0.0
 11
207.5860077812856
 21
87.02901744718715
 31
0.0
  0
LINE
  5
65F
330
2
100
AcDbEntity
  8
0
100
AcDbLine
 10
213.3481077812856
 20
87.12862744718714
 30
0.0
 11
213.0057007812856
 21
86.30684944718714
 31
0.0
  0
LINE
  5
660
330
2
100
AcDbEntity
  8
0
100
AcDbLine
 10
212.2981047812856
 20
86.30684944718714
 30
0.0
 11
213.0057007812856
 21
86.30684944718714
 31
0.0
  0
LINE
  5
661
330
2
100
AcDbEntity
  8
0
100
AcDbLine
 10
216.0584047812856
 20
87.12862744718714
 30
0.0
 11
216.0584047812856
 21
79.78243544718714
 31
0.0
  0
LINE
  5
662
330
2
100
AcDbEntity
  8
0
100
AcDbLine
 10
214.8630007812856
 20
87.12862744718714
 30
0.0
 11
214.8630007812856
 21
79.78243544718714
 31
0.0
  0
LINE
  5
663
330
2
100
AcDbEntity
  8
0
100
AcDbLine
 10
216.4568117812856
 20
79.78243544718714
 30
0.0
 11
216.4568117812856
 21
78.73653744718715
 31
0.0
  0
LINE
  5
664
330
2
100
AcDbEntity
  8
0
100
AcDbLine
 10
216.0584047812856
 20
79.78243544718714
 30
0.0
 11
216.4568117812856
 21
79.78243544718714
 31
0.0
  0
LINE
  5
665
330
2
100
AcDbEntity
  8
0
100
AcDbLine
 10
221.8606047812856
 20
79.73262744718716
 30
0.0
 11
221.8606047812856
 21
78.73653744718715
 31
0.0
  0
LINE
  5
666
330
2
100
AcDbEntity
  8
0
100
AcDbLine
 10
218.0081117812856
 20
86.30684944718714
 30
0.0
 11
218.6731047812856
 21
86.30684944718714
 31
0.0
  0
LINE
  5
667
330
2
100
AcDbEntity
  8
0
100
AcDbLine
 10
216.0584047812856
 20
87.12862744718714
 30
0.0
 11
217.7194147812856
 21
87.12862744718714
 31
0.0
  0
LINE
  5
668
330
2
100
AcDbEntity
  8
0
100
AcDbLine
 10
217.7194147812856
 20
87.12862744718714
 30
0.0
 11
218.0081117812856
 21
86.30684944718714
 31
0.0
  0
LINE
  5
669
330
2
100
AcDbEntity
  8
0
100
AcDbLine
 10
212.2981047812856
 20
88.29903744718714
 30
0.0
 11
218.6731047812856
 21
88.29903744718714
 31
0.0
  0
LINE
  5
66A
330
2
100
AcDbEntity
  8
0
100
AcDbLine
 10
175.1133057812856
 20
129.5297994471871
 30
0.0
 11
199.1927117812856
 21
146.4291914471871
 31
0.0
  0
ARC
  5
66B
330
2
100
AcDbEntity
  8
0
100
AcDbCircle
 10
177.9856047812856
 20
125.4371564471871
 30
0.0
 40
5.0
100
AcDbArc
 50
125.0623019999999
 51
180.0
  0
LINE
  5
66D
330
2
100
AcDbEntity
  8
0
100
AcDbLine
 10
219.9856047812856
 20
112.2365414471871
 30
0.0
 11
219.9856047812856
 21
117.2365414471871
 31
0.0
  0
ARC
  5
66E
330
2
100
AcDbEntity
  8
0
100
AcDbCircle
 10
202.0651027812856
 20
142.3365474471871
 30
0.0
 40
5.0
100
AcDbArc
 50
90.0
 51
125.0622019999999
  0
LINE
  5
66F
330
2
100
AcDbEntity
  8
0
100
AcDbLine
 10
141.4854107812856
 20
284.3201035734115
 30
0.0
 11
176.4052827812856
 21
284.3201035734115
 31
0.0
  0
LINE
  5
670
330
2
100
AcDbEntity
  8
0
100
AcDbLine
 10
100.4856087812856
 20
269.3201035734115
 30
0.0
 11
170.9856047812856
 21
269.3201035734115
 31
0.0
  0
LINE
  5
671
330
2
100
AcDbEntity
  8
0
100
AcDbLine
 10
141.4856087812168
 20
330.3200875734115
 30
0.0
 11
176.4052827812856
 21
330.3200875734115
 31
0.0
  0
LINE
  5
672
330
2
100
AcDbEntity
  8
0
100
AcDbLine
 10
170.9856047812856
 20
345.3200875734115
 30
0.0
 11
100.4856087812856
 21
345.3200875734115
 31
0.0
  0
LINE
  5
673
330
2
100
AcDbEntity
  8
0
100
AcDbLine
 10
41.98560778128558
 20
272.3201035734116
 30
0.0
 11
41.98560778128558
 21
342.3200875734115
 31
0.0
  0
LINE
  5
674
330
2
100
AcDbEntity
  8
0
100
AcDbLine
 10
90.98560878128564
 20
267.3201035734115
 30
0.0
 11
90.98560878128564
 21
299.8201035734116
 31
0.0
  0
ARC
  5
679
330
2
100
AcDbEntity
  8
0
100
AcDbCircle
 10
46.98560778128558
 20
272.3201035734116
 30
0.0
 40
5.0
100
AcDbArc
 50
180.0
 51
270.0
  0
LINE
  5
67A
330
2
100
AcDbEntity
  8
0
100
AcDbLine
 10
44.48560778128558
 20
281.3201035734115
 30
0.0
 11
90.98560878128564
 21
281.3201035734115
 31
0.0
  0
LINE
  5
67B
330
2
100
AcDbEntity
  8
0
100
AcDbLine
 10
46.98560778128558
 20
267.3201035734115
 30
0.0
 11
90.98560878128564
 21
267.3201035734115
 31
0.0
  0
LINE
  5
67C
330
2
100
AcDbEntity
  8
0
100
AcDbLine
 10
100.4856087812856
 20
269.3201035734115
 30
0.0
 11
100.4856087812856
 21
282.3201035734115
 31
0.0
  0
LINE
  5
67D
330
2
100
AcDbEntity
  8
0
100
AcDbLine
 10
90.98560878128564
 20
269.3201035734115
 30
0.0
 11
100.4856087812856
 21
269.3201035734115
 31
0.0
  0
LINE
  5
67E
330
2
100
AcDbEntity
  8
0
100
AcDbLine
 10
90.98560878128564
 20
284.3201035734115
 30
0.0
 11
91.48550178128578
 21
284.3201035734115
 31
0.0
  0
ARC
  5
684
330
2
100
AcDbEntity
  8
0
100
AcDbCircle
 10
46.98562778128564
 20
342.3201185734116
 30
0.0
 40
5.0
100
AcDbArc
 50
90.0
 51
180.0
  0
LINE
  5
685
330
2
100
AcDbEntity
  8
0
100
AcDbLine
 10
44.48560778128558
 20
331.3200875734115
 30
0.0
 11
90.98560878128564
 21
331.3200875734115
 31
0.0
  0
LINE
  5
686
330
2
100
AcDbEntity
  8
0
100
AcDbLine
 10
46.98560778128558
 20
347.3200875734115
 30
0.0
 11
90.98560878128564
 21
347.3200875734115
 31
0.0
  0
LINE
  5
687
330
2
100
AcDbEntity
  8
0
100
AcDbLine
 10
100.4856087812856
 20
332.3201035734115
 30
0.0
 11
100.4856087812856
 21
345.3200875734115
 31
0.0
  0
LINE
  5
68D
330
2
100
AcDbEntity
  8
0
100
AcDbLine
 10
90.98560878128564
 20
330.3200875734115
 30
0.0
 11
91.48550178128578
 21
330.3200875734115
 31
0.0
  0
LINE
  5
68E
330
2
100
AcDbEntity
  8
0
100
AcDbLine
 10
90.98560878128564
 20
345.3200875734115
 30
0.0
 11
100.4856087812856
 21
345.3200875734115
 31
0.0
  0
LINE
  5
68F
330
2
100
AcDbEntity
  8
0
100
AcDbLine
 10
176.4052827812856
 20
286.3201035734115
 30
0.0
 11
176.4052827812856
 21
328.3203625734115
 31
0.0
  0
LINE
  5
690
330
2
100
AcDbEntity
  8
0
100
AcDbLine
 10
200.4856047812856
 20
336.3550005734115
 30
0.0
 11
200.4856047812856
 21
278.2851915734115
 31
0.0
  0
LINE
  5
691
330
2
100
AcDbEntity
  8
CENTER
100
AcDbLine
 10
215.4856047812856
 20
361.3200875734116
 30
0.0
 11
215.4856047812856
 21
236.3201035734115
 31
0.0
  0
LINE
  5
692
330
2
100
AcDbEntity
  8
0
100
AcDbLine
 10
207.9856047812856
 20
243.3201035734116
 30
0.0
 11
207.9856047812856
 21
270.3201035734116
 31
0.0
  0
ARC
  5
694
330
2
100
AcDbEntity
  8
0
100
AcDbCircle
 10
176.7539767812856
 20
263.3201035734115
 30
0.0
 40
3.0
100
AcDbArc
 50
180.9998470000002
 51
270.0
  0
LINE
  5
695
330
2
100
AcDbEntity
  8
0
100
AcDbLine
 10
176.7539767812856
 20
260.3201035734115
 30
0.0
 11
207.9856047812856
 21
260.3201035734115
 31
0.0
  0
LINE
  5
696
330
2
100
AcDbEntity
  8
0
100
AcDbLine
 10
173.4923337812856
 20
278.2851915734115
 30
0.0
 11
173.3870177812856
 21
284.3201035734115
 31
0.0
  0
LINE
  5
698
330
2
100
AcDbEntity
  8
0
100
AcDbLine
 10
172.9856047812856
 20
271.3201035734115
 30
0.0
 11
172.9856047812856
 21
274.9679455734116
 31
0.0
  0
LINE
  5
699
330
2
100
AcDbEntity
  8
0
100
AcDbLine
 10
173.7544337812856
 20
263.2677505734116
 30
0.0
 11
173.5300537812856
 21
276.1241955734116
 31
0.0
  0
ARC
  5
69A
330
2
100
AcDbEntity
  8
0
100
AcDbCircle
 10
170.9856047812856
 20
271.3201035734115
 30
0.0
 40
2.0
100
AcDbArc
 50
270.0
 51
0.0
  0
ARC
  5
69B
330
2
100
AcDbEntity
  8
0
100
AcDbCircle
 10
175.4921047812856
 20
278.3201035734115
 30
0.0
 40
2.0
100
AcDbArc
 50
181.0000000000001
 51
270.0
  0
ARC
  5
69C
330
2
100
AcDbEntity
  8
0
100
AcDbCircle
 10
174.4856047812856
 20
274.9679455734116
 30
0.0
 40
1.5
100
AcDbArc
 50
73.28735399999994
 51
180.0
  0
CIRCLE
  5
69D
330
2
100
AcDbEntity
  8
0
100
AcDbCircle
 10
181.4856047812856
 20
267.3201035734115
 30
0.0
 40
3.25
  0
LINE
  5
69E
330
2
100
AcDbEntity
  8
0
100
AcDbLine
 10
206.9856047812856
 20
270.3201035734116
 30
0.0
 11
206.9856047812856
 21
272.3201035734116
 31
0.0
  0
ARC
  5
69F
330
2
100
AcDbEntity
  8
0
100
AcDbCircle
 10
196.4856047812856
 20
273.3201035734115
 30
0.0
 40
1.0
100
AcDbArc
 50
180.0
 51
270.0
  0
LINE
  5
6A0
330
2
100
AcDbEntity
  8
0
100
AcDbLine
 10
195.4856047812856
 20
273.3201035734115
 30
0.0
 11
195.4856047812856
 21
274.3201035734115
 31
0.0
  0
ARC
  5
6A2
330
2
100
AcDbEntity
  8
0
100
AcDbCircle
 10
176.7539767812856
 20
351.3200875734115
 30
0.0
 40
3.0
100
AcDbArc
 50
90.0
 51
179.0001529999997
  0
LINE
  5
6A3
330
2
100
AcDbEntity
  8
0
100
AcDbLine
 10
173.4923337812856
 20
336.3550005734115
 30
0.0
 11
173.3870177812856
 21
330.3200875734115
 31
0.0
  0
LINE
  5
6A5
330
2
100
AcDbEntity
  8
0
100
AcDbLine
 10
172.9856047812856
 20
343.3200875734115
 30
0.0
 11
172.9856047812856
 21
339.6722605734115
 31
0.0
  0
LINE
  5
6A6
330
2
100
AcDbEntity
  8
0
100
AcDbLine
 10
173.7544337812856
 20
351.3724565734115
 30
0.0
 11
173.5300537812856
 21
338.5160105734115
 31
0.0
  0
ARC
  5
6A7
330
2
100
AcDbEntity
  8
0
100
AcDbCircle
 10
175.4921047812856
 20
336.3200875734115
 30
0.0
 40
2.0
100
AcDbArc
 50
90.0
 51
178.9999999999998
  0
ARC
  5
6A8
330
2
100
AcDbEntity
  8
0
100
AcDbCircle
 10
174.4856047812856
 20
339.6722605734115
 30
0.0
 40
1.5
100
AcDbArc
 50
180.0
 51
286.712646
  0
ARC
  5
6A9
330
2
100
AcDbEntity
  8
0
100
AcDbCircle
 10
170.9856047812856
 20
343.3200875734115
 30
0.0
 40
2.0
100
AcDbArc
 50
0.0
 51
90.0
  0
CIRCLE
  5
6AA
330
2
100
AcDbEntity
  8
0
100
AcDbCircle
 10
181.4856047812856
 20
347.3200875734115
 30
0.0
 40
3.25
  0
LINE
  5
6AB
330
2
100
AcDbEntity
  8
0
100
AcDbLine
 10
176.7539767812856
 20
354.3200875734115
 30
0.0
 11
254.2171267812856
 21
354.3200875734115
 31
0.0
  0
LINE
  5
6AC
330
2
100
AcDbEntity
  8
CENTER
100
AcDbLine
 10
357.8145180835438
 20
92.43653844718716
 30
0.0
 11
451.8145180835438
 21
92.43653844718716
 31
0.0
  0
LINE
  5
6AD
330
2
100
AcDbEntity
  8
0
100
AcDbLine
 10
434.2448150835438
 20
128.0365444471871
 30
0.0
 11
375.3330110835438
 21
128.0365444471871
 31
0.0
  0
LINE
  5
6AE
330
2
100
AcDbEntity
  8
0
100
AcDbLine
 10
375.7796360835437
 20
146.8297494471871
 30
0.0
 11
404.8145180835438
 21
147.3365474471871
 31
0.0
  0
LINE
  5
6AF
330
2
100
AcDbEntity
  8
0
100
AcDbLine
 10
451.8145180835438
 20
49.73653744718714
 30
0.0
 11
357.8145180835438
 21
49.73653744718714
 31
0.0
  0
LINE
  5
6B0
330
2
100
AcDbEntity
  8
CENTER
100
AcDbLine
 10
451.8007279911954
 20
114.7365414471871
 30
0.0
 11
333.8145180835438
 21
114.7365414471871
 31
0.0
  0
LINE
  5
6B1
330
2
100
AcDbEntity
  8
0
100
AcDbLine
 10
364.8145180835438
 20
70.50760744718715
 30
0.0
 11
364.8145180835438
 21
107.2365374471871
 31
0.0
  0
ARC
  5
6B2
330
2
100
AcDbEntity
  8
0
100
AcDbCircle
 10
404.8145180835438
 20
92.43653844718716
 30
0.0
 40
38.0
100
AcDbArc
 50
158.7057950000002
 51
215.3954929999994
  0
LINE
  5
6B3
330
2
100
AcDbEntity
  8
0
100
AcDbLine
 10
369.8145180835438
 20
95.73653744718715
 30
0.0
 11
369.8145180835438
 21
133.7365414471871
 31
0.0
  0
LINE
  5
6B4
330
2
100
AcDbEntity
  8
0
100
AcDbLine
 10
373.8145180835438
 20
60.73653744718715
 30
0.0
 11
373.8145180835438
 21
144.8300474471871
 31
0.0
  0
LINE
  5
6B5
330
2
100
AcDbEntity
  8
0
100
AcDbLine
 10
255.4856047812857
 20
116.0979374471871
 30
0.0
 11
255.4856047812857
 21
87.37539944718713
 31
0.0
  0
LINE
  5
6B6
330
2
100
AcDbEntity
  8
0
100
AcDbLine
 10
257.9856047812857
 20
125.4371174471871
 30
0.0
 11
257.9856047812857
 21
49.73653744718714
 31
0.0
  0
LINE
  5
6B7
330
2
100
AcDbEntity
  8
HIDS
  6
SEKKEI_H
100
AcDbLine
 10
246.2356047812856
 20
57.73653744718714
 30
0.0
 11
246.2356047812856
 21
49.73653744718714
 31
0.0
  0
LINE
  5
6B8
330
2
100
AcDbEntity
  8
HIDS
  6
SEKKEI_H
100
AcDbLine
 10
252.7356047812856
 20
57.73653744718714
 30
0.0
 11
252.7356047812856
 21
49.73653744718714
 31
0.0
  0
LINE
  5
6B9
330
2
100
AcDbEntity
  8
CENTER
100
AcDbLine
 10
249.4856047812857
 20
61.23653744718713
 30
0.0
 11
249.4856047812857
 21
46.23653744718715
 31
0.0
  0
ARC
  5
6BA
330
2
100
AcDbEntity
  8
0
100
AcDbCircle
 10
225.6831147812856
 20
85.74654744718714
 30
0.0
 40
2.55249
100
AcDbArc
 50
286.0181269999995
 51
90.00350999999964
  0
LINE
  5
6BB
330
2
100
AcDbEntity
  8
0
100
AcDbLine
 10
225.4699037812856
 20
83.20650844718716
 30
0.0
 11
226.9649137812856
 21
79.73262744718716
 31
0.0
  0
LINE
  5
6BC
330
2
100
AcDbEntity
  8
0
100
AcDbLine
 10
226.3874147812856
 20
83.29315844718715
 30
0.0
 11
227.9673097812856
 21
79.73262744718716
 31
0.0
  0
LINE
  5
6BD
330
2
100
AcDbEntity
  8
0
100
AcDbLine
 10
223.4294067812856
 20
83.20650844718716
 30
0.0
 11
223.4294067812856
 21
79.73262744718716
 31
0.0
  0
LINE
  5
6BE
330
2
100
AcDbEntity
  8
0
100
AcDbLine
 10
222.3337037812856
 20
87.12862744718714
 30
0.0
 11
222.3337037812856
 21
79.73262744718716
 31
0.0
  0
LINE
  5
6BF
330
2
100
AcDbEntity
  8
0
100
AcDbLine
 10
223.8652127812856
 20
79.73262744718716
 30
0.0
 11
223.8652127812856
 21
78.73653744718715
 31
0.0
  0
LINE
  5
6C0
330
2
100
AcDbEntity
  8
0
100
AcDbLine
 10
223.4294067812856
 20
79.73262744718716
 30
0.0
 11
223.8652127812856
 21
79.73262744718716
 31
0.0
  0
LINE
  5
6C1
330
2
100
AcDbEntity
  8
0
100
AcDbLine
 10
226.7664117812856
 20
79.73262744718716
 30
0.0
 11
226.7664117812856
 21
78.73653744718715
 31
0.0
  0
LINE
  5
6C2
330
2
100
AcDbEntity
  8
0
100
AcDbLine
 10
228.2356047812856
 20
79.73262744718716
 30
0.0
 11
228.2356047812856
 21
78.73653744718715
 31
0.0
  0
LINE
  5
6C3
330
2
100
AcDbEntity
  8
0
100
AcDbLine
 10
226.7664117812856
 20
78.73653744718715
 30
0.0
 11
228.2356047812856
 21
78.73653744718715
 31
0.0
  0
LINE
  5
6C4
330
2
100
AcDbEntity
  8
0
100
AcDbLine
 10
227.9673097812856
 20
79.73262744718716
 30
0.0
 11
228.2356047812856
 21
79.73262744718716
 31
0.0
  0
LINE
  5
6C5
330
2
100
AcDbEntity
  8
0
100
AcDbLine
 10
226.7664117812856
 20
79.73262744718716
 30
0.0
 11
226.9649137812856
 21
79.73262744718716
 31
0.0
  0
LINE
  5
6C6
330
2
100
AcDbEntity
  8
0
100
AcDbLine
 10
223.4294067812856
 20
87.12862744718714
 30
0.0
 11
226.4043057812856
 21
87.12668944718714
 31
0.0
  0
ARC
  5
6C7
330
2
100
AcDbEntity
  8
0
100
AcDbCircle
 10
225.6831147812856
 20
85.74654744718714
 30
0.0
 40
1.557193
100
AcDbArc
 50
277.4147260000004
 51
62.41184999999949
  0
LINE
  5
6C8
330
2
100
AcDbEntity
  8
0
100
AcDbLine
 10
223.4294067812856
 20
83.20650844718716
 30
0.0
 11
225.4699037812856
 21
83.20650844718716
 31
0.0
  0
LINE
  5
6C9
330
2
100
AcDbEntity
  8
0
100
AcDbLine
 10
223.4294067812856
 20
84.20237244718714
 30
0.0
 11
225.8841027812855
 21
84.20237244718714
 31
0.0
  0
LINE
  5
6CA
330
2
100
AcDbEntity
  8
0
100
AcDbLine
 10
223.4294067812856
 20
87.12862744718714
 30
0.0
 11
223.4294067812856
 21
84.20237244718714
 31
0.0
  0
ARC
  5
6CB
330
2
100
AcDbEntity
  8
0
100
AcDbCircle
 10
255.9856047812857
 20
55.73652744718714
 30
0.0
 40
2.0
100
AcDbArc
 50
0.0
 51
90.0
  0
LINE
  5
6CC
330
2
100
AcDbEntity
  8
HIDS
  6
SEKKEI_H
100
AcDbLine
 10
368.0645180835438
 20
57.73653744718714
 30
0.0
 11
368.0645180835438
 21
49.73653744718714
 31
0.0
  0
LINE
  5
6CD
330
2
100
AcDbEntity
  8
HIDS
  6
SEKKEI_H
100
AcDbLine
 10
361.5645180835438
 20
57.73653744718714
 30
0.0
 11
361.5645180835438
 21
49.73653744718714
 31
0.0
  0
LINE
  5
6CE
330
2
100
AcDbEntity
  8
CENTER
100
AcDbLine
 10
364.8145180835437
 20
61.23653744718715
 30
0.0
 11
364.8145180835438
 21
46.23653744718713
 31
0.0
  0
LINE
  5
6CF
330
2
100
AcDbEntity
  8
0
100
AcDbLine
 10
357.8145180835438
 20
55.73653744718715
 30
0.0
 11
357.8145180835438
 21
49.73653744718714
 31
0.0
  0
ARC
  5
6D0
330
2
100
AcDbEntity
  8
0
100
AcDbCircle
 10
369.8145180835438
 20
70.50763844718715
 30
0.0
 40
5.0
100
AcDbArc
 50
180.0
 51
225.0003970000001
  0
LINE
  5
6D1
330
2
100
AcDbEntity
  8
0
100
AcDbLine
 10
370.8145180835438
 20
57.73653744718714
 30
0.0
 11
359.8145180835438
 21
57.73653744718714
 31
0.0
  0
ARC
  5
6D2
330
2
100
AcDbEntity
  8
0
100
AcDbCircle
 10
359.8145180835438
 20
55.73652744718714
 30
0.0
 40
2.0
100
AcDbArc
 50
90.0
 51
180.0
  0
LINE
  5
6D3
330
2
100
AcDbEntity
  8
0
100
AcDbLine
 10
366.2790260835437
 20
66.97206844718715
 30
0.0
 11
373.6081270835438
 21
59.64296644718714
 31
0.0
  0
ARC
  5
6D4
330
2
100
AcDbEntity
  8
0
100
AcDbCircle
 10
370.8145180835438
 20
60.73652744718714
 30
0.0
 40
3.0
100
AcDbArc
 50
270.0
 51
0.0
  0
LINE
  5
6D5
330
2
100
AcDbEntity
  8
0
100
AcDbLine
 10
370.8145180835438
 20
94.73653744718715
 30
0.0
 11
371.8185180815387
 21
94.73653744718715
 31
0.0
  0
ARC
  5
6D6
330
2
100
AcDbEntity
  8
0
100
AcDbCircle
 10
370.8145180835438
 20
95.73653344718715
 30
0.0
 40
1.0
100
AcDbArc
 50
180.0
 51
270.0
  0
LINE
  5
6D7
330
2
100
AcDbEntity
  8
0
100
AcDbLine
 10
255.8579037812856
 20
129.5297994471871
 30
0.0
 11
231.7784057812856
 21
146.4291984471871
 31
0.0
  0
LINE
  5
6D8
330
2
100
AcDbEntity
  8
0
100
AcDbLine
 10
224.9856047812856
 20
117.2365414471871
 30
0.0
 11
224.9856047812856
 21
112.2365414471871
 31
0.0
  0
ARC
  5
6D9
330
2
100
AcDbEntity
  8
0
100
AcDbCircle
 10
252.9856047812856
 20
125.4371174471871
 30
0.0
 40
5.0
100
AcDbArc
 50
0.0
 51
54.93836999999954
  0
ARC
  5
6DA
330
2
100
AcDbEntity
  8
0
100
AcDbCircle
 10
228.9062127812856
 20
142.3365244471871
 30
0.0
 40
5.0
100
AcDbArc
 50
54.93843100000013
 51
90.0
  0
ARC
  5
6DB
330
2
100
AcDbEntity
  8
0
100
AcDbCircle
 10
375.8145180835438
 20
144.8300474471871
 30
0.0
 40
2.0
100
AcDbArc
 50
90.99986299999994
 51
180.0
  0
LINE
  5
6DC
330
2
100
AcDbEntity
  8
0
100
AcDbLine
 10
340.8145180835438
 20
112.2365414471871
 30
0.0
 11
362.3145180835438
 21
112.2365414471871
 31
0.0
  0
LINE
  5
6DD
330
2
100
AcDbEntity
  8
0
100
AcDbLine
 10
340.8145180835438
 20
117.2365414471871
 30
0.0
 11
362.3145180835438
 21
117.2365414471871
 31
0.0
  0
LINE
  5
6DE
330
2
100
AcDbEntity
  8
0
100
AcDbLine
 10
340.8145180835438
 20
107.2365374471871
 30
0.0
 11
367.8145180835438
 21
107.2365374471871
 31
0.0
  0
LINE
  5
6DF
330
2
100
AcDbEntity
  8
0
100
AcDbLine
 10
340.8145180835438
 20
122.2365414471871
 30
0.0
 11
367.8145180835438
 21
122.2365414471871
 31
0.0
  0
LINE
  5
6E0
330
2
100
AcDbEntity
  8
0
100
AcDbLine
 10
340.8145180835438
 20
122.2365414471871
 30
0.0
 11
340.8145180835438
 21
107.2365374471871
 31
0.0
  0
LINE
  5
6E1
330
2
100
AcDbEntity
  8
0
100
AcDbLine
 10
367.8145180835438
 20
123.2365414471871
 30
0.0
 11
367.8145180835438
 21
106.2365374471871
 31
0.0
  0
ARC
  5
6E2
330
2
100
AcDbEntity
  8
0
100
AcDbCircle
 10
362.3145180835438
 20
114.7365414471871
 30
0.0
 40
2.5
100
AcDbArc
 50
270.0
 51
0.0
  0
ARC
  5
6E3
330
2
100
AcDbEntity
  8
0
100
AcDbCircle
 10
362.3145180835438
 20
114.7365254471871
 30
0.0
 40
2.5
100
AcDbArc
 50
0.0
 51
90.0
  0
LINE
  5
6E4
330
2
100
AcDbEntity
  8
0
100
AcDbLine
 10
367.8145180835438
 20
106.2365374471871
 30
0.0
 11
369.8145180835438
 21
106.2365374471871
 31
0.0
  0
ARC
  5
6E5
330
2
100
AcDbEntity
  8
0
100
AcDbCircle
 10
370.8145180835438
 20
133.7365414471871
 30
0.0
 40
1.0
100
AcDbArc
 50
90.0
 51
180.0
  0
LINE
  5
6E6
330
2
100
AcDbEntity
  8
0
100
AcDbLine
 10
367.8145180835438
 20
123.2365414471871
 30
0.0
 11
369.8145180835438
 21
123.2365414471871
 31
0.0
  0
LINE
  5
6E7
330
2
100
AcDbEntity
  8
0
100
AcDbLine
 10
370.8145180835438
 20
134.7365414471871
 30
0.0
 11
371.8145180835437
 21
134.7365414471871
 31
0.0
  0
LINE
  5
6E8
330
2
100
AcDbEntity
  8
0
100
AcDbLine
 10
444.8145180835438
 20
114.3654704471871
 30
0.0
 11
444.8145180835438
 21
69.43653844718714
 31
0.0
  0
LINE
  5
6E9
330
2
100
AcDbEntity
  8
0
100
AcDbLine
 10
439.8145180835438
 20
95.73653744718715
 30
0.0
 11
439.8145180835438
 21
133.7365414471871
 31
0.0
  0
ARC
  5
6EA
330
2
100
AcDbEntity
  8
0
100
AcDbCircle
 10
404.8145180835438
 20
92.43653844718716
 30
0.0
 40
38.0
100
AcDbArc
 50
324.6655999999999
 51
22.91949100000018
  0
LINE
  5
6EB
330
2
100
AcDbEntity
  8
0
100
AcDbLine
 10
435.8145180835438
 20
60.73653744718715
 30
0.0
 11
435.8145180835438
 21
144.8299404471871
 31
0.0
  0
LINE
  5
6EC
330
2
100
AcDbEntity
  8
CENTER
100
AcDbLine
 10
404.8145180835438
 20
42.73653744718714
 30
0.0
 11
404.8145180835438
 21
168.3240364471871
 31
0.0
  0
LINE
  5
6ED
330
2
100
AcDbEntity
  8
0
100
AcDbLine
 10
441.8145180835438
 20
66.43653844718715
 30
0.0
 11
438.2115210835437
 21
66.43653844718715
 31
0.0
  0
LINE
  5
6EE
330
2
100
AcDbEntity
  8
0
100
AcDbLine
 10
438.8145180835437
 20
57.73653744718714
 30
0.0
 11
449.8145180835438
 21
57.73653744718714
 31
0.0
  0
ARC
  5
6EF
330
2
100
AcDbEntity
  8
0
100
AcDbCircle
 10
438.8145180835437
 20
60.73653744718715
 30
0.0
 40
3.0
100
AcDbArc
 50
180.0
 51
270.0
  0
LINE
  5
6F0
330
2
100
AcDbEntity
  8
0
100
AcDbLine
 10
435.8145180835438
 20
64.03955744718714
 30
0.0
 11
438.2115210835437
 21
66.43653844718715
 31
0.0
  0
LINE
  5
6F1
330
2
100
AcDbEntity
  8
0
100
AcDbLine
 10
438.8145180835437
 20
94.73653744718715
 30
0.0
 11
437.810518085549
 21
94.73653744718715
 31
0.0
  0
ARC
  5
6F2
330
2
100
AcDbEntity
  8
0
100
AcDbCircle
 10
438.8145180835437
 20
95.73653344718715
 30
0.0
 40
1.0
100
AcDbArc
 50
270.0
 51
0.0
  0
LINE
  5
6F3
330
2
100
AcDbEntity
  8
HIDS
  6
SEKKEI_H
100
AcDbLine
 10
448.0645180835438
 20
57.73653744718714
 30
0.0
 11
448.0645180835438
 21
49.73653744718714
 31
0.0
  0
LINE
  5
6F4
330
2
100
AcDbEntity
  8
HIDS
  6
SEKKEI_H
100
AcDbLine
 10
441.5645180835438
 20
57.73653744718714
 30
0.0
 11
441.5645180835438
 21
49.73653744718714
 31
0.0
  0
LINE
  5
6F5
330
2
100
AcDbEntity
  8
CENTER
100
AcDbLine
 10
444.8145180835438
 20
61.23653744718716
 30
0.0
 11
444.8145180835438
 21
46.23653744718713
 31
0.0
  0
LINE
  5
6F6
330
2
100
AcDbEntity
  8
0
100
AcDbLine
 10
451.8145180835438
 20
55.73653744718715
 30
0.0
 11
451.8145180835438
 21
49.73653744718714
 31
0.0
  0
ARC
  5
6F7
330
2
100
AcDbEntity
  8
0
100
AcDbCircle
 10
449.8145180835438
 20
55.73654744718715
 30
0.0
 40
2.0
100
AcDbArc
 50
0.0
 51
90.0
  0
ARC
  5
6F8
330
2
100
AcDbEntity
  8
0
100
AcDbCircle
 10
441.8145180835438
 20
69.43652644718715
 30
0.0
 40
3.0
100
AcDbArc
 50
270.0
 51
0.0
  0
LINE
  5
6F9
330
2
100
AcDbEntity
  8
0
100
AcDbLine
 10
443.3500400835438
 20
117.9010084471871
 30
0.0
 11
439.8145180835438
 21
121.4365154471871
 31
0.0
  0
ARC
  5
6FA
330
2
100
AcDbEntity
  8
0
100
AcDbCircle
 10
433.8145180835438
 20
144.8299474471871
 30
0.0
 40
2.0
100
AcDbArc
 50
0.0
 51
88.99935900000036
  0
ARC
  5
6FB
330
2
100
AcDbEntity
  8
0
100
AcDbCircle
 10
438.8145180835437
 20
133.7365414471871
 30
0.0
 40
1.0
100
AcDbArc
 50
0.0
 51
90.0
  0
LINE
  5
6FC
330
2
100
AcDbEntity
  8
0
100
AcDbLine
 10
438.8145180835437
 20
134.7365414471871
 30
0.0
 11
437.8145180835439
 21
134.7365414471871
 31
0.0
  0
LINE
  5
6FD
330
2
100
AcDbEntity
  8
0
100
AcDbLine
 10
433.8494300835438
 20
146.8296354471871
 30
0.0
 11
404.8145180835438
 21
147.3365474471871
 31
0.0
  0
ARC
  5
6FE
330
2
100
AcDbEntity
  8
0
100
AcDbCircle
 10
439.8145180835438
 20
114.3654474471871
 30
0.0
 40
5.0
100
AcDbArc
 50
0.0
 51
45.00025199999998
  0
LINE
  5
700
330
2
100
AcDbEntity
  8
0
100
AcDbLine
 10
230.4856047812856
 20
336.3550005734115
 30
0.0
 11
230.4856047812856
 21
278.2851915734115
 31
0.0
  0
LINE
  5
701
330
2
100
AcDbEntity
  8
0
100
AcDbLine
 10
257.2166687812856
 20
351.3724565734115
 30
0.0
 11
257.9856047812857
 21
307.3201035734115
 31
0.0
  0
LINE
  5
702
330
2
100
AcDbEntity
  8
0
100
AcDbLine
 10
222.5566037812856
 20
267.3201035734115
 30
0.0
 11
222.5566037812856
 21
243.3201035734116
 31
0.0
  0
LINE
  5
703
330
2
100
AcDbEntity
  8
0
100
AcDbLine
 10
224.9856047812856
 20
267.3201035734115
 30
0.0
 11
224.9856047812856
 21
243.3201035734116
 31
0.0
  0
ARC
  5
705
330
2
100
AcDbEntity
  8
0
100
AcDbCircle
 10
254.2171267812856
 20
263.3201035734115
 30
0.0
 40
3.0
100
AcDbArc
 50
270.0
 51
358.9999999999998
  0
LINE
  5
706
330
2
100
AcDbEntity
  8
0
100
AcDbLine
 10
224.9856047812856
 20
260.3201035734115
 30
0.0
 11
254.2171267812856
 21
260.3201035734115
 31
0.0
  0
CIRCLE
  5
708
330
2
100
AcDbEntity
  8
0
100
AcDbCircle
 10
249.4856047812857
 20
267.3201035734115
 30
0.0
 40
3.25
  0
LINE
  5
709
330
2
100
AcDbEntity
  8
0
100
AcDbLine
 10
223.9856047812856
 20
270.3201035734116
 30
0.0
 11
223.9856047812856
 21
272.3201035734116
 31
0.0
  0
ARC
  5
70A
330
2
100
AcDbEntity
  8
0
100
AcDbCircle
 10
234.4856047812856
 20
273.3201035734115
 30
0.0
 40
1.0
100
AcDbArc
 50
270.0
 51
0.0
  0
LINE
  5
70B
330
2
100
AcDbEntity
  8
0
100
AcDbLine
 10
222.9856047812856
 20
267.3201035734115
 30
0.0
 11
222.9856047812856
 21
270.3201035734116
 31
0.0
  0
LINE
  5
70C
330
2
100
AcDbEntity
  8
0
100
AcDbLine
 10
222.5566037812856
 20
267.3201035734115
 30
0.0
 11
224.9856047812856
 21
267.3201035734115
 31
0.0
  0
LINE
  5
70D
330
2
100
AcDbEntity
  8
0
100
AcDbLine
 10
235.4856047812856
 20
273.3201035734115
 30
0.0
 11
235.4856047812856
 21
274.3201035734115
 31
0.0
  0
LINE
  5
70E
330
2
100
AcDbEntity
  8
0
100
AcDbLine
 10
257.2166687812856
 20
263.2677355734115
 30
0.0
 11
257.9856047812857
 21
307.3201035734115
 31
0.0
  0
ARC
  5
70F
330
2
100
AcDbEntity
  8
0
100
AcDbCircle
 10
255.4791047812856
 20
278.3201035734115
 30
0.0
 40
2.0
100
AcDbArc
 50
270.0
 51
358.9999999999998
  0
LINE
  5
710
330
2
100
AcDbEntity
  8
CENTER
100
AcDbLine
 10
249.4856047812857
 20
353.4227714287604
 30
0.0
 11
249.4856047812857
 21
341.2174037180627
 31
0.0
  0
ARC
  5
711
330
2
100
AcDbEntity
  8
0
100
AcDbCircle
 10
254.2171267812856
 20
351.3200875734115
 30
0.0
 40
3.0
100
AcDbArc
 50
1.000000000000147
 51
90.0
  0
LINE
  5
712
330
2
100
AcDbEntity
  8
CENTER
100
AcDbLine
 10
243.3829209259368
 20
347.3200875734115
 30
0.0
 11
255.5882886366345
 21
347.3200875734115
 31
0.0
  0
CIRCLE
  5
713
330
2
100
AcDbEntity
  8
0
100
AcDbCircle
 10
249.4856047812857
 20
347.3200875734115
 30
0.0
 40
3.25
  0
ARC
  5
714
330
2
100
AcDbEntity
  8
0
100
AcDbCircle
 10
255.4791047812856
 20
336.3200875734115
 30
0.0
 40
2.0
100
AcDbArc
 50
1.000000000000147
 51
90.0
  0
LINE
  5
844
330
2
100
AcDbEntity
  8
CENTER
100
AcDbLine
 10
175.3829209259367
 20
347.3200875734115
 30
0.0
 11
187.5882886366344
 21
347.3200875734115
 31
0.0
  0
LINE
  5
845
330
2
100
AcDbEntity
  8
CENTER
100
AcDbLine
 10
181.4856047812856
 20
353.4227714287604
 30
0.0
 11
181.4856047812856
 21
341.2174037180627
 31
0.0
  0
LINE
  5
846
330
2
100
AcDbEntity
  8
CENTER
100
AcDbLine
 10
175.3829209259367
 20
267.3201035734115
 30
0.0
 11
187.5882886366344
 21
267.3201035734115
 31
0.0
  0
LINE
  5
847
330
2
100
AcDbEntity
  8
CENTER
100
AcDbLine
 10
181.4856047812856
 20
273.4227874287604
 30
0.0
 11
181.4856047812856
 21
261.2174197180627
 31
0.0
  0
LINE
  5
848
330
2
100
AcDbEntity
  8
CENTER
100
AcDbLine
 10
243.3829209259368
 20
267.3201035734115
 30
0.0
 11
255.5882886366345
 21
267.3201035734115
 31
0.0
  0
LINE
  5
849
330
2
100
AcDbEntity
  8
CENTER
100
AcDbLine
 10
249.4856047812857
 20
273.4227874287604
 30
0.0
 11
249.4856047812857
 21
261.2174197180627
 31
0.0
  0
TEXT
  5
857
330
2
100
AcDbEntity
  8
TITLE
100
AcDbText
 10
334.69412798249
 20
316.7068646883765
 30
0.0
 40
5.0
  1
HLM-15R-10~120-T40WT
 41
0.8
100
AcDbText
  0
TEXT
  5
858
330
2
100
AcDbEntity
  8
TITLE
100
AcDbText
 10
334.69412798249
 20
308.7068646883765
 30
0.0
 40
5.0
  1
HLM-15R-10~60-T60T
 41
0.8
100
AcDbText
  0
TEXT
  5
859
330
2
100
AcDbEntity
  8
TITLE
100
AcDbText
 10
334.69412798249
 20
300.7068646883765
 30
0.0
 40
5.0
  1
HLM-15R-10~120-S40T
 41
0.8
100
AcDbText
  0
TEXT
  5
85A
330
2
100
AcDbEntity
  8
TITLE
100
AcDbText
 10
334.69412798249
 20
292.7068646883765
 30
0.0
 40
5.0
  1
HLM-15R-10~120-S40WT
 41
0.8
100
AcDbText
  0
LINE
  5
13D8
330
2
100
AcDbEntity
  8
CENTER
100
AcDbLine
 10
374.7709111023354
 20
153.4365364471872
 30
0.0
 11
434.8581250647525
 21
153.4365364471872
 31
0.0
  0
LINE
  5
13DA
330
2
100
AcDbEntity
  8
0
100
AcDbLine
 10
379.8145180835439
 20
161.9365364471872
 30
0.0
 11
422.3145030835439
 21
161.9365364471872
 31
0.0
  0
LINE
  5
13DB
330
2
100
AcDbEntity
  8
0
100
AcDbLine
 10
380.8145180835439
 20
162.9365364471872
 30
0.0
 11
424.9766092675177
 21
162.9365364471871
 31
0.0
  0
LINE
  5
1404
330
2
100
AcDbEntity
  8
0
100
AcDbLine
 10
379.8145180835439
 20
161.9365364471872
 30
0.0
 11
379.8145180835439
 21
146.9001774974143
 31
0.0
  0
LINE
  5
1405
330
2
100
AcDbEntity
  8
0
100
AcDbLine
 10
141.4856087812856
 20
161.9365364471871
 30
0.0
 11
141.4856087812856
 21
133.9365384471871
 31
0.0
  0
LINE
  5
1407
330
2
100
AcDbEntity
  8
0
100
AcDbLine
 10
85.98561678128561
 20
157.4365364471871
 30
0.0
 11
85.98561678128561
 21
149.4365364471871
 31
0.0
  0
LINE
  5
1408
330
2
100
AcDbEntity
  8
0
100
AcDbLine
 10
89.48561678128561
 20
159.9365364471871
 30
0.0
 11
89.48560178128564
 21
143.9365384471871
 31
0.0
  0
LINE
  5
1409
330
2
100
AcDbEntity
  8
0
100
AcDbLine
 10
91.48560178128565
 20
161.9365364471871
 30
0.0
 11
91.48560178128565
 21
133.9365384471871
 31
0.0
  0
LINE
  5
140A
330
2
100
AcDbEntity
  8
CENTER
100
AcDbLine
 10
116.4856087812856
 20
127.2428374471871
 30
0.0
 11
116.4856087812856
 21
168.3240364471871
 31
0.0
  0
LINE
  5
140C
330
2
100
AcDbEntity
  8
CENTER
100
AcDbLine
 10
83.54185278128563
 20
153.4365364471871
 30
0.0
 11
145.4379117450237
 21
153.4365364471871
 31
0.0
  0
LINE
  5
140D
330
2
100
AcDbEntity
  8
0
100
AcDbLine
 10
91.48560178128565
 20
133.9365384471871
 30
0.0
 11
141.4856087812856
 21
133.9365384471871
 31
0.0
  0
LINE
  5
140E
330
2
100
AcDbEntity
  8
0
100
AcDbLine
 10
89.48560178128564
 20
143.9365384471871
 30
0.0
 11
141.4856087812856
 21
143.9365384471871
 31
0.0
  0
LINE
  5
140F
330
2
100
AcDbEntity
  8
0
100
AcDbLine
 10
92.98560178128566
 20
131.9365384471871
 30
0.0
 11
139.4856087812856
 21
131.9365384471871
 31
0.0
  0
LINE
  5
1411
330
2
100
AcDbEntity
  8
0
100
AcDbLine
 10
92.98560178128566
 20
131.9365384471871
 30
0.0
 11
92.98560178128566
 21
130.4365384471871
 31
0.0
  0
LINE
  5
1412
330
2
100
AcDbEntity
  8
0
100
AcDbLine
 10
91.48560178128565
 20
133.9365384471871
 30
0.0
 11
93.48560178128565
 21
131.9365384471871
 31
0.0
  0
LINE
  5
1413
330
2
100
AcDbEntity
  8
0
100
AcDbLine
 10
85.98560178128565
 20
149.4365364471871
 30
0.0
 11
89.48560178128564
 21
147.9365364471871
 31
0.0
  0
LINE
  5
1414
330
2
100
AcDbEntity
  8
0
100
AcDbLine
 10
138.9856087812856
 20
131.9365384471871
 30
0.0
 11
138.9856087812856
 21
130.4365384471871
 31
0.0
  0
LINE
  5
1415
330
2
100
AcDbEntity
  8
0
100
AcDbLine
 10
139.4856087812856
 20
131.9365384471871
 30
0.0
 11
141.4856087812856
 21
133.9365384471871
 31
0.0
  0
LINE
  5
1418
330
2
100
AcDbEntity
  8
0
100
AcDbLine
 10
98.98560220985661
 20
161.9365364471871
 30
0.0
 11
141.4856157812857
 21
161.9365364471871
 31
0.0
  0
LINE
  5
1419
330
2
100
AcDbEntity
  8
0
100
AcDbLine
 10
96.3235175973112
 20
162.9365364471871
 30
0.0
 11
140.4856087812856
 21
162.9365364471871
 31
0.0
  0
LINE
  5
141B
330
2
100
AcDbEntity
  8
0
100
AcDbLine
 10
99.48560220985662
 20
162.936536447187
 30
0.0
 11
98.98560220985661
 21
162.436536447187
 31
0.0
  0
LINE
  5
141C
330
2
100
AcDbEntity
  8
0
100
AcDbLine
 10
98.98560220985661
 20
160.436536447187
 30
0.0
 11
98.98560220985661
 21
162.4365364471871
 31
0.0
  0
LINE
  5
141D
330
2
100
AcDbEntity
  8
0
100
AcDbLine
 10
98.48560878128564
 20
160.4365364471871
 30
0.0
 11
98.38767264239784
 21
161.5559516370053
 31
0.0
  0
LINE
  5
141E
330
2
100
AcDbEntity
  8
0
100
AcDbLine
 10
91.48560878128575
 20
160.4365364471871
 30
0.0
 11
91.58354492017355
 21
161.5559516370053
 31
0.0
  0
LINE
  5
141F
330
2
100
AcDbEntity
  8
0
100
AcDbLine
 10
90.48560178128566
 20
160.9365364471871
 30
0.0
 11
91.48560178128565
 21
160.9365364471871
 31
0.0
  0
ARC
  5
1420
330
2
100
AcDbEntity
  8
0
100
AcDbCircle
 10
90.48561678128562
 20
159.9365364471871
 30
0.0
 40
1.0
100
AcDbArc
 50
90.0
 51
180.0
  0
LINE
  5
1421
330
2
100
AcDbEntity
  8
0
100
AcDbLine
 10
85.98561678128561
 20
157.4365364471871
 30
0.0
 11
89.48561678128561
 21
158.9365364471871
 31
0.0
  0
LINE
  5
1422
330
2
100
AcDbEntity
  8
0
100
AcDbLine
 10
98.98560220985661
 20
160.436536447187
 30
0.0
 11
91.48560220985661
 21
160.4365364471871
 31
0.0
  0
ARC
  5
1423
330
2
100
AcDbEntity
  8
0
100
AcDbCircle
 10
92.8785980276927
 20
161.4426491714334
 30
0.0
 40
1.3
100
AcDbArc
 50
105.8808500082811
 51
175.0000000000002
  0
SPLINE
  5
1424
330
2
100
AcDbEntity
  8
0
100
AcDbSpline
210
0.0
220
0.0
230
1.0
 70
     8
 71
     3
 72
    11
 73
     7
 74
     0
 42
0.0000000001
 43
0.0000000001
 40
0.0
 40
0.0
 40
0.0
 40
0.0
 40
0.4601364636755307
 40
1.04988694485363
 40
1.713742833862792
 40
2.320347933405154
 40
2.320347933405154
 40
2.320347933405154
 40
2.320347933405179
 10
95.27310878174075
 20
161.519536447187
 30
0.0
 10
95.29552643884864
 20
161.6745598868669
 30
0.0
 10
95.34667649408191
 20
162.0282747047845
 30
0.0
 10
95.78256165561555
 20
162.4530023763861
 30
0.0
 10
96.3876123706229
 20
162.672189556352
 30
0.0
 10
96.81279699479881
 20
162.6031982567413
 30
0.0
 10
97.01534860444979
 20
162.5889779845646
 30
0.0
  0
LINE
  5
1425
330
2
100
AcDbEntity
  8
0
100
AcDbLine
 10
95.27310878174075
 20
161.519536447187
 30
0.0
 11
94.69810878083075
 21
161.519536447187
 31
0.0
  0
LINE
  5
1426
330
2
100
AcDbEntity
  8
0
100
AcDbLine
 10
97.01534860444979
 20
162.5889779845646
 30
0.0
 11
97.03560878128582
 21
162.7999547300262
 31
0.0
  0
LINE
  5
1427
330
2
100
AcDbEntity
  8
0
100
AcDbLine
 10
92.48560178128565
 20
162.9365364471871
 30
0.0
 11
93.6476999652603
 21
162.9365364471871
 31
0.0
  0
LINE
  5
1428
330
2
100
AcDbEntity
  8
0
100
AcDbLine
 10
91.48560178128565
 20
161.9365364471871
 30
0.0
 11
92.48560178128565
 21
162.9365364471871
 31
0.0
  0
LINE
  5
1429
330
2
100
AcDbEntity
  8
0
100
AcDbLine
 10
92.48560220985661
 20
162.936536447187
 30
0.0
 11
91.48560178128565
 21
161.9365364471871
 31
0.0
  0
LINE
  5
142A
330
2
100
AcDbEntity
  8
0
100
AcDbLine
 10
92.95586895812169
 20
162.5889779845646
 30
0.0
 11
92.93560878128568
 21
162.7999547300262
 31
0.0
  0
SPLINE
  5
142B
330
2
100
AcDbEntity
  8
0
100
AcDbSpline
210
0.0
220
0.0
230
1.0
 70
     8
 71
     3
 72
    11
 73
     7
 74
     0
 42
0.0000000001
 43
0.0000000001
 40
0.0
 40
0.0
 40
0.0
 40
0.0
 40
0.4601364636755307
 40
1.04988694485363
 40
1.713742833862792
 40
2.320347933405154
 40
2.320347933405154
 40
2.320347933405154
 40
2.320347933405179
 10
94.69810878083075
 20
161.519536447187
 30
0.0
 10
94.67569112372286
 20
161.6745598868669
 30
0.0
 10
94.62454106848957
 20
162.0282747047845
 30
0.0
 10
94.18865590695594
 20
162.4530023763861
 30
0.0
 10
93.5836051919486
 20
162.672189556352
 30
0.0
 10
93.15842056777269
 20
162.6031982567413
 30
0.0
 10
92.95586895812169
 20
162.5889779845646
 30
0.0
  0
ARC
  5
142C
330
2
100
AcDbEntity
  8
0
100
AcDbCircle
 10
94.98560878128575
 20
154.036536447187
 30
0.0
 40
9.0
100
AcDbArc
 50
74.11914999171883
 51
105.8808500082811
  0
LINE
  5
142D
330
2
100
AcDbEntity
  8
0
100
AcDbLine
 10
98.98560220985661
 20
162.436536447187
 30
0.0
 11
97.93058617090588
 21
162.436536447187
 31
0.0
  0
ARC
  5
142E
330
2
100
AcDbEntity
  8
0
100
AcDbCircle
 10
97.09261953487857
 20
161.4426491714334
 30
0.0
 40
1.3
100
AcDbArc
 50
4.999999999999743
 51
74.11914999171883
  0
LINE
  5
142F
330
2
100
AcDbEntity
  8
0
100
AcDbLine
 10
140.4856157812857
 20
162.9365364471871
 30
0.0
 11
141.4856157812857
 21
161.9365364471871
 31
0.0
  0
LINE
  5
1430
330
2
100
AcDbEntity
  8
0
100
AcDbLine
 10
380.8145180835439
 20
162.9365364471872
 30
0.0
 11
379.8145180835439
 21
161.9365364471872
 31
0.0
  0
LINE
  5
1432
330
2
100
AcDbEntity
  8
CENTER
100
AcDbLine
 10
116.4856087812856
 20
337.7093295175193
 30
0.0
 11
116.4856087812856
 21
276.5701035734116
 31
0.0
  0
LINE
  5
1433
330
2
100
AcDbEntity
  8
0
100
AcDbLine
 10
93.88560278128563
 20
330.9200945734115
 30
0.0
 11
133.9855017812856
 21
330.9200945734115
 31
0.0
  0
LINE
  5
1434
330
2
100
AcDbEntity
  8
0
100
AcDbLine
 10
93.48560178128565
 20
332.3201035734115
 30
0.0
 11
139.4855017812856
 21
332.3201035734115
 31
0.0
  0
LINE
  5
1436
330
2
100
AcDbEntity
  8
0
100
AcDbLine
 10
93.48560178128565
 20
282.3201035734115
 30
0.0
 11
139.4855017812855
 21
282.3201035734115
 31
0.0
  0
LINE
  5
1437
330
2
100
AcDbEntity
  8
0
100
AcDbLine
 10
139.0857067812856
 20
283.7200975734115
 30
0.0
 11
98.98560178128565
 21
283.7200975734115
 31
0.0
  0
LINE
  5
1438
330
2
100
AcDbEntity
  8
0
100
AcDbLine
 10
89.48560178128564
 20
300.8201035734115
 30
0.0
 11
89.48560178128564
 21
313.8201035734116
 31
0.0
  0
LINE
  5
1439
330
2
100
AcDbEntity
  8
0
100
AcDbLine
 10
89.48560178128564
 20
301.8201035734116
 30
0.0
 11
85.98560178128565
 21
305.3201035734115
 31
0.0
  0
LINE
  5
143A
330
2
100
AcDbEntity
  8
0
100
AcDbLine
 10
92.88559578128564
 20
329.9200945734115
 30
0.0
 11
92.88560278128562
 21
289.8201035734116
 31
0.0
  0
LINE
  5
143B
330
2
100
AcDbEntity
  8
0
100
AcDbLine
 10
91.48560178128565
 20
330.3201035734115
 30
0.0
 11
91.48560178128565
 21
284.3201035734115
 31
0.0
  0
ARC
  5
143C
330
2
100
AcDbEntity
  8
0
100
AcDbCircle
 10
94.98563178128557
 20
285.8201035734115
 30
0.0
 40
4.0
100
AcDbArc
 50
0.0
 51
90.0
  0
CIRCLE
  5
143D
330
2
100
AcDbEntity
  8
0
100
AcDbCircle
 10
94.98563178128557
 20
285.8201035734115
 30
0.0
 40
3.500000000000028
  0
LINE
  5
143E
330
2
100
AcDbEntity
  8
0
100
AcDbLine
 10
98.98560178128565
 20
285.8201035734115
 30
0.0
 11
98.98560178128565
 21
282.3203025734116
 31
0.0
  0
ARC
  5
143F
330
2
100
AcDbEntity
  8
0
100
AcDbCircle
 10
94.98563178128557
 20
285.8201035734115
 30
0.0
 40
2.049999999999998
100
AcDbArc
 50
261.9380399160178
 51
270.0
  0
ARC
  5
1440
330
2
100
AcDbEntity
  8
0
100
AcDbCircle
 10
94.98563178128557
 20
285.8201035734115
 30
0.0
 40
2.049999999999998
100
AcDbArc
 50
270.0
 51
278.061960083982
  0
ARC
  5
1441
330
2
100
AcDbEntity
  8
0
100
AcDbCircle
 10
94.98563178128557
 20
285.8201035734115
 30
0.0
 40
2.049999999999998
100
AcDbArc
 50
90.0
 51
98.06196008398211
  0
ARC
  5
1442
330
2
100
AcDbEntity
  8
0
100
AcDbCircle
 10
94.98563178128557
 20
285.8201035734115
 30
0.0
 40
2.049999999999998
100
AcDbArc
 50
0.0
 51
8.061960083982105
  0
ARC
  5
1443
330
2
100
AcDbEntity
  8
0
100
AcDbCircle
 10
94.98563178128557
 20
285.8201035734115
 30
0.0
 40
2.049999999999998
100
AcDbArc
 50
81.93803991601789
 51
90.0
  0
ARC
  5
1444
330
2
100
AcDbEntity
  8
0
100
AcDbCircle
 10
97.01533178128574
 20
283.7904035734116
 30
0.0
 40
1.742199999999999
100
AcDbArc
 50
89.9986903345035
 51
180.0013096654997
  0
ARC
  5
1445
330
2
100
AcDbEntity
  8
0
100
AcDbCircle
 10
94.98563178128557
 20
285.8201035734115
 30
0.0
 40
2.049999999999998
100
AcDbArc
 50
351.9380399160179
 51
0.0
  0
ARC
  5
1446
330
2
100
AcDbEntity
  8
0
100
AcDbCircle
 10
97.01533178128574
 20
287.8498035734115
 30
0.0
 40
1.742199999999999
100
AcDbArc
 50
179.9986903345002
 51
270.0013096654964
  0
LINE
  5
1447
330
2
100
AcDbEntity
  8
0
100
AcDbLine
 10
91.48560178128565
 20
284.3201035734115
 30
0.0
 11
93.48560178128565
 21
282.3201035734115
 31
0.0
  0
LINE
  5
1448
330
2
100
AcDbEntity
  8
0
100
AcDbLine
 10
91.48560178128565
 20
284.3201035734115
 30
0.0
 11
93.48560178128565
 21
282.3201035734115
 31
0.0
  0
ARC
  5
1449
330
2
100
AcDbEntity
  8
0
100
AcDbCircle
 10
94.98563178128557
 20
285.8201035734115
 30
0.0
 40
2.049999999999998
100
AcDbArc
 50
171.9380399160178
 51
180.0
  0
ARC
  5
144A
330
2
100
AcDbEntity
  8
0
100
AcDbCircle
 10
94.98563178128557
 20
285.8201035734115
 30
0.0
 40
2.049999999999998
100
AcDbArc
 50
180.0
 51
188.0619600839821
  0
ARC
  5
144B
330
2
100
AcDbEntity
  8
0
100
AcDbCircle
 10
92.95593178128564
 20
283.7904035734116
 30
0.0
 40
1.742199999999999
100
AcDbArc
 50
359.9986903345002
 51
90.00130966549649
  0
ARC
  5
144C
330
2
100
AcDbEntity
  8
0
100
AcDbCircle
 10
92.95593178128564
 20
287.8498035734115
 30
0.0
 40
1.742199999999999
100
AcDbArc
 50
269.9986903345002
 51
0.0013096654997424
  0
LINE
  5
144D
330
2
100
AcDbEntity
  8
0
100
AcDbLine
 10
94.98563178128568
 20
289.8201035734116
 30
0.0
 11
91.48563178128569
 21
289.8201035734116
 31
0.0
  0
LINE
  5
144E
330
2
100
AcDbEntity
  8
0
100
AcDbLine
 10
90.48560178128566
 20
299.8201035734116
 30
0.0
 11
91.48560178128565
 21
299.8201035734116
 31
0.0
  0
ARC
  5
144F
330
2
100
AcDbEntity
  8
0
100
AcDbCircle
 10
90.48560178128553
 20
300.8201035734115
 30
0.0
 40
1.0
100
AcDbArc
 50
180.0
 51
270.0
  0
LINE
  5
1450
330
2
100
AcDbEntity
  8
0
100
AcDbLine
 10
85.98560178128565
 20
309.3201035734115
 30
0.0
 11
89.48560178128564
 21
312.8201035734115
 31
0.0
  0
LINE
  5
1451
330
2
100
AcDbEntity
  8
0
100
AcDbLine
 10
85.98560178128565
 20
309.3201035734115
 30
0.0
 11
85.98560178128565
 21
305.3201035734115
 31
0.0
  0
LINE
  5
1452
330
2
100
AcDbEntity
  8
0
100
AcDbLine
 10
90.48560178128566
 20
314.8201035734115
 30
0.0
 11
91.48560178128565
 21
314.8201035734115
 31
0.0
  0
ARC
  5
1453
330
2
100
AcDbEntity
  8
0
100
AcDbCircle
 10
90.48561678128562
 20
313.8201035734116
 30
0.0
 40
1.0
100
AcDbArc
 50
90.0
 51
180.0
  0
LINE
  5
1454
330
2
100
AcDbEntity
  8
0
100
AcDbLine
 10
91.48560178128565
 20
330.3201035734115
 30
0.0
 11
93.48560178128565
 21
332.3201035734115
 31
0.0
  0
LINE
  5
1455
330
2
100
AcDbEntity
  8
0
100
AcDbLine
 10
92.88559578128564
 20
329.9200945734115
 30
0.0
 11
93.88560278128563
 21
330.9200945734115
 31
0.0
  0
LINE
  5
1456
330
2
100
AcDbEntity
  8
0
100
AcDbLine
 10
140.0857067812856
 20
284.7200975734115
 30
0.0
 11
140.0857067812856
 21
324.8201035734115
 31
0.0
  0
LINE
  5
1457
330
2
100
AcDbEntity
  8
0
100
AcDbLine
 10
141.4855017812856
 20
330.3201035734115
 30
0.0
 11
141.4855017812855
 21
284.3201035734115
 31
0.0
  0
LINE
  5
1458
330
2
100
AcDbEntity
  8
0
100
AcDbLine
 10
139.0857067812856
 20
283.7200975734115
 30
0.0
 11
140.0857067812856
 21
284.7200975734115
 31
0.0
  0
LINE
  5
1459
330
2
100
AcDbEntity
  8
0
100
AcDbLine
 10
141.4855017812855
 20
284.3201035734115
 30
0.0
 11
139.4855017812855
 21
282.3201035734115
 31
0.0
  0
LINE
  5
145A
330
2
100
AcDbEntity
  8
0
100
AcDbLine
 10
141.4855017812855
 20
284.3201035734115
 30
0.0
 11
139.4855017812855
 21
282.3201035734115
 31
0.0
  0
LINE
  5
145B
330
2
100
AcDbEntity
  8
0
100
AcDbLine
 10
141.4857007812856
 20
284.3201035734115
 30
0.0
 11
139.4855017812855
 21
282.3201035734115
 31
0.0
  0
ARC
  5
145C
330
2
100
AcDbEntity
  8
0
100
AcDbCircle
 10
137.9857007812856
 20
328.8201035734116
 30
0.0
 40
4.0
100
AcDbArc
 50
180.0
 51
270.0
  0
CIRCLE
  5
145D
330
2
100
AcDbEntity
  8
0
100
AcDbCircle
 10
137.9857007812856
 20
328.8201035734116
 30
0.0
 40
3.500000000000028
  0
LINE
  5
145E
330
2
100
AcDbEntity
  8
0
100
AcDbLine
 10
137.9855017812856
 20
324.8201035734115
 30
0.0
 11
141.4855017812856
 21
324.8201035734115
 31
0.0
  0
LINE
  5
145F
330
2
100
AcDbEntity
  8
0
100
AcDbLine
 10
141.4855017812856
 20
330.3201035734115
 30
0.0
 11
139.4855017812856
 21
332.3201035734115
 31
0.0
  0
LINE
  5
1460
330
2
100
AcDbEntity
  8
0
100
AcDbLine
 10
139.4855017812856
 20
332.3201035734115
 30
0.0
 11
141.4855017812856
 21
330.3201035734115
 31
0.0
  0
ARC
  5
1461
330
2
100
AcDbEntity
  8
0
100
AcDbCircle
 10
140.0154007812858
 20
326.7904035734115
 30
0.0
 40
1.742199999999999
100
AcDbArc
 50
89.9986903345035
 51
180.0013096654997
  0
ARC
  5
1462
330
2
100
AcDbEntity
  8
0
100
AcDbCircle
 10
140.0154007812858
 20
330.8498035734115
 30
0.0
 40
1.742199999999999
100
AcDbArc
 50
179.9986903345002
 51
270.0013096654964
  0
ARC
  5
1463
330
2
100
AcDbEntity
  8
0
100
AcDbCircle
 10
137.9857007812856
 20
328.8201035734116
 30
0.0
 40
2.049999999999998
100
AcDbArc
 50
90.0
 51
98.06196008398211
  0
ARC
  5
1464
330
2
100
AcDbEntity
  8
0
100
AcDbCircle
 10
137.9857007812856
 20
328.8201035734116
 30
0.0
 40
2.049999999999998
100
AcDbArc
 50
81.93803991601789
 51
90.0
  0
ARC
  5
1465
330
2
100
AcDbEntity
  8
0
100
AcDbCircle
 10
137.9857007812856
 20
328.8201035734116
 30
0.0
 40
2.049999999999998
100
AcDbArc
 50
261.9380399160178
 51
270.0
  0
ARC
  5
1466
330
2
100
AcDbEntity
  8
0
100
AcDbCircle
 10
137.9857007812856
 20
328.8201035734116
 30
0.0
 40
2.049999999999998
100
AcDbArc
 50
270.0
 51
278.061960083982
  0
ARC
  5
1467
330
2
100
AcDbEntity
  8
0
100
AcDbCircle
 10
137.9857007812856
 20
328.8201035734116
 30
0.0
 40
2.049999999999998
100
AcDbArc
 50
171.9380399160178
 51
180.0
  0
ARC
  5
1468
330
2
100
AcDbEntity
  8
0
100
AcDbCircle
 10
137.9857007812856
 20
328.8201035734116
 30
0.0
 40
2.049999999999998
100
AcDbArc
 50
180.0
 51
188.0619600839821
  0
LINE
  5
1469
330
2
100
AcDbEntity
  8
0
100
AcDbLine
 10
133.9855017812856
 20
328.8201035734115
 30
0.0
 11
133.9855017812856
 21
332.3201035734115
 31
0.0
  0
ARC
  5
146A
330
2
100
AcDbEntity
  8
0
100
AcDbCircle
 10
135.9560007812856
 20
326.7904035734115
 30
0.0
 40
1.742199999999999
100
AcDbArc
 50
359.9986903345002
 51
90.00130966549649
  0
ARC
  5
146B
330
2
100
AcDbEntity
  8
0
100
AcDbCircle
 10
135.9560007812856
 20
330.8498035734115
 30
0.0
 40
1.742199999999999
100
AcDbArc
 50
269.9986903345002
 51
0.0013096654997424
  0
ARC
  5
146C
330
2
100
AcDbEntity
  8
0
100
AcDbCircle
 10
137.9857007812856
 20
328.8201035734116
 30
0.0
 40
2.049999999999998
100
AcDbArc
 50
0.0
 51
8.061960083982105
  0
ARC
  5
146D
330
2
100
AcDbEntity
  8
0
100
AcDbCircle
 10
137.9857007812856
 20
328.8201035734116
 30
0.0
 40
2.049999999999998
100
AcDbArc
 50
351.9380399160179
 51
0.0
  0
LINE
  5
1477
330
2
100
AcDbEntity
  8
0
100
AcDbLine
 10
429.8145030835439
 20
161.9365364471871
 30
0.0
 11
429.814503083544
 21
146.9000800524755
 31
0.0
  0
LINE
  5
147D
330
2
100
AcDbEntity
  8
0
100
AcDbLine
 10
429.8145180835439
 20
160.4365364471872
 30
0.0
 11
429.716581944656
 21
161.5559516370055
 31
0.0
  0
LINE
  5
147E
330
2
100
AcDbEntity
  8
0
100
AcDbLine
 10
422.3145030835439
 20
160.4365364471871
 30
0.0
 11
422.3145030835439
 21
162.4365364471872
 31
0.0
  0
LINE
  5
147F
330
2
100
AcDbEntity
  8
0
100
AcDbLine
 10
422.8145180835439
 20
160.4365364471872
 30
0.0
 11
422.9124542224318
 21
161.5559516370055
 31
0.0
  0
LINE
  5
1480
330
2
100
AcDbEntity
  8
0
100
AcDbLine
 10
422.3145030835439
 20
160.4365364471871
 30
0.0
 11
429.8145030835439
 21
160.4365364471872
 31
0.0
  0
ARC
  5
1481
330
2
100
AcDbEntity
  8
0
100
AcDbCircle
 10
426.3145180835439
 20
154.0365364471871
 30
0.0
 40
9.0
100
AcDbArc
 50
74.11914999171883
 51
105.8808500082811
  0
LINE
  5
1482
330
2
100
AcDbEntity
  8
0
100
AcDbLine
 10
422.3145030835439
 20
162.4365364471871
 30
0.0
 11
423.3695406939236
 21
162.4365364471871
 31
0.0
  0
LINE
  5
1483
330
2
100
AcDbEntity
  8
0
100
AcDbLine
 10
421.8145030835439
 20
162.9365364471871
 30
0.0
 11
422.3145030835439
 21
162.4365364471871
 31
0.0
  0
ARC
  5
1484
330
2
100
AcDbEntity
  8
0
100
AcDbCircle
 10
424.207507329951
 20
161.4426491714335
 30
0.0
 40
1.3
100
AcDbArc
 50
105.8808500082811
 51
175.0000000000002
  0
LINE
  5
1485
330
2
100
AcDbEntity
  8
0
100
AcDbLine
 10
428.814503083544
 20
162.9365364471871
 30
0.0
 11
429.8145030835439
 21
161.9365364471871
 31
0.0
  0
ARC
  5
1486
330
2
100
AcDbEntity
  8
0
100
AcDbCircle
 10
428.4215288371369
 20
161.4426491714335
 30
0.0
 40
1.3
100
AcDbArc
 50
4.999999999999743
 51
74.11914999171883
  0
SPLINE
  5
1487
330
2
100
AcDbEntity
  8
0
100
AcDbSpline
210
0.0
220
0.0
230
1.0
 70
     8
 71
     3
 72
    11
 73
     7
 74
     0
 42
0.0000000001
 43
0.0000000001
 40
0.0
 40
0.0
 40
0.0
 40
0.0
 40
0.4601364636755307
 40
1.04988694485363
 40
1.713742833862792
 40
2.320347933405154
 40
2.320347933405154
 40
2.320347933405154
 40
2.320347933405179
 10
426.0270180830889
 20
161.5195364471872
 30
0.0
 10
426.004600425981
 20
161.674559886867
 30
0.0
 10
425.9534503707478
 20
162.0282747047846
 30
0.0
 10
425.5175652092142
 20
162.4530023763863
 30
0.0
 10
424.9125144942068
 20
162.6721895563521
 30
0.0
 10
424.4873298700309
 20
162.6031982567414
 30
0.0
 10
424.2847782603798
 20
162.5889779845647
 30
0.0
  0
SPLINE
  5
1488
330
2
100
AcDbEntity
  8
0
100
AcDbSpline
210
0.0
220
0.0
230
1.0
 70
     8
 71
     3
 72
    11
 73
     7
 74
     0
 42
0.0000000001
 43
0.0000000001
 40
0.0
 40
0.0
 40
0.0
 40
0.0
 40
0.4601364636755307
 40
1.04988694485363
 40
1.713742833862792
 40
2.320347933405154
 40
2.320347933405154
 40
2.320347933405154
 40
2.320347933405179
 10
426.602018083999
 20
161.5195364471872
 30
0.0
 10
426.6244357411068
 20
161.674559886867
 30
0.0
 10
426.6755857963402
 20
162.0282747047846
 30
0.0
 10
427.1114709578737
 20
162.4530023763863
 30
0.0
 10
427.7165216728811
 20
162.6721895563521
 30
0.0
 10
428.141706297057
 20
162.6031982567414
 30
0.0
 10
428.3442579067081
 20
162.5889779845647
 30
0.0
  0
LINE
  5
1489
330
2
100
AcDbEntity
  8
0
100
AcDbLine
 10
426.602018083999
 20
161.5195364471872
 30
0.0
 11
426.0270180830889
 21
161.5195364471872
 31
0.0
  0
LINE
  5
148A
330
2
100
AcDbEntity
  8
0
100
AcDbLine
 10
424.2847782603798
 20
162.5889779845647
 30
0.0
 11
424.2645180835439
 21
162.7999547300263
 31
0.0
  0
LINE
  5
148B
330
2
100
AcDbEntity
  8
0
100
AcDbLine
 10
428.3442579067081
 20
162.5889779845647
 30
0.0
 11
428.3645180835439
 21
162.7999547300263
 31
0.0
  0
LINE
  5
148C
330
2
100
AcDbEntity
  8
0
100
AcDbLine
 10
427.6524268995701
 20
162.9365364471871
 30
0.0
 11
428.814503083544
 21
162.9365364471871
 31
0.0
  0
LINE
  5
1566
330
2
100
AcDbEntity
  8
0
100
AcDbLine
 10
90.98560878128564
 20
314.8201035734115
 30
0.0
 11
90.98560878128564
 21
347.3200875734115
 31
0.0
  0
ARC
  5
15AF
330
2
100
AcDbEntity
  8
0
100
AcDbCircle
 10
437.8145180835439
 20
136.7365414471871
 30
0.0
 40
2.0
100
AcDbArc
 50
180.0
 51
270.0
  0
ARC
  5
15B0
330
2
100
AcDbEntity
  8
0
100
AcDbCircle
 10
437.8145180835439
 20
92.73654144718713
 30
0.0
 40
2.0
100
AcDbArc
 50
90.00000000000003
 51
180.0
  0
ARC
  5
15B1
330
2
100
AcDbEntity
  8
0
100
AcDbCircle
 10
371.8145180835437
 20
92.73654144718713
 30
0.0
 40
2.0
100
AcDbArc
 50
0.000000000000007
 51
89.99999999999998
  0
ARC
  5
15B2
330
2
100
AcDbEntity
  8
0
100
AcDbCircle
 10
371.8145180835437
 20
136.7365414471871
 30
0.0
 40
2.0
100
AcDbArc
 50
270.0
 51
0.000000000000007
  0
LINE
  5
15B3
330
2
100
AcDbEntity
  8
0
100
AcDbLine
 10
235.4856087812856
 20
341.3201035734114
 30
0.0
 11
235.4856087812856
 21
340.3161035754166
 31
0.0
  0
LINE
  5
15B4
330
2
100
AcDbEntity
  8
0
100
AcDbLine
 10
195.4856047812856
 20
341.3201035734114
 30
0.0
 11
195.4856047812856
 21
340.3201035734116
 31
0.0
  0
ARC
  5
15B5
330
2
100
AcDbEntity
  8
0
100
AcDbCircle
 10
237.4856047812857
 20
340.3201035734116
 30
0.0
 40
2.0
100
AcDbArc
 50
180.0
 51
270.0
  0
ARC
  5
15B6
330
2
100
AcDbEntity
  8
0
100
AcDbCircle
 10
193.4856047812856
 20
340.3201035734116
 30
0.0
 40
2.0
100
AcDbArc
 50
270.0
 51
0.0
  0
LINE
  5
15B7
330
2
100
AcDbEntity
  8
0
100
AcDbLine
 10
234.4856087812857
 20
342.3201035734114
 30
0.0
 11
196.4856047812856
 21
342.3201035734114
 31
0.0
  0
ARC
  5
15B8
330
2
100
AcDbEntity
  8
0
100
AcDbCircle
 10
234.4856127812857
 20
341.3201035734114
 30
0.0
 40
1.0
100
AcDbArc
 50
0.0
 51
90.0
  0
ARC
  5
15B9
330
2
100
AcDbEntity
  8
0
100
AcDbCircle
 10
196.4856047812856
 20
341.3201035734114
 30
0.0
 40
1.0
100
AcDbArc
 50
90.0
 51
180.0
  0
ARC
  5
15BA
330
2
100
AcDbEntity
  8
0
100
AcDbCircle
 10
193.4856047812856
 20
274.3201035734115
 30
0.0
 40
2.0
100
AcDbArc
 50
0.0
 51
90.00000000000003
  0
ARC
  5
15BB
330
2
100
AcDbEntity
  8
0
100
AcDbCircle
 10
237.4856047812857
 20
274.3201035734115
 30
0.0
 40
2.0
100
AcDbArc
 50
90.00000000000003
 51
179.9999999999999
  0
ENDSEC
  0
SECTION
  2
OBJECTS
  0
DICTIONARY
  5
7
330
0
100
AcDbDictionary
  3
ACAD_GROUP
350
75
  3
ACAD_LAYOUT
350
61
  3
ACAD_MLINESTYLE
350
76
  3
ACAD_PLOTSETTINGS
350
77
  3
ACAD_PLOTSTYLENAME
350
6
  3
ACADDIM
350
480
  3
ACDBHEADERROUNDTRIPXREC
350
15FF
  3
ACDBVARIABLEDICTIONARY
350
102
  3
DWGPROPS
350
3D2
  0
DICTIONARY
  5
1620
330
2
100
AcDbDictionary
280
     1
  3
ACAD_LAYOUTSELFREF
360
1621
  0
DICTIONARY
  5
1622
330
15F9
100
AcDbDictionary
280
     1
  3
ACAD_LAYOUTSELFREF
360
1623
  0
DICTIONARY
  5
75
102
{ACAD_REACTORS
330
7
102
}
330
7
100
AcDbDictionary
  0
DICTIONARY
  5
61
102
{ACAD_REACTORS
330
7
102
}
330
7
100
AcDbDictionary
  0
DICTIONARY
  5
76
102
{ACAD_REACTORS
330
7
102
}
330
7
100
AcDbDictionary
  3
STANDARD
350
78
  0
DICTIONARY
  5
77
102
{ACAD_REACTORS
330
7
102
}
330
7
100
AcDbDictionary
  0
ACDBDICTIONARYWDFLT
  5
6
102
{ACAD_REACTORS
330
7
102
}
330
7
100
AcDbDictionary
281
     1
  3
Normal
350
5
100
AcDbDictionaryWithDefault
340
5
  0
XRECORD
  5
480
102
{ACAD_REACTORS
330
7
102
}
330
7
100
AcDbXrecord
 90
   990106
  3

 60
     0
 61
     0
 62
     1
 63
     3
 64
     1
 65
     0
 66
     0
 67
     3
 68
     1
 69
     0
 70
     0
 71
     0
 72
     0
 40
0.0
170
     2
340
0
  0
DICTIONARY
  5
15FF
102
{ACAD_REACTORS
330
7
102
}
330
7
100
AcDbDictionary
  3
CEPSNTYPE
350
1609
  3
DIMSTYLEDATA
350
160D
  3
FINGERPRINTGUID
350
160A
  3
HYPERLINKBASE
350
1602
  3
INSUNITS
350
1608
  3
LAYOUTDICT
350
1604
  3
LWETCUNION
350
1607
  3
PLOTSETDICT
350
1605
  3
PLOTSTYLNAMDICT
350
1606
  3
PSVPSCALE
350
160C
  3
PUCSBASE
350
1610
  3
PUCSORGBACK
350
1616
  3
PUCSORGBOTTOM
350
1612
  3
PUCSORGFRONT
350
1615
  3
PUCSORGLEFT
350
1613
  3
PUCSORGRIGHT
350
1614
  3
PUCSORGTOP
350
1611
  3
PUCSORTHOREF
350
160E
  3
PUCSORTHOVIEW
350
160F
  3
STYLESHEET
350
1603
  3
TSTACKALIGN
350
1600
  3
TSTACKSIZE
350
1601
  3
UCSBASE
350
1619
  3
UCSORGBACK
350
161F
  3
UCSORGBOTTOM
350
161B
  3
UCSORGFRONT
350
161E
  3
UCSORGLEFT
350
161C
  3
UCSORGRIGHT
350
161D
  3
UCSORGTOP
350
161A
  3
UCSORTHOREF
350
1617
  3
UCSORTHOVIEW
350
1618
  3
VERSIONGUID
350
160B
  0
DICTIONARY
  5
102
102
{ACAD_REACTORS
330
7
102
}
330
7
100
AcDbDictionary
  3
DIMASSOC
350
103
  0
XRECORD
  5
3D2
102
{ACAD_REACTORS
330
7
102
}
330
7
100
AcDbXrecord
  1
DWGPROPS COOKIE
  2

  3

  4

  6

  7

  8

  9

300
=
301
=
302
=
303
=
304
=
305
=
306
=
307
=
308
=
309
=
 40
0.5353330671296296
 41
2452052.431989363
 42
2453406.550756377
  1

 90
        0
  0
XRECORD
  5
1621
102
{ACAD_REACTORS
330
1620
102
}
330
1620
100
AcDbXrecord
340
2
  0
XRECORD
  5
1623
102
{ACAD_REACTORS
330
1622
102
}
330
1622
100
AcDbXrecord
340
15F9
  0
MLINESTYLE
  5
78
102
{ACAD_REACTORS
330
76
102
}
330
76
100
AcDbMlineStyle
  2
STANDARD
 70
     0
  3

 62
     0
 51
90.0
 52
90.0
 71
     2
 49
0.5
 62
   256
  6
BYLAYER
 49
-0.5
 62
   256
  6
BYLAYER
  0
ACDBPLACEHOLDER
  5
5
102
{ACAD_REACTORS
330
6
102
}
330
6
100
AcDbPlaceHolder
280
     0
  0
XRECORD
  5
1609
102
{ACAD_REACTORS
330
15FF
102
}
330
15FF
100
AcDbXrecord
 90
        0
  0
XRECORD
  5
160D
102
{ACAD_REACTORS
330
15FF
102
}
330
15FF
100
AcDbXrecord
1000
DSTYLE
1002
{
1070
   179
 70
     2
1070
   277
 70
     6
1002
}
  0
XRECORD
  5
160A
102
{ACAD_REACTORS
330
15FF
102
}
330
15FF
100
AcDbXrecord
  1
{6385560B-F4B1-4644-A7C2-A3E32AC3D232}
  0
XRECORD
  5
1602
102
{ACAD_REACTORS
330
15FF
102
}
330
15FF
100
AcDbXrecord
  1

  0
XRECORD
  5
1608
102
{ACAD_REACTORS
330
15FF
102
}
330
15FF
100
AcDbXrecord
 90
        0
  0
XRECORD
  5
1604
102
{ACAD_REACTORS
330
15FF
102
}
330
15FF
100
AcDbXrecord
340
61
  0
XRECORD
  5
1607
102
{ACAD_REACTORS
330
15FF
102
}
330
15FF
100
AcDbXrecord
 90
    10781
  0
XRECORD
  5
1605
102
{ACAD_REACTORS
330
15FF
102
}
330
15FF
100
AcDbXrecord
340
77
  0
XRECORD
  5
1606
102
{ACAD_REACTORS
330
15FF
102
}
330
15FF
100
AcDbXrecord
340
6
  0
XRECORD
  5
160C
102
{ACAD_REACTORS
330
15FF
102
}
330
15FF
100
AcDbXrecord
 40
0.0
  0
XRECORD
  5
1610
102
{ACAD_REACTORS
330
15FF
102
}
330
15FF
100
AcDbXrecord
340
0
  0
XRECORD
  5
1616
102
{ACAD_REACTORS
330
15FF
102
}
330
15FF
100
AcDbXrecord
 10
0.0
 20
0.0
 30
0.0
  0
XRECORD
  5
1612
102
{ACAD_REACTORS
330
15FF
102
}
330
15FF
100
AcDbXrecord
 10
0.0
 20
0.0
 30
0.0
  0
XRECORD
  5
1615
102
{ACAD_REACTORS
330
15FF
102
}
330
15FF
100
AcDbXrecord
 10
0.0
 20
0.0
 30
0.0
  0
XRECORD
  5
1613
102
{ACAD_REACTORS
330
15FF
102
}
330
15FF
100
AcDbXrecord
 10
0.0
 20
0.0
 30
0.0
  0
XRECORD
  5
1614
102
{ACAD_REACTORS
330
15FF
102
}
330
15FF
100
AcDbXrecord
 10
0.0
 20
0.0
 30
0.0
  0
XRECORD
  5
1611
102
{ACAD_REACTORS
330
15FF
102
}
330
15FF
100
AcDbXrecord
 10
0.0
 20
0.0
 30
0.0
  0
XRECORD
  5
160E
102
{ACAD_REACTORS
330
15FF
102
}
330
15FF
100
AcDbXrecord
340
0
  0
XRECORD
  5
160F
102
{ACAD_REACTORS
330
15FF
102
}
330
15FF
100
AcDbXrecord
 70
     0
  0
XRECORD
  5
1603
102
{ACAD_REACTORS
330
15FF
102
}
330
15FF
100
AcDbXrecord
  1
Sekkei.ctb
  0
XRECORD
  5
1600
102
{ACAD_REACTORS
330
15FF
102
}
330
15FF
100
AcDbXrecord
 90
        1
  0
XRECORD
  5
1601
102
{ACAD_REACTORS
330
15FF
102
}
330
15FF
100
AcDbXrecord
 90
       70
  0
XRECORD
  5
1619
102
{ACAD_REACTORS
330
15FF
102
}
330
15FF
100
AcDbXrecord
340
0
  0
XRECORD
  5
161F
102
{ACAD_REACTORS
330
15FF
102
}
330
15FF
100
AcDbXrecord
 10
0.0
 20
0.0
 30
0.0
  0
XRECORD
  5
161B
102
{ACAD_REACTORS
330
15FF
102
}
330
15FF
100
AcDbXrecord
 10
0.0
 20
0.0
 30
0.0
  0
XRECORD
  5
161E
102
{ACAD_REACTORS
330
15FF
102
}
330
15FF
100
AcDbXrecord
 10
0.0
 20
0.0
 30
0.0
  0
XRECORD
  5
161C
102
{ACAD_REACTORS
330
15FF
102
}
330
15FF
100
AcDbXrecord
 10
0.0
 20
0.0
 30
0.0
  0
XRECORD
  5
161D
102
{ACAD_REACTORS
330
15FF
102
}
330
15FF
100
AcDbXrecord
 10
0.0
 20
0.0
 30
0.0
  0
XRECORD
  5
161A
102
{ACAD_REACTORS
330
15FF
102
}
330
15FF
100
AcDbXrecord
 10
0.0
 20
0.0
 30
0.0
  0
XRECORD
  5
1617
102
{ACAD_REACTORS
330
15FF
102
}
330
15FF
100
AcDbXrecord
340
0
  0
XRECORD
  5
1618
102
{ACAD_REACTORS
330
15FF
102
}
330
15FF
100
AcDbXrecord
 70
     0
  0
XRECORD
  5
160B
102
{ACAD_REACTORS
330
15FF
102
}
330
15FF
100
AcDbXrecord
  1
{48754CC7-5ECE-4C15-AAC5-DB7961C3A10C}
  0
DICTIONARYVAR
  5
103
102
{ACAD_REACTORS
330
102
102
}
330
102
100
DictionaryVariables
280
     0
  1
1
  0
ENDSEC
  0
EOF
