  0
SECTION
  2
HEADER
  9
$ACADVER
  1
AC1014
  9
$ACADMAINTVER
 70
     9
  9
$DWGCODEPAGE
  3
ANSI_932
  9
$INSBASE
 10
0.0
 20
0.0
 30
0.0
  9
$EXTMIN
 10
36.14433986603428
 20
46.08865338517209
 30
0.0
  9
$EXTMAX
 10
423.4323681885499
 20
372.4342333616486
 30
0.0
  9
$LIMMIN
 10
0.0
 20
0.0
  9
$LIMMAX
 10
297.0
 20
210.0
  9
$ORTHOMODE
 70
     1
  9
$REGENMODE
 70
     1
  9
$FILLMODE
 70
     1
  9
$QTEXTMODE
 70
     0
  9
$MIRRTEXT
 70
     0
  9
$DRAGMODE
 70
     2
  9
$LTSCALE
 40
2.0
  9
$OSMODE
 70
    37
  9
$ATTMODE
 70
     1
  9
$TEXTSIZE
 40
2.0
  9
$TRACEWID
 40
1.0
  9
$TEXTSTYLE
  7
STANDARD
  9
$CLAYER
  8
0
  9
$CELTYPE
  6
BYLAYER
  9
$CECOLOR
 62
   256
  9
$CELTSCALE
 40
1.0
  9
$DELOBJ
 70
     1
  9
$DISPSILH
 70
     0
  9
$DIMSCALE
 40
2.0
  9
$DIMASZ
 40
1.8
  9
$DIMEXO
 40
0.625
  9
$DIMDLI
 40
3.75
  9
$DIMRND
 40
0.0
  9
$DIMDLE
 40
0.0
  9
$DIMEXE
 40
0.8
  9
$DIMTP
 40
0.0
  9
$DIMTM
 40
0.0
  9
$DIMTXT
 40
1.8
  9
$DIMCEN
 40
2.5
  9
$DIMTSZ
 40
0.0
  9
$DIMTOL
 70
     0
  9
$DIMLIM
 70
     0
  9
$DIMTIH
 70
     0
  9
$DIMTOH
 70
     0
  9
$DIMSE1
 70
     0
  9
$DIMSE2
 70
     0
  9
$DIMTAD
 70
     1
  9
$DIMZIN
 70
     8
  9
$DIMBLK
  1

  9
$DIMASO
 70
     1
  9
$DIMSHO
 70
     1
  9
$DIMPOST
  1

  9
$DIMAPOST
  1

  9
$DIMALT
 70
     0
  9
$DIMALTD
 70
     4
  9
$DIMALTF
 40
0.0394
  9
$DIMLFAC
 40
1.0
  9
$DIMTOFL
 70
     1
  9
$DIMTVP
 40
0.0
  9
$DIMTIX
 70
     0
  9
$DIMSOXD
 70
     0
  9
$DIMSAH
 70
     0
  9
$DIMBLK1
  1

  9
$DIMBLK2
  1

  9
$DIMSTYLE
  2
STANDARD
  9
$DIMCLRD
 70
     0
  9
$DIMCLRE
 70
     0
  9
$DIMCLRT
 70
     0
  9
$DIMTFAC
 40
1.0
  9
$DIMGAP
 40
0.75
  9
$DIMJUST
 70
     0
  9
$DIMSD1
 70
     0
  9
$DIMSD2
 70
     0
  9
$DIMTOLJ
 70
     1
  9
$DIMTZIN
 70
     0
  9
$DIMALTZ
 70
     0
  9
$DIMALTTZ
 70
     0
  9
$DIMFIT
 70
     3
  9
$DIMUPT
 70
     0
  9
$DIMUNIT
 70
     8
  9
$DIMDEC
 70
     2
  9
$DIMTDEC
 70
     2
  9
$DIMALTU
 70
     8
  9
$DIMALTTD
 70
     4
  9
$DIMTXSTY
  7
STANDARD
  9
$DIMAUNIT
 70
     0
  9
$LUNITS
 70
     2
  9
$LUPREC
 70
     3
  9
$SKETCHINC
 40
1.0
  9
$FILLETRAD
 40
10.0
  9
$AUNITS
 70
     0
  9
$AUPREC
 70
     2
  9
$MENU
  1
.
  9
$ELEVATION
 40
0.0
  9
$PELEVATION
 40
0.0
  9
$THICKNESS
 40
0.0
  9
$LIMCHECK
 70
     0
  9
$BLIPMODE
 70
     0
  9
$CHAMFERA
 40
0.0
  9
$CHAMFERB
 40
0.0
  9
$CHAMFERC
 40
20.0
  9
$CHAMFERD
 40
0.0
  9
$SKPOLY
 70
     0
  9
$TDCREATE
 40
2453752.650417198
  9
$TDUPDATE
 40
2454399.552526215
  9
$TDINDWG
 40
0.3351745023
  9
$TDUSRTIMER
 40
0.3351745023
  9
$USRTIMER
 70
     1
  9
$ANGBASE
 50
0.0
  9
$ANGDIR
 70
     0
  9
$PDMODE
 70
     0
  9
$PDSIZE
 40
-10.0
  9
$PLINEWID
 40
0.0
  9
$COORDS
 70
     1
  9
$SPLFRAME
 70
     0
  9
$SPLINETYPE
 70
     6
  9
$SPLINESEGS
 70
     8
  9
$ATTDIA
 70
     0
  9
$ATTREQ
 70
     1
  9
$HANDLING
 70
-16383
  9
$HANDSEED
  5
19F9
  9
$SURFTAB1
 70
     6
  9
$SURFTAB2
 70
     6
  9
$SURFTYPE
 70
     6
  9
$SURFU
 70
     6
  9
$SURFV
 70
     6
  9
$UCSNAME
  2

  9
$UCSORG
 10
0.0
 20
0.0
 30
0.0
  9
$UCSXDIR
 10
1.0
 20
0.0
 30
0.0
  9
$UCSYDIR
 10
0.0
 20
1.0
 30
0.0
  9
$PUCSNAME
  2

  9
$PUCSORG
 10
0.0
 20
0.0
 30
0.0
  9
$PUCSXDIR
 10
1.0
 20
0.0
 30
0.0
  9
$PUCSYDIR
 10
0.0
 20
1.0
 30
0.0
  9
$USERI1
 70
     0
  9
$USERI2
 70
     0
  9
$USERI3
 70
     0
  9
$USERI4
 70
     0
  9
$USERI5
 70
     0
  9
$USERR1
 40
0.0
  9
$USERR2
 40
0.0
  9
$USERR3
 40
0.0
  9
$USERR4
 40
0.0
  9
$USERR5
 40
0.0
  9
$WORLDVIEW
 70
     1
  9
$SHADEDGE
 70
     3
  9
$SHADEDIF
 70
    70
  9
$TILEMODE
 70
     1
  9
$MAXACTVP
 70
    48
  9
$PINSBASE
 10
0.0
 20
0.0
 30
0.0
  9
$PLIMCHECK
 70
     0
  9
$PEXTMIN
 10
0.0
 20
0.0
 30
0.0
  9
$PEXTMAX
 10
0.0
 20
0.0
 30
0.0
  9
$PLIMMIN
 10
0.0
 20
0.0
  9
$PLIMMAX
 10
12.0
 20
9.0
  9
$UNITMODE
 70
     0
  9
$VISRETAIN
 70
     1
  9
$PLINEGEN
 70
     0
  9
$PSLTSCALE
 70
     1
  9
$TREEDEPTH
 70
  3020
  9
$PICKSTYLE
 70
     1
  9
$CMLSTYLE
  2
STANDARD
  9
$CMLJUST
 70
     0
  9
$CMLSCALE
 40
1.0
  9
$PROXYGRAPHICS
 70
     1
  9
$MEASUREMENT
 70
     0
  0
ENDSEC
  0
SECTION
  2
CLASSES
  0
CLASS
  1
DICTIONARYVAR
  2
AcDbDictionaryVar
  3
AutoCAD 2000
 90
        0
280
     0
281
     0
  0
CLASS
  1
ACDBDICTIONARYWDFLT
  2
AcDbDictionaryWithDefault
  3
AutoCAD 2000
 90
        0
280
     0
281
     0
  0
CLASS
  1
ACDBPLACEHOLDER
  2
AcDbPlaceHolder
  3
AutoCAD 2000
 90
        0
280
     0
281
     0
  0
CLASS
  1
LAYOUT
  2
AcDbLayout
  3
AutoCAD 2000
 90
        0
280
     0
281
     0
  0
CLASS
  1
LONG_TRANSACTION
  2
AcDbLongTransaction
  3
AutoCAD 2000
 90
        0
280
     0
281
     0
  0
CLASS
  1
LWPOLYLINE
  2
AcDbPolyline
  3
AutoCAD 2000
 90
        0
280
     0
281
     1
  0
CLASS
  1
HATCH
  2
AcDbHatch
  3
AutoCAD 2000
 90
        0
280
     0
281
     1
  0
CLASS
  1
XRECORD
  2
AcDbXrecord
  3
AutoCAD 2000
 90
        0
280
     0
281
     0
  0
ENDSEC
  0
SECTION
  2
TABLES
  0
TABLE
  2
VPORT
  5
6E
330
0
100
AcDbSymbolTable
 70
     2
  0
VPORT
  5
19D3
330
6E
100
AcDbSymbolTableRecord
100
AcDbViewportTableRecord
  2
*ACTIVE
 70
     0
 10
0.0
 20
0.0
 11
1.0
 21
1.0
 12
223.1361178139891
 22
197.5829083742354
 13
0.0
 23
0.0
 14
10.0
 24
10.0
 15
10.0
 25
10.0
 16
0.0
 26
0.0
 36
1.0
 17
0.0
 27
0.0
 37
0.0
 40
352.4052712853263
 41
1.540920716112531
 42
50.0
 43
0.0
 44
0.0
 50
0.0
 51
0.0
 71
     0
 72
   100
 73
     1
 74
     3
 75
     0
 76
     0
 77
     0
 78
     0
  0
ENDTAB
  0
TABLE
  2
LTYPE
  5
69
330
0
100
AcDbSymbolTable
 70
     4
  0
LTYPE
  5
6A
330
69
100
AcDbSymbolTableRecord
100
AcDbLinetypeTableRecord
  2
BYBLOCK
 70
     0
  3

 72
    65
 73
     0
 40
0.0
  0
LTYPE
  5
6B
330
69
100
AcDbSymbolTableRecord
100
AcDbLinetypeTableRecord
  2
BYLAYER
 70
     0
  3

 72
    65
 73
     0
 40
0.0
  0
LTYPE
  5
8
330
69
100
AcDbSymbolTableRecord
100
AcDbLinetypeTableRecord
  2
CONTINUOUS
 70
     0
  3
Solid line
 72
    65
 73
     0
 40
0.0
  0
LTYPE
  5
27C
330
69
100
AcDbSymbolTableRecord
100
AcDbLinetypeTableRecord
  2
SEKKEI_A2_
 70
     0
  3
center(A2)  ____ _ ____ _ ____ _ ____ _ ____ _ 
 72
    65
 73
     4
 40
14.28749999999999
 49
9.525
 74
     0
 49
-1.587499999999999
 74
     0
 49
1.587499999999999
 74
     0
 49
-1.587499999999999
 74
     0
  0
LTYPE
  5
2B4
330
69
100
AcDbSymbolTableRecord
100
AcDbLinetypeTableRecord
  2
HIDDEN2
 70
     0
  3
Hidden (.5x) _ _ _ _ _ _ _ _ _ _ _ _ _ _ _ _ _
 72
    65
 73
     2
 40
4.762499999999999
 49
3.174999999999999
 74
     0
 49
-1.587499999999999
 74
     0
  0
LTYPE
  5
48F
330
69
100
AcDbSymbolTableRecord
100
AcDbLinetypeTableRecord
  2
SEKKEI_H
 70
     0
  3
Hidden-S _ _ _ _ _ _ _ _ _ _ _ _ _ _ _ _ _
 72
    65
 73
     2
 40
2.381249999999999
 49
1.587499999999999
 74
     0
 49
-0.79375
 74
     0
  0
ENDTAB
  0
TABLE
  2
LAYER
  5
66
330
0
100
AcDbSymbolTable
 70
     8
  0
LAYER
  5
5E
330
66
100
AcDbSymbolTableRecord
100
AcDbLayerTableRecord
  2
0
 70
     0
 62
     7
  6
CONTINUOUS
  0
LAYER
  5
3E
330
66
100
AcDbSymbolTableRecord
100
AcDbLayerTableRecord
  2
CENTER
 70
     0
 62
     3
  6
SEKKEI_A2_
  0
LAYER
  5
2B5
330
66
100
AcDbSymbolTableRecord
100
AcDbLayerTableRecord
  2
HIDS
 70
     0
 62
     1
  6
HIDDEN2
  0
LAYER
  5
3FA
330
66
100
AcDbSymbolTableRecord
100
AcDbLayerTableRecord
  2
TITLE
 70
     0
 62
     4
  6
CONTINUOUS
  0
ENDTAB
  0
TABLE
  2
STYLE
  5
67
330
0
100
AcDbSymbolTable
 70
     1
  0
STYLE
  5
16
330
67
100
AcDbSymbolTableRecord
100
AcDbTextStyleTableRecord
  2
STANDARD
 70
     0
 40
0.0
 41
1.0
 50
0.0
 71
     0
 42
2.0
  3
simplex.shx
  4
extfont.shx
  0
ENDTAB
  0
TABLE
  2
VIEW
  5
6C
330
0
100
AcDbSymbolTable
 70
     0
  0
ENDTAB
  0
TABLE
  2
UCS
  5
6D
330
0
100
AcDbSymbolTable
 70
     0
  0
ENDTAB
  0
TABLE
  2
APPID
  5
70
330
0
100
AcDbSymbolTable
 70
     1
  0
APPID
  5
71
330
70
100
AcDbSymbolTableRecord
100
AcDbRegAppTableRecord
  2
ACAD
 70
     0
  0
ENDTAB
  0
TABLE
  2
DIMSTYLE
  5
72
330
0
100
AcDbSymbolTable
 70
     1
  0
DIMSTYLE
105
73
330
72
100
AcDbSymbolTableRecord
100
AcDbDimStyleTableRecord
  2
STANDARD
 70
     0
  3

  4

  5

  6

  7

 40
2.0
 41
1.8
 42
0.625
 43
3.75
 44
0.8
 45
0.0
 46
0.0
 47
0.0
 48
0.0
140
1.8
141
2.5
142
0.0
143
0.0394
144
1.0
145
0.0
146
1.0
147
0.75
 71
     0
 72
     0
 73
     0
 74
     0
 75
     0
 76
     0
 77
     1
 78
     8
170
     0
171
     4
172
     1
173
     0
174
     0
175
     0
176
     0
177
     0
178
     0
270
     8
271
     2
272
     2
273
     8
274
     4
340
16
275
     0
280
     0
281
     0
282
     0
283
     1
284
     0
285
     0
286
     0
287
     3
288
     0
  0
ENDTAB
  0
TABLE
  2
BLOCK_RECORD
  5
1
330
0
100
AcDbSymbolTable
 70
    50
  0
BLOCK_RECORD
  5
2
102
{ACAD_XDICTIONARY
360
19F5
102
}
330
1
100
AcDbSymbolTableRecord
100
AcDbBlockTableRecord
  2
*MODEL_SPACE
  0
BLOCK_RECORD
  5
19CE
102
{ACAD_XDICTIONARY
360
19F7
102
}
330
1
100
AcDbSymbolTableRecord
100
AcDbBlockTableRecord
  2
*PAPER_SPACE
  0
ENDTAB
  0
ENDSEC
  0
SECTION
  2
BLOCKS
  0
BLOCK
  5
5D
330
2
100
AcDbEntity
  8
0
100
AcDbBlockBegin
  2
*MODEL_SPACE
 70
     0
 10
0.0
 20
0.0
 30
0.0
  3
*MODEL_SPACE
  1

  0
ENDBLK
  5
5F
330
2
100
AcDbEntity
  8
0
100
AcDbBlockEnd
  0
BLOCK
  5
19D0
330
19CE
100
AcDbEntity
 67
     1
  8
0
100
AcDbBlockBegin
  2
*PAPER_SPACE
 70
     0
 10
0.0
 20
0.0
 30
0.0
  3
*PAPER_SPACE
  1

  0
ENDBLK
  5
19D1
330
19CE
100
AcDbEntity
 67
     1
  8
0
100
AcDbBlockEnd
  0
ENDSEC
  0
SECTION
  2
ENTITIES
  0
LINE
  5
600
330
2
100
AcDbEntity
  8
0
100
AcDbLine
 10
188.1443468660343
 20
271.4342183616486
 30
0.0
 11
217.3758528660342
 21
271.4342183616486
 31
0.0
  0
LINE
  5
602
330
2
100
AcDbEntity
  8
0
100
AcDbLine
 10
138.6508388660342
 20
287.4342183616486
 30
0.0
 11
218.6378308660342
 21
287.4342183616486
 31
0.0
  0
LINE
  5
603
330
2
100
AcDbEntity
  8
CENTER
100
AcDbLine
 10
206.7584270658468
 20
358.4342333616486
 30
0.0
 11
218.5302666662217
 21
358.4342333616486
 31
0.0
  0
LINE
  5
604
330
2
100
AcDbEntity
  8
0
100
AcDbLine
 10
138.6508388660342
 20
349.4342183616486
 30
0.0
 11
218.6378308660342
 21
349.4342183616486
 31
0.0
  0
LINE
  5
605
330
2
100
AcDbEntity
  8
CENTER
100
AcDbLine
 10
36.14433986603433
 20
318.4342183616486
 30
0.0
 11
228.1443468660343
 21
318.4342183616486
 31
0.0
  0
ARC
  5
606
330
2
100
AcDbEntity
  8
0
100
AcDbCircle
 10
178.6443468660343
 20
105.088651385172
 30
0.0
 40
42.5
100
AcDbArc
 50
19.749901
 51
160.2501069999997
  0
ARC
  5
607
330
2
100
AcDbEntity
  8
0
100
AcDbCircle
 10
178.6443468660343
 20
105.088651385172
 30
0.0
 40
42.5
100
AcDbArc
 50
199.7498930000002
 51
340.2500920000002
  0
LINE
  5
608
330
2
100
AcDbEntity
  8
0
100
AcDbLine
 10
138.1443468660343
 20
61.08865338517208
 30
0.0
 11
219.1443468660343
 21
61.08865338517208
 31
0.0
  0
LINE
  5
609
330
2
100
AcDbEntity
  8
0
100
AcDbLine
 10
219.0166458660343
 20
132.881913385172
 30
0.0
 11
194.9371478660343
 21
149.781312385172
 31
0.0
  0
LINE
  5
60A
330
2
100
AcDbEntity
  8
0
100
AcDbLine
 10
136.1443388660342
 20
53.08865338517207
 30
0.0
 11
221.1443468660343
 21
53.08865338517207
 31
0.0
  0
LINE
  5
60B
330
2
100
AcDbEntity
  8
CENTER
100
AcDbLine
 10
151.8944093761323
 20
118.088655385172
 30
0.0
 11
205.8942843559362
 21
118.088655385172
 31
0.0
  0
LINE
  5
60C
330
2
100
AcDbEntity
  8
0
100
AcDbLine
 10
63.64428886603429
 20
65.53965338517207
 30
0.0
 11
136.1443308660343
 21
65.53965338517207
 31
0.0
  0
LINE
  5
60D
330
2
100
AcDbEntity
  8
0
100
AcDbLine
 10
63.64428886603429
 20
126.037652385172
 30
0.0
 11
136.1443308660343
 21
126.037652385172
 31
0.0
  0
LINE
  5
60E
330
2
100
AcDbEntity
  8
0
100
AcDbLine
 10
63.64433886603433
 20
57.78865338517206
 30
0.0
 11
136.1443388660342
 21
57.78865338517206
 31
0.0
  0
LINE
  5
60F
330
2
100
AcDbEntity
  8
0
100
AcDbLine
 10
63.64433886603433
 20
133.788651385172
 30
0.0
 11
139.5640168660343
 21
133.788651385172
 31
0.0
  0
LINE
  5
610
330
2
100
AcDbEntity
  8
CENTER
100
AcDbLine
 10
36.14433986603428
 20
95.78865138517205
 30
0.0
 11
155.3943388660342
 21
95.78865138517207
 31
0.0
  0
LINE
  5
611
330
2
100
AcDbEntity
  8
0
100
AcDbLine
 10
63.64433886603433
 20
57.78865338517206
 30
0.0
 11
63.64433886603433
 21
133.788651385172
 31
0.0
  0
LINE
  5
612
330
2
100
AcDbEntity
  8
0
100
AcDbLine
 10
43.64433986603432
 20
60.78865338517207
 30
0.0
 11
43.64433986603432
 21
130.788651385172
 31
0.0
  0
LINE
  5
613
330
2
100
AcDbEntity
  8
0
100
AcDbLine
 10
43.14433986603432
 20
63.78865338517207
 30
0.0
 11
43.14433986603432
 21
127.788651385172
 31
0.0
  0
LINE
  5
614
330
2
100
AcDbEntity
  8
0
100
AcDbLine
 10
44.51035786603426
 20
59.28866338517207
 30
0.0
 11
43.64433986603432
 21
60.78865338517207
 31
0.0
  0
LINE
  5
615
330
2
100
AcDbEntity
  8
0
100
AcDbLine
 10
43.14433986603432
 20
63.78865338517207
 30
0.0
 11
43.64433986603432
 21
63.28865338517207
 31
0.0
  0
LINE
  5
616
330
2
100
AcDbEntity
  8
0
100
AcDbLine
 10
63.64433886603433
 20
65.53965338517207
 30
0.0
 11
45.22597586603427
 21
65.53965338517207
 31
0.0
  0
LINE
  5
617
330
2
100
AcDbEntity
  8
0
100
AcDbLine
 10
47.10844286603429
 20
57.78865338517206
 30
0.0
 11
63.64433886603433
 21
57.78865338517206
 31
0.0
  0
ARC
  5
618
330
2
100
AcDbEntity
  8
0
100
AcDbCircle
 10
47.10844786603428
 20
60.78864438517207
 30
0.0
 40
3.0
100
AcDbArc
 50
209.9996030000002
 51
270.0
  0
LINE
  5
619
330
2
100
AcDbEntity
  8
0
100
AcDbLine
 10
44.51035786603426
 20
132.288644385172
 30
0.0
 11
43.64433986603432
 21
130.788651385172
 31
0.0
  0
LINE
  5
61A
330
2
100
AcDbEntity
  8
0
100
AcDbLine
 10
43.14433986603432
 20
127.788651385172
 30
0.0
 11
43.64433986603432
 21
128.288651385172
 31
0.0
  0
LINE
  5
620
330
2
100
AcDbEntity
  8
0
100
AcDbLine
 10
45.22597586603427
 20
126.037652385172
 30
0.0
 11
63.64433886603433
 21
126.037652385172
 31
0.0
  0
LINE
  5
621
330
2
100
AcDbEntity
  8
0
100
AcDbLine
 10
47.10843686603431
 20
133.788651385172
 30
0.0
 11
63.64433886603433
 21
133.788651385172
 31
0.0
  0
ARC
  5
622
330
2
100
AcDbEntity
  8
0
100
AcDbCircle
 10
47.10844786603428
 20
130.788667385172
 30
0.0
 40
3.0
100
AcDbArc
 50
90.0
 51
150.0003969999997
  0
LINE
  5
628
330
2
100
AcDbEntity
  8
0
100
AcDbLine
 10
138.6443388660342
 20
119.449922385172
 30
0.0
 11
138.6443388660342
 21
90.72711338517207
 31
0.0
  0
LINE
  5
629
330
2
100
AcDbEntity
  8
CENTER
100
AcDbLine
 10
178.6443468660343
 20
157.688653385172
 30
0.0
 11
178.6443468660343
 21
46.08865338517209
 31
0.0
  0
LINE
  5
62A
330
2
100
AcDbEntity
  8
0
100
AcDbLine
 10
136.1443388660342
 20
128.789254385172
 30
0.0
 11
136.1443388660342
 21
53.08865338517207
 31
0.0
  0
LINE
  5
62B
330
2
100
AcDbEntity
  8
CENTER
100
AcDbLine
 10
144.6443388660342
 20
64.5886533851721
 30
0.0
 11
144.6443388660342
 21
49.58865338517208
 31
0.0
  0
ARC
  5
62C
330
2
100
AcDbEntity
  8
0
100
AcDbCircle
 10
138.1443468660343
 20
59.08866338517206
 30
0.0
 40
2.0
100
AcDbArc
 50
90.0
 51
180.0
  0
LINE
  5
62D
330
2
100
AcDbEntity
  8
HIDS
  6
SEKKEI_H
100
AcDbLine
 10
141.3943388660342
 20
61.08865338517208
 30
0.0
 11
141.3943388660342
 21
53.08865338517207
 31
0.0
  0
LINE
  5
62E
330
2
100
AcDbEntity
  8
HIDS
  6
SEKKEI_H
100
AcDbLine
 10
147.8943388660342
 20
61.08865338517208
 30
0.0
 11
147.8943388660342
 21
53.08865338517207
 31
0.0
  0
LINE
  5
62F
330
2
100
AcDbEntity
  8
0
100
AcDbLine
 10
177.5486438660343
 20
82.08865538517207
 30
0.0
 11
179.6155378660342
 21
82.08865538517207
 31
0.0
  0
LINE
  5
630
330
2
100
AcDbEntity
  8
0
100
AcDbLine
 10
175.4568468660343
 20
91.65115138517206
 30
0.0
 11
181.8318468660343
 21
91.65115138517206
 31
0.0
  0
ARC
  5
631
330
2
100
AcDbEntity
  8
0
100
AcDbCircle
 10
169.3557418660343
 20
85.20144438517206
 30
0.0
 40
1.992186999999999
100
AcDbArc
 50
270.0002139999998
 51
0.0001089999998967
  0
LINE
  5
632
330
2
100
AcDbEntity
  8
0
100
AcDbLine
 10
166.9651398660342
 20
89.48862938517208
 30
0.0
 11
166.9651398660342
 21
83.97957338517207
 31
0.0
  0
LINE
  5
633
330
2
100
AcDbEntity
  8
0
100
AcDbLine
 10
165.8943388660342
 20
90.16915238517208
 30
0.0
 11
165.8943388660342
 21
83.32951538517207
 31
0.0
  0
LINE
  5
634
330
2
100
AcDbEntity
  8
0
100
AcDbLine
 10
178.0217418660343
 20
90.48074138517208
 30
0.0
 11
178.0217418660343
 21
83.13455338517206
 31
0.0
  0
LINE
  5
635
330
2
100
AcDbEntity
  8
0
100
AcDbLine
 10
172.2693468660343
 20
87.64187338517206
 30
0.0
 11
172.2693468660343
 21
82.08865538517207
 31
0.0
  0
LINE
  5
636
330
2
100
AcDbEntity
  8
0
100
AcDbLine
 10
171.3479448660343
 20
82.08865538517207
 30
0.0
 11
172.2693468660343
 21
82.08865538517207
 31
0.0
  0
LINE
  5
637
330
2
100
AcDbEntity
  8
0
100
AcDbLine
 10
167.1241358660342
 20
82.08865538517207
 30
0.0
 11
170.4394358660342
 21
82.08865538517207
 31
0.0
  0
LINE
  5
638
330
2
100
AcDbEntity
  8
0
100
AcDbLine
 10
169.3557418660343
 20
83.20925238517208
 30
0.0
 11
167.6964398660343
 21
83.20925238517208
 31
0.0
  0
LINE
  5
639
330
2
100
AcDbEntity
  8
0
100
AcDbLine
 10
165.8943388660342
 20
83.32951538517207
 30
0.0
 11
167.1241358660342
 21
82.08865538517207
 31
0.0
  0
LINE
  5
63A
330
2
100
AcDbEntity
  8
0
100
AcDbLine
 10
166.9651398660342
 20
83.97957338517207
 30
0.0
 11
167.6964398660343
 21
83.20925238517208
 31
0.0
  0
LINE
  5
63B
330
2
100
AcDbEntity
  8
0
100
AcDbLine
 10
171.3479448660343
 20
82.85091138517207
 30
0.0
 11
170.4394358660342
 21
82.08865538517207
 31
0.0
  0
LINE
  5
63C
330
2
100
AcDbEntity
  8
0
100
AcDbLine
 10
171.3479448660343
 20
82.85091138517207
 30
0.0
 11
171.3479448660343
 21
82.08865538517207
 31
0.0
  0
LINE
  5
63D
330
2
100
AcDbEntity
  8
0
100
AcDbLine
 10
177.5486438660343
 20
83.13455338517206
 30
0.0
 11
178.0217418660343
 21
83.13455338517206
 31
0.0
  0
LINE
  5
63E
330
2
100
AcDbEntity
  8
0
100
AcDbLine
 10
177.5486438660343
 20
83.13455338517206
 30
0.0
 11
177.5486438660343
 21
82.08865538517207
 31
0.0
  0
LINE
  5
63F
330
2
100
AcDbEntity
  8
0
100
AcDbLine
 10
169.6795328660342
 20
87.64187338517206
 30
0.0
 11
172.2693468660343
 21
87.64187338517206
 31
0.0
  0
LINE
  5
640
330
2
100
AcDbEntity
  8
0
100
AcDbLine
 10
171.3479448660343
 20
89.65896338517206
 30
0.0
 11
172.2693468660343
 21
89.65896338517206
 31
0.0
  0
LINE
  5
641
330
2
100
AcDbEntity
  8
0
100
AcDbLine
 10
171.3383468660342
 20
91.65115138517206
 30
0.0
 11
172.2693468660343
 21
90.61800938517206
 31
0.0
  0
LINE
  5
642
330
2
100
AcDbEntity
  8
0
100
AcDbLine
 10
171.3479448660343
 20
89.80968638517209
 30
0.0
 11
170.7447338660342
 21
90.38113138517207
 31
0.0
  0
LINE
  5
643
330
2
100
AcDbEntity
  8
0
100
AcDbLine
 10
167.0517408660342
 20
91.65115138517206
 30
0.0
 11
165.8943388660342
 21
90.16915238517208
 31
0.0
  0
LINE
  5
644
330
2
100
AcDbEntity
  8
0
100
AcDbLine
 10
167.6849428660343
 20
90.38113138517207
 30
0.0
 11
166.9651398660342
 21
89.48862938517208
 31
0.0
  0
LINE
  5
645
330
2
100
AcDbEntity
  8
0
100
AcDbLine
 10
171.3479448660343
 20
89.80968638517209
 30
0.0
 11
171.3479448660343
 21
89.65896338517206
 31
0.0
  0
LINE
  5
646
330
2
100
AcDbEntity
  8
0
100
AcDbLine
 10
169.6795328660342
 20
87.64187338517206
 30
0.0
 11
169.6795328660342
 21
86.59597538517207
 31
0.0
  0
LINE
  5
647
330
2
100
AcDbEntity
  8
0
100
AcDbLine
 10
171.3479448660343
 20
86.59597538517207
 30
0.0
 11
171.3479448660343
 21
85.20144438517206
 31
0.0
  0
LINE
  5
648
330
2
100
AcDbEntity
  8
0
100
AcDbLine
 10
171.3479448660343
 20
85.59988138517207
 30
0.0
 11
171.3479448660343
 21
86.39675638517207
 31
0.0
  0
LINE
  5
649
330
2
100
AcDbEntity
  8
0
100
AcDbLine
 10
171.3479448660343
 20
86.59597538517207
 30
0.0
 11
169.6795328660342
 21
86.59597538517207
 31
0.0
  0
LINE
  5
64A
330
2
100
AcDbEntity
  8
0
100
AcDbLine
 10
167.0517408660342
 20
91.65115138517206
 30
0.0
 11
171.3383468660342
 21
91.65115138517206
 31
0.0
  0
LINE
  5
64B
330
2
100
AcDbEntity
  8
0
100
AcDbLine
 10
170.7568348660343
 20
90.38113138517207
 30
0.0
 11
167.6849428660343
 21
90.38113138517207
 31
0.0
  0
LINE
  5
64C
330
2
100
AcDbEntity
  8
0
100
AcDbLine
 10
176.5068348660342
 20
90.48074138517208
 30
0.0
 11
176.1644428660342
 21
89.65896338517206
 31
0.0
  0
LINE
  5
64D
330
2
100
AcDbEntity
  8
0
100
AcDbLine
 10
172.2693468660343
 20
90.61800938517206
 30
0.0
 11
172.2693468660343
 21
89.65896338517206
 31
0.0
  0
LINE
  5
64E
330
2
100
AcDbEntity
  8
0
100
AcDbLine
 10
175.4568468660343
 20
89.65896338517206
 30
0.0
 11
175.4568468660343
 21
91.65115138517206
 31
0.0
  0
LINE
  5
64F
330
2
100
AcDbEntity
  8
0
100
AcDbLine
 10
175.4568468660343
 20
89.65896338517206
 30
0.0
 11
176.1644428660342
 21
89.65896338517206
 31
0.0
  0
LINE
  5
650
330
2
100
AcDbEntity
  8
0
100
AcDbLine
 10
178.0217418660343
 20
90.48074138517208
 30
0.0
 11
176.5068348660342
 21
90.48074138517208
 31
0.0
  0
LINE
  5
651
330
2
100
AcDbEntity
  8
0
100
AcDbLine
 10
188.6286448660342
 20
86.55862138517207
 30
0.0
 11
190.1236408660343
 21
83.08474438517208
 31
0.0
  0
LINE
  5
652
330
2
100
AcDbEntity
  8
0
100
AcDbLine
 10
189.5461408660343
 20
86.64527238517207
 30
0.0
 11
191.1260358660342
 21
83.08474438517208
 31
0.0
  0
LINE
  5
653
330
2
100
AcDbEntity
  8
0
100
AcDbLine
 10
186.5881328660343
 20
86.55862138517207
 30
0.0
 11
186.5881328660343
 21
83.08474438517208
 31
0.0
  0
LINE
  5
654
330
2
100
AcDbEntity
  8
0
100
AcDbLine
 10
185.4924448660343
 20
90.48074138517208
 30
0.0
 11
185.4924448660343
 21
83.08474438517208
 31
0.0
  0
LINE
  5
655
330
2
100
AcDbEntity
  8
0
100
AcDbLine
 10
179.2171458660343
 20
90.48074138517208
 30
0.0
 11
179.2171458660343
 21
83.13455338517206
 31
0.0
  0
LINE
  5
656
330
2
100
AcDbEntity
  8
0
100
AcDbLine
 10
187.0239398660343
 20
82.08865538517207
 30
0.0
 11
185.0193468660343
 21
82.08865538517207
 31
0.0
  0
LINE
  5
657
330
2
100
AcDbEntity
  8
0
100
AcDbLine
 10
185.0193468660343
 20
83.08474438517208
 30
0.0
 11
185.4924448660343
 21
83.08474438517208
 31
0.0
  0
LINE
  5
658
330
2
100
AcDbEntity
  8
0
100
AcDbLine
 10
179.6155378660342
 20
83.13455338517206
 30
0.0
 11
179.6155378660342
 21
82.08865538517207
 31
0.0
  0
LINE
  5
659
330
2
100
AcDbEntity
  8
0
100
AcDbLine
 10
179.2171458660343
 20
83.13455338517206
 30
0.0
 11
179.6155378660342
 21
83.13455338517206
 31
0.0
  0
LINE
  5
65A
330
2
100
AcDbEntity
  8
0
100
AcDbLine
 10
185.0193468660343
 20
83.08474438517208
 30
0.0
 11
185.0193468660343
 21
82.08865538517207
 31
0.0
  0
LINE
  5
65B
330
2
100
AcDbEntity
  8
0
100
AcDbLine
 10
187.0239398660343
 20
83.08474438517208
 30
0.0
 11
187.0239398660343
 21
82.08865538517207
 31
0.0
  0
LINE
  5
65C
330
2
100
AcDbEntity
  8
0
100
AcDbLine
 10
186.5881328660343
 20
83.08474438517208
 30
0.0
 11
187.0239398660343
 21
83.08474438517208
 31
0.0
  0
LINE
  5
65D
330
2
100
AcDbEntity
  8
0
100
AcDbLine
 10
189.9251388660343
 20
83.08474438517208
 30
0.0
 11
189.9251388660343
 21
82.08865538517207
 31
0.0
  0
LINE
  5
65E
330
2
100
AcDbEntity
  8
0
100
AcDbLine
 10
191.3943468660343
 20
83.08474438517208
 30
0.0
 11
191.3943468660343
 21
82.08865538517207
 31
0.0
  0
LINE
  5
65F
330
2
100
AcDbEntity
  8
0
100
AcDbLine
 10
189.9251388660343
 20
82.08865538517207
 30
0.0
 11
191.3943468660343
 21
82.08865538517207
 31
0.0
  0
LINE
  5
660
330
2
100
AcDbEntity
  8
0
100
AcDbLine
 10
191.1260358660342
 20
83.08474438517208
 30
0.0
 11
191.3943468660343
 21
83.08474438517208
 31
0.0
  0
LINE
  5
661
330
2
100
AcDbEntity
  8
0
100
AcDbLine
 10
189.9251388660343
 20
83.08474438517208
 30
0.0
 11
190.1236408660343
 21
83.08474438517208
 31
0.0
  0
LINE
  5
662
330
2
100
AcDbEntity
  8
0
100
AcDbLine
 10
185.0193468660343
 20
90.48074138517208
 30
0.0
 11
185.4924448660343
 21
90.48074138517208
 31
0.0
  0
LINE
  5
663
330
2
100
AcDbEntity
  8
0
100
AcDbLine
 10
185.0193468660343
 20
91.65115138517206
 30
0.0
 11
188.8418408660343
 21
91.65115138517206
 31
0.0
  0
LINE
  5
664
330
2
100
AcDbEntity
  8
0
100
AcDbLine
 10
180.8781418660343
 20
90.48074138517208
 30
0.0
 11
181.1668378660342
 21
89.65896338517206
 31
0.0
  0
LINE
  5
665
330
2
100
AcDbEntity
  8
0
100
AcDbLine
 10
181.8318468660343
 20
89.65896338517206
 30
0.0
 11
181.8318468660343
 21
91.65115138517206
 31
0.0
  0
LINE
  5
666
330
2
100
AcDbEntity
  8
0
100
AcDbLine
 10
181.1668378660342
 20
89.65896338517206
 30
0.0
 11
181.8318468660343
 21
89.65896338517206
 31
0.0
  0
LINE
  5
667
330
2
100
AcDbEntity
  8
0
100
AcDbLine
 10
179.2171458660343
 20
90.48074138517208
 30
0.0
 11
180.8781418660343
 21
90.48074138517208
 31
0.0
  0
LINE
  5
668
330
2
100
AcDbEntity
  8
0
100
AcDbLine
 10
185.0193468660343
 20
91.65115138517206
 30
0.0
 11
185.0193468660343
 21
90.48074138517208
 31
0.0
  0
LINE
  5
669
330
2
100
AcDbEntity
  8
0
100
AcDbLine
 10
186.5881328660343
 20
90.48074138517208
 30
0.0
 11
186.5881328660343
 21
87.55448638517208
 31
0.0
  0
ARC
  5
66A
330
2
100
AcDbEntity
  8
0
100
AcDbCircle
 10
188.8418408660343
 20
89.09866038517208
 30
0.0
 40
1.557193
100
AcDbArc
 50
277.4147259999995
 51
62.41184999999949
  0
ARC
  5
66B
330
2
100
AcDbEntity
  8
0
100
AcDbCircle
 10
188.8418408660343
 20
89.09866038517208
 30
0.0
 40
2.55249
100
AcDbArc
 50
286.0181269999995
 51
90.00350999999964
  0
LINE
  5
66C
330
2
100
AcDbEntity
  8
0
100
AcDbLine
 10
186.5881328660343
 20
86.55862138517207
 30
0.0
 11
188.6286448660342
 21
86.55862138517207
 31
0.0
  0
LINE
  5
66D
330
2
100
AcDbEntity
  8
0
100
AcDbLine
 10
186.5881328660343
 20
87.55448638517208
 30
0.0
 11
189.0428448660343
 21
87.55448638517208
 31
0.0
  0
LINE
  5
66E
330
2
100
AcDbEntity
  8
0
100
AcDbLine
 10
186.5881328660343
 20
90.48074138517208
 30
0.0
 11
189.5630328660342
 21
90.47880338517206
 31
0.0
  0
LINE
  5
66F
330
2
100
AcDbEntity
  8
0
100
AcDbLine
 10
138.2720318660342
 20
132.881913385172
 30
0.0
 11
162.3514388660343
 21
149.781304385172
 31
0.0
  0
ARC
  5
670
330
2
100
AcDbEntity
  8
0
100
AcDbCircle
 10
141.1443618660342
 20
128.789269385172
 30
0.0
 40
5.0
100
AcDbArc
 50
125.0623019999999
 51
180.0
  0
CIRCLE
  5
672
330
2
100
AcDbEntity
  8
0
100
AcDbCircle
 10
178.6443468660343
 20
118.088655385172
 30
0.0
 40
20.0
  0
ARC
  5
673
330
2
100
AcDbEntity
  8
0
100
AcDbCircle
 10
178.6443468660343
 20
118.088655385172
 30
0.0
 40
7.5
100
AcDbArc
 50
19.47121000000005
 51
340.5288089999999
  0
LINE
  5
675
330
2
100
AcDbEntity
  8
0
100
AcDbLine
 10
183.1443468660343
 20
115.588655385172
 30
0.0
 11
183.1443468660343
 21
120.588655385172
 31
0.0
  0
LINE
  5
676
330
2
100
AcDbEntity
  8
0
100
AcDbLine
 10
188.1443468660343
 20
120.588655385172
 30
0.0
 11
188.1443468660343
 21
115.588655385172
 31
0.0
  0
LINE
  5
677
330
2
100
AcDbEntity
  8
0
100
AcDbLine
 10
183.1443468660343
 20
115.588655385172
 30
0.0
 11
188.1443468660343
 21
115.588655385172
 31
0.0
  0
LINE
  5
678
330
2
100
AcDbEntity
  8
0
100
AcDbLine
 10
183.1443468660343
 20
120.588655385172
 30
0.0
 11
188.1443468660343
 21
120.588655385172
 31
0.0
  0
LINE
  5
679
330
2
100
AcDbEntity
  8
0
100
AcDbLine
 10
165.2238368660342
 20
150.688653385172
 30
0.0
 11
192.0648328660343
 21
150.688653385172
 31
0.0
  0
ARC
  5
67A
330
2
100
AcDbEntity
  8
0
100
AcDbCircle
 10
165.2238368660342
 20
145.688661385172
 30
0.0
 40
5.0
100
AcDbArc
 50
90.0
 51
125.0622019999999
  0
ARC
  5
67B
330
2
100
AcDbEntity
  8
0
100
AcDbCircle
 10
192.0649398660342
 20
145.688645385172
 30
0.0
 40
5.0
100
AcDbArc
 50
54.93843100000013
 51
90.0
  0
LINE
  5
67C
330
2
100
AcDbEntity
  8
0
100
AcDbLine
 10
104.6441408660343
 20
295.4342183616486
 30
0.0
 11
139.5640168660343
 21
295.4342183616486
 31
0.0
  0
LINE
  5
67D
330
2
100
AcDbEntity
  8
0
100
AcDbLine
 10
63.64433886603433
 20
280.4342183616487
 30
0.0
 11
134.1443388660342
 21
280.4342183616487
 31
0.0
  0
LINE
  5
67E
330
2
100
AcDbEntity
  8
0
100
AcDbLine
 10
104.6443388660343
 20
341.4342183616486
 30
0.0
 11
139.5640168660343
 21
341.4342183616486
 31
0.0
  0
LINE
  5
67F
330
2
100
AcDbEntity
  8
0
100
AcDbLine
 10
134.1443388660342
 20
356.4342333616487
 30
0.0
 11
63.64433886603433
 21
356.4342333616487
 31
0.0
  0
LINE
  5
684
330
2
100
AcDbEntity
  8
0
100
AcDbLine
 10
43.64433986603432
 20
283.4342183616486
 30
0.0
 11
43.64433986603432
 21
353.4342183616486
 31
0.0
  0
LINE
  5
685
330
2
100
AcDbEntity
  8
0
100
AcDbLine
 10
43.14433986603432
 20
286.4342183616486
 30
0.0
 11
43.14433986603432
 21
350.4342183616486
 31
0.0
  0
LINE
  5
686
330
2
100
AcDbEntity
  8
0
100
AcDbLine
 10
44.51035786603426
 20
281.9342333616487
 30
0.0
 11
43.64433986603432
 21
283.4342183616486
 31
0.0
  0
LINE
  5
687
330
2
100
AcDbEntity
  8
0
100
AcDbLine
 10
43.14433986603432
 20
286.4342183616486
 30
0.0
 11
43.64433986603432
 21
285.9342183616486
 31
0.0
  0
LINE
  5
688
330
2
100
AcDbEntity
  8
0
100
AcDbLine
 10
63.64433886603433
 20
280.4342183616487
 30
0.0
 11
63.64433886603433
 21
293.4342183616486
 31
0.0
  0
LINE
  5
689
330
2
100
AcDbEntity
  8
0
100
AcDbLine
 10
45.22597586603427
 20
295.4342183616486
 30
0.0
 11
54.64423186603437
 21
295.4342183616486
 31
0.0
  0
LINE
  5
68A
330
2
100
AcDbEntity
  8
0
100
AcDbLine
 10
47.10844286603429
 20
280.4342183616487
 30
0.0
 11
63.64433886603433
 21
280.4342183616487
 31
0.0
  0
ARC
  5
68B
330
2
100
AcDbEntity
  8
0
100
AcDbCircle
 10
47.10844786603428
 20
283.4342183616486
 30
0.0
 40
3.0
100
AcDbArc
 50
209.9996030000002
 51
270.0
  0
LINE
  5
693
330
2
100
AcDbEntity
  8
0
100
AcDbLine
 10
44.51035786603426
 20
354.9342033616486
 30
0.0
 11
43.64433986603432
 21
353.4342183616486
 31
0.0
  0
LINE
  5
694
330
2
100
AcDbEntity
  8
0
100
AcDbLine
 10
43.14433986603432
 20
350.4342183616486
 30
0.0
 11
43.64433986603432
 21
350.9342183616486
 31
0.0
  0
LINE
  5
695
330
2
100
AcDbEntity
  8
0
100
AcDbLine
 10
63.64433886603433
 20
343.4342183616486
 30
0.0
 11
63.64433886603433
 21
356.4342333616487
 31
0.0
  0
LINE
  5
697
330
2
100
AcDbEntity
  8
0
100
AcDbLine
 10
45.22597586603427
 20
341.4342183616486
 30
0.0
 11
54.64423186603437
 21
341.4342183616487
 31
0.0
  0
LINE
  5
69A
330
2
100
AcDbEntity
  8
0
100
AcDbLine
 10
47.10843686603431
 20
356.4342333616487
 30
0.0
 11
63.64433886603433
 21
356.4342333616487
 31
0.0
  0
ARC
  5
69B
330
2
100
AcDbEntity
  8
0
100
AcDbCircle
 10
47.10844786603428
 20
353.4342333616486
 30
0.0
 40
3.0
100
AcDbArc
 50
90.0
 51
150.0003969999997
  0
LINE
  5
69C
330
2
100
AcDbEntity
  8
0
100
AcDbLine
 10
139.5640168660343
 20
297.4342183616487
 30
0.0
 11
139.5640168660343
 21
339.4344933616486
 31
0.0
  0
LINE
  5
69D
330
2
100
AcDbEntity
  8
0
100
AcDbLine
 10
163.6443388660342
 20
347.4691303616486
 30
0.0
 11
163.6443388660342
 21
289.3993213616486
 31
0.0
  0
LINE
  5
69E
330
2
100
AcDbEntity
  8
0
100
AcDbLine
 10
193.6443468660343
 20
347.4691303616486
 30
0.0
 11
193.6443468660343
 21
289.3993213616486
 31
0.0
  0
LINE
  5
69F
330
2
100
AcDbEntity
  8
CENTER
100
AcDbLine
 10
178.6443468660343
 20
372.4342333616486
 30
0.0
 11
178.6443468660343
 21
247.4342183616486
 31
0.0
  0
LINE
  5
6A1
330
2
100
AcDbEntity
  8
0
100
AcDbLine
 10
139.9127028660342
 20
271.4342183616486
 30
0.0
 11
171.1443468660343
 21
271.4342183616486
 31
0.0
  0
CIRCLE
  5
6A2
330
2
100
AcDbEntity
  8
0
100
AcDbCircle
 10
144.6443388660342
 20
278.4342183616486
 30
0.0
 40
3.25
  0
LINE
  5
6A4
330
2
100
AcDbEntity
  8
0
100
AcDbLine
 10
136.9131608660342
 20
274.3818653616486
 30
0.0
 11
136.6887798660342
 21
287.2383103616486
 31
0.0
  0
ARC
  5
6A5
330
2
100
AcDbEntity
  8
0
100
AcDbCircle
 10
139.9127028660342
 20
274.4342183616486
 30
0.0
 40
3.0
100
AcDbArc
 50
180.9998470000002
 51
270.0
  0
ARC
  5
6A6
330
2
100
AcDbEntity
  8
0
100
AcDbCircle
 10
138.6508388660342
 20
289.4342183616486
 30
0.0
 40
2.0
100
AcDbArc
 50
181.0000000000001
 51
270.0
  0
LINE
  5
6A7
330
2
100
AcDbEntity
  8
0
100
AcDbLine
 10
136.6510678660342
 20
289.3993213616486
 30
0.0
 11
136.5457438660342
 21
295.4342183616486
 31
0.0
  0
LINE
  5
6A8
330
2
100
AcDbEntity
  8
0
100
AcDbLine
 10
136.1443388660342
 20
282.4342183616486
 30
0.0
 11
136.1443388660342
 21
286.0820603616486
 31
0.0
  0
ARC
  5
6A9
330
2
100
AcDbEntity
  8
0
100
AcDbCircle
 10
134.1443388660342
 20
282.4342183616486
 30
0.0
 40
2.0
100
AcDbArc
 50
270.0
 51
0.0
  0
ARC
  5
6AA
330
2
100
AcDbEntity
  8
0
100
AcDbCircle
 10
137.6443388660342
 20
286.0820603616486
 30
0.0
 40
1.5
100
AcDbArc
 50
73.28735399999994
 51
180.0
  0
LINE
  5
6AB
330
2
100
AcDbEntity
  8
0
100
AcDbLine
 10
186.1443468660343
 20
278.4342183616486
 30
0.0
 11
186.1443468660343
 21
281.4342183616486
 31
0.0
  0
LINE
  5
6AC
330
2
100
AcDbEntity
  8
0
100
AcDbLine
 10
171.1443468660343
 20
254.4342183616486
 30
0.0
 11
171.1443468660343
 21
281.4342183616486
 31
0.0
  0
LINE
  5
6AD
330
2
100
AcDbEntity
  8
0
100
AcDbLine
 10
171.1443468660343
 20
254.4342183616486
 30
0.0
 11
188.1443468660343
 21
254.4342183616486
 31
0.0
  0
LINE
  5
6AE
330
2
100
AcDbEntity
  8
0
100
AcDbLine
 10
185.7153458660343
 20
278.4342183616486
 30
0.0
 11
185.7153458660343
 21
254.4342183616486
 31
0.0
  0
LINE
  5
6AF
330
2
100
AcDbEntity
  8
0
100
AcDbLine
 10
188.1443468660343
 20
278.4342183616486
 30
0.0
 11
188.1443468660343
 21
254.4342183616486
 31
0.0
  0
LINE
  5
6B0
330
2
100
AcDbEntity
  8
0
100
AcDbLine
 10
185.7153458660343
 20
278.4342183616486
 30
0.0
 11
188.1443468660343
 21
278.4342183616486
 31
0.0
  0
LINE
  5
6B1
330
2
100
AcDbEntity
  8
0
100
AcDbLine
 10
197.6443468660343
 20
283.4342183616486
 30
0.0
 11
159.6443388660342
 21
283.4342183616486
 31
0.0
  0
LINE
  5
6B2
330
2
100
AcDbEntity
  8
0
100
AcDbLine
 10
170.1443468660343
 20
281.4342183616486
 30
0.0
 11
187.1443468660343
 21
281.4342183616486
 31
0.0
  0
LINE
  5
6B3
330
2
100
AcDbEntity
  8
0
100
AcDbLine
 10
158.6443388660342
 20
284.4342183616486
 30
0.0
 11
158.6443388660342
 21
285.4398752102407
 31
0.0
  0
ARC
  5
6B4
330
2
100
AcDbEntity
  8
0
100
AcDbCircle
 10
159.6443388660342
 20
284.4342183616486
 30
0.0
 40
1.0
100
AcDbArc
 50
180.0
 51
270.0
  0
LINE
  5
6B5
330
2
100
AcDbEntity
  8
0
100
AcDbLine
 10
170.1443468660343
 20
281.4342183616486
 30
0.0
 11
170.1443468660343
 21
283.4342183616486
 31
0.0
  0
LINE
  5
6B6
330
2
100
AcDbEntity
  8
0
100
AcDbLine
 10
187.1443468660343
 20
281.4342183616486
 30
0.0
 11
187.1443468660343
 21
283.4342183616486
 31
0.0
  0
ARC
  5
6B7
330
2
100
AcDbEntity
  8
0
100
AcDbCircle
 10
197.6443468660343
 20
284.4342183616486
 30
0.0
 40
1.0
100
AcDbArc
 50
270.0
 51
0.0
  0
LINE
  5
6B8
330
2
100
AcDbEntity
  8
0
100
AcDbLine
 10
198.6443468660343
 20
284.4342183616486
 30
0.0
 11
198.6443468660343
 21
285.4342183616485
 31
0.0
  0
LINE
  5
6BA
330
2
100
AcDbEntity
  8
0
100
AcDbLine
 10
139.9127028660342
 20
365.4342333616487
 30
0.0
 11
217.3758528660342
 21
365.4342333616487
 31
0.0
  0
ARC
  5
6BC
330
2
100
AcDbEntity
  8
0
100
AcDbCircle
 10
139.9127028660342
 20
362.4342333616486
 30
0.0
 40
3.0
100
AcDbArc
 50
90.0
 51
179.0001529999997
  0
LINE
  5
6BD
330
2
100
AcDbEntity
  8
0
100
AcDbLine
 10
136.6510678660342
 20
347.4691153616486
 30
0.0
 11
136.5457438660342
 21
341.4342183616486
 31
0.0
  0
ARC
  5
6BE
330
2
100
AcDbEntity
  8
0
100
AcDbCircle
 10
138.6508388660342
 20
347.4342183616486
 30
0.0
 40
2.0
100
AcDbArc
 50
90.0
 51
178.9999999999998
  0
ARC
  5
6BF
330
2
100
AcDbEntity
  8
0
100
AcDbCircle
 10
134.1443388660342
 20
354.4342183616486
 30
0.0
 40
2.0
100
AcDbArc
 50
0.0
 51
90.0
  0
LINE
  5
6C0
330
2
100
AcDbEntity
  8
0
100
AcDbLine
 10
136.9131608660342
 20
362.4865713616486
 30
0.0
 11
136.6887798660342
 21
349.6301263616486
 31
0.0
  0
ARC
  5
6C1
330
2
100
AcDbEntity
  8
0
100
AcDbCircle
 10
137.6443388660342
 20
350.7863763616486
 30
0.0
 40
1.5
100
AcDbArc
 50
180.0
 51
286.712646
  0
LINE
  5
6C2
330
2
100
AcDbEntity
  8
0
100
AcDbLine
 10
136.1443388660342
 20
354.4342183616486
 30
0.0
 11
136.1443388660342
 21
350.7863763616486
 31
0.0
  0
CIRCLE
  5
6C3
330
2
100
AcDbEntity
  8
0
100
AcDbCircle
 10
144.6443388660342
 20
358.4342333616486
 30
0.0
 40
3.25
  0
LINE
  5
6C4
330
2
100
AcDbEntity
  8
CENTER
100
AcDbLine
 10
331.0181546261769
 20
95.78865138517207
 30
0.0
 11
421.0181546261769
 21
95.78865138517207
 31
0.0
  0
LINE
  5
6C5
330
2
100
AcDbEntity
  8
0
100
AcDbLine
 10
405.6072666261768
 20
131.388665385172
 30
0.0
 11
346.5242586261769
 21
131.388665385172
 31
0.0
  0
LINE
  5
6C6
330
2
100
AcDbEntity
  8
0
100
AcDbLine
 10
346.9832426261768
 20
150.181863385172
 30
0.0
 11
376.0181546261769
 21
150.6886613851721
 31
0.0
  0
LINE
  5
6C7
330
2
100
AcDbEntity
  8
0
100
AcDbLine
 10
423.0181546261769
 20
53.08865338517207
 30
0.0
 11
329.0181546261768
 21
53.08865338517207
 31
0.0
  0
LINE
  5
6C8
330
2
100
AcDbEntity
  8
CENTER
100
AcDbLine
 10
418.0181546261769
 20
118.088655385172
 30
0.0
 11
305.0181546261768
 21
118.088655385172
 31
0.0
  0
ARC
  5
6C9
330
2
100
AcDbEntity
  8
0
100
AcDbCircle
 10
376.0181546261769
 20
95.78865138517207
 30
0.0
 40
38.0
100
AcDbArc
 50
158.7057950000002
 51
215.3954929999994
  0
LINE
  5
6CA
330
2
100
AcDbEntity
  8
0
100
AcDbLine
 10
345.0181546261769
 20
64.08865338517208
 30
0.0
 11
345.0181546261769
 21
148.182160385172
 31
0.0
  0
LINE
  5
6CB
330
2
100
AcDbEntity
  8
0
100
AcDbLine
 10
218.6443468660343
 20
119.450051385172
 30
0.0
 11
218.6443468660343
 21
90.72751338517207
 31
0.0
  0
LINE
  5
6CC
330
2
100
AcDbEntity
  8
0
100
AcDbLine
 10
221.1443468660343
 20
128.789231385172
 30
0.0
 11
221.1443468660343
 21
53.08865338517207
 31
0.0
  0
LINE
  5
6CD
330
2
100
AcDbEntity
  8
CENTER
100
AcDbLine
 10
212.6443468660343
 20
64.5886533851721
 30
0.0
 11
212.6443468660342
 21
49.58865338517206
 31
0.0
  0
LINE
  5
6CE
330
2
100
AcDbEntity
  8
HIDS
  6
SEKKEI_H
100
AcDbLine
 10
209.3943468660343
 20
61.08865338517208
 30
0.0
 11
209.3943468660343
 21
53.08865338517207
 31
0.0
  0
LINE
  5
6CF
330
2
100
AcDbEntity
  8
HIDS
  6
SEKKEI_H
100
AcDbLine
 10
215.8943468660343
 20
61.08865338517208
 30
0.0
 11
215.8943468660343
 21
53.08865338517207
 31
0.0
  0
ARC
  5
6D0
330
2
100
AcDbEntity
  8
0
100
AcDbCircle
 10
219.1443468660343
 20
59.08864338517208
 30
0.0
 40
2.0
100
AcDbArc
 50
0.0
 51
90.0
  0
LINE
  5
6D1
330
2
100
AcDbEntity
  8
CENTER
100
AcDbLine
 10
336.0181546261768
 20
64.58865338517211
 30
0.0
 11
336.0181546261768
 21
49.58865338517205
 31
0.0
  0
LINE
  5
6D2
330
2
100
AcDbEntity
  8
0
100
AcDbLine
 10
342.0181546261768
 20
61.08865338517208
 30
0.0
 11
331.0181546261768
 21
61.08865338517208
 31
0.0
  0
LINE
  5
6D3
330
2
100
AcDbEntity
  8
0
100
AcDbLine
 10
329.0181546261768
 20
59.08865338517208
 30
0.0
 11
329.0181546261768
 21
53.08865338517207
 31
0.0
  0
ARC
  5
6D4
330
2
100
AcDbEntity
  8
0
100
AcDbCircle
 10
331.0181546261768
 20
59.08864338517208
 30
0.0
 40
2.0
100
AcDbArc
 50
90.0
 51
180.0
  0
ARC
  5
6D5
330
2
100
AcDbEntity
  8
0
100
AcDbCircle
 10
342.0181546261768
 20
64.08864338517208
 30
0.0
 40
3.0
100
AcDbArc
 50
270.0
 51
0.0
  0
LINE
  5
6D6
330
2
100
AcDbEntity
  8
HIDS
  6
SEKKEI_H
100
AcDbLine
 10
332.7681546261768
 20
61.08865338517208
 30
0.0
 11
332.7681546261768
 21
53.08865338517207
 31
0.0
  0
LINE
  5
6D7
330
2
100
AcDbEntity
  8
HIDS
  6
SEKKEI_H
100
AcDbLine
 10
339.2681546261768
 20
61.08865338517208
 30
0.0
 11
339.2681546261768
 21
53.08865338517207
 31
0.0
  0
ARC
  5
6D8
330
2
100
AcDbEntity
  8
0
100
AcDbCircle
 10
216.1443468660343
 20
128.789231385172
 30
0.0
 40
5.0
100
AcDbArc
 50
0.0
 51
54.93836999999954
  0
LINE
  5
6D9
330
2
100
AcDbEntity
  8
0
100
AcDbLine
 10
312.0181546261768
 20
115.588655385172
 30
0.0
 11
333.5181546261768
 21
115.588655385172
 31
0.0
  0
LINE
  5
6DA
330
2
100
AcDbEntity
  8
0
100
AcDbLine
 10
312.0181546261768
 20
120.588655385172
 30
0.0
 11
333.5181546261768
 21
120.588655385172
 31
0.0
  0
LINE
  5
6DB
330
2
100
AcDbEntity
  8
0
100
AcDbLine
 10
312.0181546261768
 20
110.588655385172
 30
0.0
 11
339.0181546261768
 21
110.588655385172
 31
0.0
  0
LINE
  5
6DC
330
2
100
AcDbEntity
  8
0
100
AcDbLine
 10
312.0181546261768
 20
125.588655385172
 30
0.0
 11
339.0181546261768
 21
125.588655385172
 31
0.0
  0
LINE
  5
6DD
330
2
100
AcDbEntity
  8
0
100
AcDbLine
 10
312.0181546261768
 20
125.588655385172
 30
0.0
 11
312.0181546261768
 21
110.588655385172
 31
0.0
  0
ARC
  5
6DE
330
2
100
AcDbEntity
  8
0
100
AcDbCircle
 10
333.5181546261768
 20
118.088655385172
 30
0.0
 40
2.5
100
AcDbArc
 50
270.0
 51
0.0
  0
LINE
  5
6DF
330
2
100
AcDbEntity
  8
0
100
AcDbLine
 10
339.0181546261768
 20
126.588655385172
 30
0.0
 11
339.0181546261768
 21
109.588655385172
 31
0.0
  0
LINE
  5
6E0
330
2
100
AcDbEntity
  8
0
100
AcDbLine
 10
341.0181546261768
 20
99.08865138517207
 30
0.0
 11
341.0181546261768
 21
137.088655385172
 31
0.0
  0
ARC
  5
6E1
330
2
100
AcDbEntity
  8
0
100
AcDbCircle
 10
342.0181546261768
 20
99.08865138517207
 30
0.0
 40
1.0
100
AcDbArc
 50
180.0
 51
270.0
  0
LINE
  5
6E2
330
2
100
AcDbEntity
  8
0
100
AcDbLine
 10
342.0181546261768
 20
98.08865138517205
 30
0.0
 11
343.0221546241718
 21
98.08865138517205
 31
0.0
  0
LINE
  5
6E3
330
2
100
AcDbEntity
  8
0
100
AcDbLine
 10
339.0181546261768
 20
109.588655385172
 30
0.0
 11
341.0181546261768
 21
109.588655385172
 31
0.0
  0
ARC
  5
6E4
330
2
100
AcDbEntity
  8
0
100
AcDbCircle
 10
333.5181546261768
 20
118.088639385172
 30
0.0
 40
2.5
100
AcDbArc
 50
0.0
 51
90.0
  0
LINE
  5
6E5
330
2
100
AcDbEntity
  8
0
100
AcDbLine
 10
339.0181546261768
 20
126.588655385172
 30
0.0
 11
341.0181546261768
 21
126.588655385172
 31
0.0
  0
ARC
  5
6E6
330
2
100
AcDbEntity
  8
0
100
AcDbCircle
 10
342.0181546261768
 20
137.088655385172
 30
0.0
 40
1.0
100
AcDbArc
 50
90.0
 51
180.0
  0
LINE
  5
6E7
330
2
100
AcDbEntity
  8
0
100
AcDbLine
 10
342.0181546261768
 20
138.088655385172
 30
0.0
 11
343.0181546261768
 21
138.088655385172
 31
0.0
  0
ARC
  5
6E8
330
2
100
AcDbEntity
  8
0
100
AcDbCircle
 10
347.0181546261769
 20
148.182160385172
 30
0.0
 40
2.0
100
AcDbArc
 50
90.99986299999994
 51
180.0
  0
ARC
  5
6E9
330
2
100
AcDbEntity
  8
0
100
AcDbCircle
 10
376.0181546261769
 20
95.78865138517207
 30
0.0
 40
38.0
100
AcDbArc
 50
324.6655999999999
 51
22.91949100000018
  0
LINE
  5
6EA
330
2
100
AcDbEntity
  8
0
100
AcDbLine
 10
407.0181546261768
 20
64.08865338517208
 30
0.0
 11
407.0181546261768
 21
148.182054385172
 31
0.0
  0
LINE
  5
6EB
330
2
100
AcDbEntity
  8
CENTER
100
AcDbLine
 10
376.0181546261769
 20
46.08865338517211
 30
0.0
 11
376.0181546261769
 21
171.676149385172
 31
0.0
  0
LINE
  5
6EC
330
2
100
AcDbEntity
  8
0
100
AcDbLine
 10
410.0181546261769
 20
61.08865338517208
 30
0.0
 11
421.0181546261769
 21
61.08865338517208
 31
0.0
  0
ARC
  5
6ED
330
2
100
AcDbEntity
  8
0
100
AcDbCircle
 10
410.0181546261769
 20
64.08865338517208
 30
0.0
 40
3.0
100
AcDbArc
 50
180.0
 51
270.0
  0
LINE
  5
6EE
330
2
100
AcDbEntity
  8
CENTER
100
AcDbLine
 10
416.0181546261769
 20
64.58865338517208
 30
0.0
 11
416.0181546261767
 21
49.58865338517208
 31
0.0
  0
LINE
  5
6EF
330
2
100
AcDbEntity
  8
HIDS
  6
SEKKEI_H
100
AcDbLine
 10
419.2681546261769
 20
61.08865338517208
 30
0.0
 11
419.2681546261769
 21
53.08865338517207
 31
0.0
  0
LINE
  5
6F0
330
2
100
AcDbEntity
  8
HIDS
  6
SEKKEI_H
100
AcDbLine
 10
412.7681546261769
 20
61.08865338517208
 30
0.0
 11
412.7681546261769
 21
53.08865338517207
 31
0.0
  0
LINE
  5
6F1
330
2
100
AcDbEntity
  8
0
100
AcDbLine
 10
423.0181546261769
 20
59.08865338517208
 30
0.0
 11
423.0181546261769
 21
53.08865338517207
 31
0.0
  0
ARC
  5
6F2
330
2
100
AcDbEntity
  8
0
100
AcDbCircle
 10
421.0181546261769
 20
59.08866338517208
 30
0.0
 40
2.0
100
AcDbArc
 50
0.0
 51
90.0
  0
LINE
  5
6F3
330
2
100
AcDbEntity
  8
0
100
AcDbLine
 10
411.0181546261769
 20
99.08865138517207
 30
0.0
 11
411.0181546261769
 21
137.088655385172
 31
0.0
  0
LINE
  5
6F4
330
2
100
AcDbEntity
  8
0
100
AcDbLine
 10
410.0181546261769
 20
98.08865138517205
 30
0.0
 11
409.014154628182
 21
98.08865138517205
 31
0.0
  0
ARC
  5
6F5
330
2
100
AcDbEntity
  8
0
100
AcDbCircle
 10
410.0181546261769
 20
99.08865138517207
 30
0.0
 40
1.0
100
AcDbArc
 50
270.0
 51
0.0
  0
LINE
  5
6F6
330
2
100
AcDbEntity
  8
0
100
AcDbLine
 10
410.0181546261769
 20
138.088655385172
 30
0.0
 11
409.0181546261771
 21
138.088655385172
 31
0.0
  0
ARC
  5
6F7
330
2
100
AcDbEntity
  8
0
100
AcDbCircle
 10
410.0181546261769
 20
137.088655385172
 30
0.0
 40
1.0
100
AcDbArc
 50
0.0
 51
90.0
  0
LINE
  5
6F8
330
2
100
AcDbEntity
  8
0
100
AcDbLine
 10
405.0530676261768
 20
150.1817563851721
 30
0.0
 11
376.0181546261769
 21
150.6886613851721
 31
0.0
  0
ARC
  5
6F9
330
2
100
AcDbEntity
  8
0
100
AcDbCircle
 10
405.0181546261769
 20
148.182061385172
 30
0.0
 40
2.0
100
AcDbArc
 50
0.0
 51
88.99935899999954
  0
LINE
  5
6FB
330
2
100
AcDbEntity
  8
0
100
AcDbLine
 10
220.3754108660342
 20
362.4865713616486
 30
0.0
 11
221.1443468660343
 21
318.4342183616486
 31
0.0
  0
CIRCLE
  5
6FC
330
2
100
AcDbEntity
  8
0
100
AcDbCircle
 10
212.6443468660343
 20
278.4342183616486
 30
0.0
 40
3.25
  0
LINE
  5
6FE
330
2
100
AcDbEntity
  8
0
100
AcDbLine
 10
220.3754108660342
 20
274.3818653616486
 30
0.0
 11
221.1443468660343
 21
318.4342183616486
 31
0.0
  0
ARC
  5
6FF
330
2
100
AcDbEntity
  8
0
100
AcDbCircle
 10
217.3758528660342
 20
274.4342183616486
 30
0.0
 40
3.0
100
AcDbArc
 50
270.0
 51
358.9999999999998
  0
ARC
  5
700
330
2
100
AcDbEntity
  8
0
100
AcDbCircle
 10
218.6378308660342
 20
289.4342183616486
 30
0.0
 40
2.0
100
AcDbArc
 50
270.0
 51
358.9999999999998
  0
LINE
  5
701
330
2
100
AcDbEntity
  8
CENTER
100
AcDbLine
 10
212.6443468660343
 20
364.3201531618361
 30
0.0
 11
212.6443468660343
 21
352.5483135614612
 31
0.0
  0
ARC
  5
702
330
2
100
AcDbEntity
  8
0
100
AcDbCircle
 10
217.3758528660342
 20
362.4342333616486
 30
0.0
 40
3.0
100
AcDbArc
 50
1.000000000000147
 51
90.0
  0
ARC
  5
703
330
2
100
AcDbEntity
  8
0
100
AcDbCircle
 10
218.6378308660342
 20
347.4342183616486
 30
0.0
 40
2.0
100
AcDbArc
 50
1.000000000000147
 51
90.0
  0
CIRCLE
  5
704
330
2
100
AcDbEntity
  8
0
100
AcDbCircle
 10
212.6443468660343
 20
358.4342333616486
 30
0.0
 40
3.25
  0
LINE
  5
835
330
2
100
AcDbEntity
  8
CENTER
100
AcDbLine
 10
144.6443388660342
 20
364.3201531618361
 30
0.0
 11
144.6443388660342
 21
352.5483135614612
 31
0.0
  0
LINE
  5
836
330
2
100
AcDbEntity
  8
CENTER
100
AcDbLine
 10
138.7584190658468
 20
358.4342333616486
 30
0.0
 11
150.5302586662217
 21
358.4342333616486
 31
0.0
  0
LINE
  5
837
330
2
100
AcDbEntity
  8
CENTER
100
AcDbLine
 10
144.6443388660342
 20
284.3201381618361
 30
0.0
 11
144.6443388660342
 21
272.5482985614612
 31
0.0
  0
LINE
  5
838
330
2
100
AcDbEntity
  8
CENTER
100
AcDbLine
 10
138.7584190658468
 20
278.4342183616486
 30
0.0
 11
150.5302586662217
 21
278.4342183616486
 31
0.0
  0
LINE
  5
839
330
2
100
AcDbEntity
  8
CENTER
100
AcDbLine
 10
212.6443468660343
 20
284.3201381618361
 30
0.0
 11
212.6443468660343
 21
272.5482985614612
 31
0.0
  0
LINE
  5
83A
330
2
100
AcDbEntity
  8
CENTER
100
AcDbLine
 10
206.7584270658468
 20
278.4342183616486
 30
0.0
 11
218.5302666662217
 21
278.4342183616486
 31
0.0
  0
TEXT
  5
84D
330
2
100
AcDbEntity
  8
TITLE
100
AcDbText
 10
251.351351076541
 20
295.8209794766136
 30
0.0
 40
5.0
  1
HLM-15R-10~120-T40T
 41
0.8
100
AcDbText
  0
TEXT
  5
84E
330
2
100
AcDbEntity
  8
TITLE
100
AcDbText
 10
251.351351076541
 20
303.8209794766136
 30
0.0
 40
5.0
  1
HLM-15R-10~240-T25WT
 41
0.8
100
AcDbText
  0
TEXT
  5
84F
330
2
100
AcDbEntity
  8
TITLE
100
AcDbText
 10
251.351351076541
 20
311.8209794766136
 30
0.0
 40
5.0
  1
HLM-15R-10~240-T25T
 41
0.8
100
AcDbText
  0
TEXT
  5
850
330
2
100
AcDbEntity
  8
TITLE
100
AcDbText
 10
251.351351076541
 20
327.8209794766136
 30
0.0
 40
5.0
  1
HLM-15R-10~240-T15T
 41
0.8
100
AcDbText
  0
TEXT
  5
851
330
2
100
AcDbEntity
  8
TITLE
100
AcDbText
 10
251.351351076541
 20
319.8209794766136
 30
0.0
 40
5.0
  1
HLM-15R-10~240-T15WT
 41
0.8
100
AcDbText
  0
TEXT
  5
852
330
2
100
AcDbEntity
  8
TITLE
100
AcDbText
 10
337.9249811472641
 20
319.8209794766136
 30
0.0
 40
5.0
  1
HLM-15R-10~240-S15WT
 41
0.8
100
AcDbText
  0
TEXT
  5
853
330
2
100
AcDbEntity
  8
TITLE
100
AcDbText
 10
337.9249811472641
 20
303.8209794766136
 30
0.0
 40
5.0
  1
HLM-15R-10~240-S25WT
 41
0.8
100
AcDbText
  0
TEXT
  5
854
330
2
100
AcDbEntity
  8
TITLE
100
AcDbText
 10
337.9249811472641
 20
311.8209794766136
 30
0.0
 40
5.0
  1
HLM-15R-10~240-S25T
 41
0.8
100
AcDbText
  0
TEXT
  5
855
330
2
100
AcDbEntity
  8
TITLE
100
AcDbText
 10
337.9249811472641
 20
327.8209794766136
 30
0.0
 40
5.0
  1
HLM-15R-10~240-S15T
 41
0.8
100
AcDbText
  0
LINE
  5
17A1
330
2
100
AcDbEntity
  8
0
100
AcDbLine
 10
352.0181546261769
 20
166.2886493851721
 30
0.0
 11
396.1802458101508
 21
166.288649385172
 31
0.0
  0
LINE
  5
17A2
330
2
100
AcDbEntity
  8
0
100
AcDbLine
 10
351.0181546261769
 20
165.2886493851721
 30
0.0
 11
393.518139626177
 21
165.2886493851721
 31
0.0
  0
LINE
  5
17A3
330
2
100
AcDbEntity
  8
CENTER
100
AcDbLine
 10
345.9745476449684
 20
156.7886493851721
 30
0.0
 11
406.0617616073854
 21
156.7886493851721
 31
0.0
  0
LINE
  5
17CD
330
2
100
AcDbEntity
  8
0
100
AcDbLine
 10
351.0181546261769
 20
165.2886493851721
 30
0.0
 11
351.0181546261769
 21
150.2522918862736
 31
0.0
  0
LINE
  5
17CE
330
2
100
AcDbEntity
  8
0
100
AcDbLine
 10
49.14433186603435
 20
152.788649385172
 30
0.0
 11
52.64433186603435
 21
151.288649385172
 31
0.0
  0
LINE
  5
17CF
330
2
100
AcDbEntity
  8
CENTER
100
AcDbLine
 10
79.64433886603433
 20
130.594950385172
 30
0.0
 11
79.64433886603433
 21
171.676149385172
 31
0.0
  0
LINE
  5
17D0
330
2
100
AcDbEntity
  8
0
100
AcDbLine
 10
54.64433186603435
 20
165.288649385172
 30
0.0
 11
54.64433186603435
 21
137.288651385172
 31
0.0
  0
LINE
  5
17D1
330
2
100
AcDbEntity
  8
0
100
AcDbLine
 10
52.64434686603431
 20
163.288649385172
 30
0.0
 11
52.64433186603435
 21
147.288651385172
 31
0.0
  0
LINE
  5
17D3
330
2
100
AcDbEntity
  8
0
100
AcDbLine
 10
104.6443388660343
 20
165.288649385172
 30
0.0
 11
104.6443388660343
 21
137.288651385172
 31
0.0
  0
LINE
  5
17D4
330
2
100
AcDbEntity
  8
0
100
AcDbLine
 10
56.14433186603434
 20
135.288651385172
 30
0.0
 11
102.6443388660343
 21
135.288651385172
 31
0.0
  0
LINE
  5
17D5
330
2
100
AcDbEntity
  8
0
100
AcDbLine
 10
52.64433186603435
 20
147.288651385172
 30
0.0
 11
104.6443388660343
 21
147.288651385172
 31
0.0
  0
LINE
  5
17D6
330
2
100
AcDbEntity
  8
0
100
AcDbLine
 10
54.64433186603435
 20
137.288651385172
 30
0.0
 11
104.6443388660343
 21
137.288651385172
 31
0.0
  0
LINE
  5
17D9
330
2
100
AcDbEntity
  8
0
100
AcDbLine
 10
54.64433186603435
 20
137.288651385172
 30
0.0
 11
56.64433186603435
 21
135.288651385172
 31
0.0
  0
LINE
  5
17DA
330
2
100
AcDbEntity
  8
0
100
AcDbLine
 10
56.14433186603434
 20
135.288651385172
 30
0.0
 11
56.14433186603434
 21
133.788651385172
 31
0.0
  0
LINE
  5
17DB
330
2
100
AcDbEntity
  8
0
100
AcDbLine
 10
102.6443388660343
 20
135.288651385172
 30
0.0
 11
104.6443388660343
 21
137.288651385172
 31
0.0
  0
LINE
  5
17DC
330
2
100
AcDbEntity
  8
0
100
AcDbLine
 10
102.1443388660343
 20
135.288651385172
 30
0.0
 11
102.1443388660343
 21
133.788651385172
 31
0.0
  0
LINE
  5
17E0
330
2
100
AcDbEntity
  8
0
100
AcDbLine
 10
59.48224768205989
 20
166.288649385172
 30
0.0
 11
103.6443388660343
 21
166.288649385172
 31
0.0
  0
LINE
  5
17E1
330
2
100
AcDbEntity
  8
0
100
AcDbLine
 10
62.14433229460531
 20
165.288649385172
 30
0.0
 11
104.6443458660344
 21
165.288649385172
 31
0.0
  0
LINE
  5
17E2
330
2
100
AcDbEntity
  8
CENTER
100
AcDbLine
 10
46.70058286603432
 20
156.788649385172
 30
0.0
 11
108.5966418297724
 21
156.788649385172
 31
0.0
  0
ARC
  5
17E3
330
2
100
AcDbEntity
  8
0
100
AcDbCircle
 10
58.14433886603445
 20
157.3886493851719
 30
0.0
 40
9.0
100
AcDbArc
 50
74.11914999171883
 51
105.8808500082811
  0
LINE
  5
17E4
330
2
100
AcDbEntity
  8
0
100
AcDbLine
 10
49.14434686603431
 20
160.788649385172
 30
0.0
 11
49.14434686603431
 21
152.788649385172
 31
0.0
  0
LINE
  5
17E5
330
2
100
AcDbEntity
  8
0
100
AcDbLine
 10
55.64433186603435
 20
166.288649385172
 30
0.0
 11
56.806430050009
 21
166.288649385172
 31
0.0
  0
ARC
  5
17E6
330
2
100
AcDbEntity
  8
0
100
AcDbCircle
 10
56.0373281124414
 20
164.7947621094183
 30
0.0
 40
1.3
100
AcDbArc
 50
105.8808500082811
 51
175.0000000000002
  0
LINE
  5
17E7
330
2
100
AcDbEntity
  8
0
100
AcDbLine
 10
62.14433229460531
 20
163.7886493851719
 30
0.0
 11
54.64433229460531
 21
163.788649385172
 31
0.0
  0
LINE
  5
17E8
330
2
100
AcDbEntity
  8
0
100
AcDbLine
 10
55.6443322946053
 20
166.2886493851719
 30
0.0
 11
54.64433186603435
 21
165.288649385172
 31
0.0
  0
LINE
  5
17E9
330
2
100
AcDbEntity
  8
0
100
AcDbLine
 10
54.64433186603435
 20
165.288649385172
 30
0.0
 11
55.64433186603435
 21
166.288649385172
 31
0.0
  0
LINE
  5
17EA
330
2
100
AcDbEntity
  8
0
100
AcDbLine
 10
49.14434686603431
 20
160.788649385172
 30
0.0
 11
52.64434686603431
 21
162.288649385172
 31
0.0
  0
ARC
  5
17EB
330
2
100
AcDbEntity
  8
0
100
AcDbCircle
 10
53.64434686603431
 20
163.288649385172
 30
0.0
 40
1.0
100
AcDbArc
 50
90.0
 51
180.0
  0
LINE
  5
17EC
330
2
100
AcDbEntity
  8
0
100
AcDbLine
 10
53.64433186603434
 20
164.288649385172
 30
0.0
 11
54.64433186603435
 21
164.288649385172
 31
0.0
  0
LINE
  5
17ED
330
2
100
AcDbEntity
  8
0
100
AcDbLine
 10
54.64433886603444
 20
163.788649385172
 30
0.0
 11
54.74227500492225
 21
164.9080645749902
 31
0.0
  0
ARC
  5
17EE
330
2
100
AcDbEntity
  8
0
100
AcDbCircle
 10
60.25134961962726
 20
164.7947621094183
 30
0.0
 40
1.3
100
AcDbArc
 50
4.999999999999743
 51
74.11914999171883
  0
LINE
  5
17EF
330
2
100
AcDbEntity
  8
0
100
AcDbLine
 10
62.14433229460531
 20
165.7886493851719
 30
0.0
 11
61.08931625565458
 21
165.7886493851719
 31
0.0
  0
SPLINE
  5
17F0
330
2
100
AcDbEntity
  8
0
100
AcDbSpline
210
0.0
220
0.0
230
1.0
 70
     8
 71
     3
 72
    11
 73
     7
 74
     0
 42
0.0000000001
 43
0.0000000001
 40
0.0
 40
0.0
 40
0.0
 40
0.0
 40
0.4601364636755307
 40
1.04988694485363
 40
1.713742833862792
 40
2.320347933405154
 40
2.320347933405154
 40
2.320347933405154
 40
2.320347933405179
 10
57.85683886557944
 20
164.8716493851719
 30
0.0
 10
57.83442120847155
 20
165.0266728248518
 30
0.0
 10
57.78327115323827
 20
165.3803876427694
 30
0.0
 10
57.34738599170464
 20
165.805115314371
 30
0.0
 10
56.74233527669731
 20
166.0243024943369
 30
0.0
 10
56.31715065252137
 20
165.9553111947262
 30
0.0
 10
56.11459904287039
 20
165.9410909225496
 30
0.0
  0
LINE
  5
17F1
330
2
100
AcDbEntity
  8
0
100
AcDbLine
 10
56.11459904287039
 20
165.9410909225496
 30
0.0
 11
56.09433886603437
 21
166.1520676680112
 31
0.0
  0
LINE
  5
17F2
330
2
100
AcDbEntity
  8
0
100
AcDbLine
 10
60.1740786891985
 20
165.9410909225496
 30
0.0
 11
60.19433886603451
 21
166.1520676680112
 31
0.0
  0
LINE
  5
17F3
330
2
100
AcDbEntity
  8
0
100
AcDbLine
 10
58.43183886648944
 20
164.8716493851719
 30
0.0
 11
57.85683886557944
 21
164.8716493851719
 31
0.0
  0
SPLINE
  5
17F4
330
2
100
AcDbEntity
  8
0
100
AcDbSpline
210
0.0
220
0.0
230
1.0
 70
     8
 71
     3
 72
    11
 73
     7
 74
     0
 42
0.0000000001
 43
0.0000000001
 40
0.0
 40
0.0
 40
0.0
 40
0.0
 40
0.4601364636755307
 40
1.04988694485363
 40
1.713742833862792
 40
2.320347933405154
 40
2.320347933405154
 40
2.320347933405154
 40
2.320347933405179
 10
58.43183886648944
 20
164.8716493851719
 30
0.0
 10
58.45425652359733
 20
165.0266728248518
 30
0.0
 10
58.50540657883062
 20
165.3803876427694
 30
0.0
 10
58.94129174036425
 20
165.805115314371
 30
0.0
 10
59.54634245537159
 20
166.0243024943369
 30
0.0
 10
59.97152707954751
 20
165.9553111947262
 30
0.0
 10
60.1740786891985
 20
165.9410909225496
 30
0.0
  0
LINE
  5
17F5
330
2
100
AcDbEntity
  8
0
100
AcDbLine
 10
61.64433886603433
 20
163.788649385172
 30
0.0
 11
61.54640272714653
 21
164.9080645749902
 31
0.0
  0
LINE
  5
17F6
330
2
100
AcDbEntity
  8
0
100
AcDbLine
 10
62.14433229460531
 20
163.7886493851719
 30
0.0
 11
62.14433229460531
 21
165.788649385172
 31
0.0
  0
LINE
  5
17F7
330
2
100
AcDbEntity
  8
0
100
AcDbLine
 10
62.6443322946053
 20
166.2886493851719
 30
0.0
 11
62.14433229460531
 21
165.7886493851719
 31
0.0
  0
LINE
  5
17F8
330
2
100
AcDbEntity
  8
0
100
AcDbLine
 10
103.6443458660344
 20
166.288649385172
 30
0.0
 11
104.6443458660344
 21
165.288649385172
 31
0.0
  0
LINE
  5
17F9
330
2
100
AcDbEntity
  8
0
100
AcDbLine
 10
352.0181546261769
 20
166.2886493851721
 30
0.0
 11
351.0181546261769
 21
165.2886493851721
 31
0.0
  0
CIRCLE
  5
17FB
330
2
100
AcDbEntity
  8
0
100
AcDbCircle
 10
101.1444308660343
 20
339.9342183616486
 30
0.0
 40
3.500000000000028
  0
ARC
  5
17FC
330
2
100
AcDbEntity
  8
0
100
AcDbCircle
 10
101.1444308660343
 20
339.9342183616486
 30
0.0
 40
4.0
100
AcDbArc
 50
180.0
 51
270.0
  0
LINE
  5
17FD
330
2
100
AcDbEntity
  8
0
100
AcDbLine
 10
104.6442318660343
 20
341.4342183616486
 30
0.0
 11
104.6442318660342
 21
295.4342183616486
 31
0.0
  0
LINE
  5
17FE
330
2
100
AcDbEntity
  8
0
100
AcDbLine
 10
54.64433186603435
 20
341.4342183616486
 30
0.0
 11
54.64433186603435
 21
295.4342183616486
 31
0.0
  0
LINE
  5
17FF
330
2
100
AcDbEntity
  8
0
100
AcDbLine
 10
56.04432586603434
 20
341.0342093616486
 30
0.0
 11
56.04433286603432
 21
300.9342183616486
 31
0.0
  0
LINE
  5
1800
330
2
100
AcDbEntity
  8
CENTER
100
AcDbLine
 10
79.64433886603433
 20
348.8234443057564
 30
0.0
 11
79.64433886603433
 21
287.6842183616486
 31
0.0
  0
LINE
  5
1801
330
2
100
AcDbEntity
  8
0
100
AcDbLine
 10
102.2444368660343
 20
294.8342123616486
 30
0.0
 11
62.14433186603435
 21
294.8342123616486
 31
0.0
  0
LINE
  5
1802
330
2
100
AcDbEntity
  8
0
100
AcDbLine
 10
56.64433186603435
 20
293.4342183616486
 30
0.0
 11
102.6442318660342
 21
293.4342183616486
 31
0.0
  0
ARC
  5
1804
330
2
100
AcDbEntity
  8
0
100
AcDbCircle
 10
58.14436186603427
 20
296.9342183616486
 30
0.0
 40
4.0
100
AcDbArc
 50
0.0
 51
90.0
  0
LINE
  5
1805
330
2
100
AcDbEntity
  8
0
100
AcDbLine
 10
54.64433186603435
 20
295.4342183616486
 30
0.0
 11
56.64433186603435
 21
293.4342183616486
 31
0.0
  0
LINE
  5
1806
330
2
100
AcDbEntity
  8
0
100
AcDbLine
 10
54.64433186603435
 20
295.4342183616486
 30
0.0
 11
56.64433186603435
 21
293.4342183616486
 31
0.0
  0
CIRCLE
  5
1807
330
2
100
AcDbEntity
  8
0
100
AcDbCircle
 10
58.14436186603427
 20
296.9342183616486
 30
0.0
 40
3.500000000000028
  0
ARC
  5
1808
330
2
100
AcDbEntity
  8
0
100
AcDbCircle
 10
56.11466186603434
 20
298.9639183616485
 30
0.0
 40
1.742199999999999
100
AcDbArc
 50
269.9986903345002
 51
0.0013096654997424
  0
ARC
  5
1809
330
2
100
AcDbEntity
  8
0
100
AcDbCircle
 10
56.11466186603434
 20
294.9045183616486
 30
0.0
 40
1.742199999999999
100
AcDbArc
 50
359.9986903345002
 51
90.00130966549649
  0
ARC
  5
180A
330
2
100
AcDbEntity
  8
0
100
AcDbCircle
 10
58.14436186603427
 20
296.9342183616486
 30
0.0
 40
2.049999999999998
100
AcDbArc
 50
180.0
 51
188.0619600839821
  0
ARC
  5
180B
330
2
100
AcDbEntity
  8
0
100
AcDbCircle
 10
58.14436186603427
 20
296.9342183616486
 30
0.0
 40
2.049999999999998
100
AcDbArc
 50
171.9380399160178
 51
180.0
  0
ARC
  5
180C
330
2
100
AcDbEntity
  8
0
100
AcDbCircle
 10
60.17406186603444
 20
298.9639183616485
 30
0.0
 40
1.742199999999999
100
AcDbArc
 50
179.9986903345002
 51
270.0013096654964
  0
ARC
  5
180D
330
2
100
AcDbEntity
  8
0
100
AcDbCircle
 10
58.14436186603427
 20
296.9342183616486
 30
0.0
 40
2.049999999999998
100
AcDbArc
 50
351.9380399160179
 51
0.0
  0
ARC
  5
180E
330
2
100
AcDbEntity
  8
0
100
AcDbCircle
 10
60.17406186603444
 20
294.9045183616486
 30
0.0
 40
1.742199999999999
100
AcDbArc
 50
89.9986903345035
 51
180.0013096654997
  0
ARC
  5
180F
330
2
100
AcDbEntity
  8
0
100
AcDbCircle
 10
58.14436186603427
 20
296.9342183616486
 30
0.0
 40
2.049999999999998
100
AcDbArc
 50
81.93803991601813
 51
90.0
  0
ARC
  5
1810
330
2
100
AcDbEntity
  8
0
100
AcDbCircle
 10
58.14436186603427
 20
296.9342183616486
 30
0.0
 40
2.049999999999998
100
AcDbArc
 50
0.0
 51
8.061960083982105
  0
ARC
  5
1811
330
2
100
AcDbEntity
  8
0
100
AcDbCircle
 10
58.14436186603427
 20
296.9342183616486
 30
0.0
 40
2.049999999999998
100
AcDbArc
 50
90.0
 51
98.06196008398188
  0
ARC
  5
1812
330
2
100
AcDbEntity
  8
0
100
AcDbCircle
 10
58.14436186603427
 20
296.9342183616486
 30
0.0
 40
2.049999999999998
100
AcDbArc
 50
270.0
 51
278.0619600839818
  0
ARC
  5
1813
330
2
100
AcDbEntity
  8
0
100
AcDbCircle
 10
58.14436186603427
 20
296.9342183616486
 30
0.0
 40
2.049999999999998
100
AcDbArc
 50
261.9380399160181
 51
270.0
  0
LINE
  5
1814
330
2
100
AcDbEntity
  8
0
100
AcDbLine
 10
62.14433186603435
 20
296.9342183616486
 30
0.0
 11
62.14433186603435
 21
293.4344173616486
 31
0.0
  0
LINE
  5
1815
330
2
100
AcDbEntity
  8
0
100
AcDbLine
 10
58.14436186603439
 20
300.9342183616486
 30
0.0
 11
54.64436186603439
 21
300.9342183616486
 31
0.0
  0
LINE
  5
1816
330
2
100
AcDbEntity
  8
0
100
AcDbLine
 10
49.14433186603435
 20
320.4342183616486
 30
0.0
 11
52.64433186603435
 21
323.9342183616486
 31
0.0
  0
LINE
  5
1817
330
2
100
AcDbEntity
  8
0
100
AcDbLine
 10
52.64433186603435
 20
311.9342183616486
 30
0.0
 11
52.64433186603435
 21
324.9342183616486
 31
0.0
  0
LINE
  5
1818
330
2
100
AcDbEntity
  8
0
100
AcDbLine
 10
52.64433186603435
 20
312.9342183616486
 30
0.0
 11
49.14433186603435
 21
316.4342183616486
 31
0.0
  0
ARC
  5
1819
330
2
100
AcDbEntity
  8
0
100
AcDbCircle
 10
53.64433186603424
 20
311.9342183616486
 30
0.0
 40
1.0
100
AcDbArc
 50
180.0
 51
270.0
  0
LINE
  5
181A
330
2
100
AcDbEntity
  8
0
100
AcDbLine
 10
53.64433186603434
 20
310.9342183616486
 30
0.0
 11
54.64433186603435
 21
310.9342183616486
 31
0.0
  0
LINE
  5
181B
330
2
100
AcDbEntity
  8
0
100
AcDbLine
 10
49.14433186603435
 20
320.4342183616486
 30
0.0
 11
49.14433186603435
 21
316.4342183616486
 31
0.0
  0
ARC
  5
181C
330
2
100
AcDbEntity
  8
0
100
AcDbCircle
 10
53.64434686603431
 20
324.9342183616486
 30
0.0
 40
1.0
100
AcDbArc
 50
90.0
 51
180.0
  0
LINE
  5
181D
330
2
100
AcDbEntity
  8
0
100
AcDbLine
 10
53.64433186603434
 20
325.9342183616486
 30
0.0
 11
54.64433186603435
 21
325.9342183616486
 31
0.0
  0
LINE
  5
181E
330
2
100
AcDbEntity
  8
0
100
AcDbLine
 10
103.2444368660343
 20
295.8342123616486
 30
0.0
 11
103.2444368660343
 21
335.9342183616486
 31
0.0
  0
LINE
  5
181F
330
2
100
AcDbEntity
  8
0
100
AcDbLine
 10
104.6444308660343
 20
295.4342183616486
 30
0.0
 11
102.6442318660342
 21
293.4342183616486
 31
0.0
  0
LINE
  5
1820
330
2
100
AcDbEntity
  8
0
100
AcDbLine
 10
104.6442318660342
 20
295.4342183616486
 30
0.0
 11
102.6442318660342
 21
293.4342183616486
 31
0.0
  0
LINE
  5
1821
330
2
100
AcDbEntity
  8
0
100
AcDbLine
 10
104.6442318660342
 20
295.4342183616486
 30
0.0
 11
102.6442318660342
 21
293.4342183616486
 31
0.0
  0
LINE
  5
1822
330
2
100
AcDbEntity
  8
0
100
AcDbLine
 10
102.2444368660343
 20
294.8342123616486
 30
0.0
 11
103.2444368660343
 21
295.8342123616486
 31
0.0
  0
LINE
  5
1823
330
2
100
AcDbEntity
  8
0
100
AcDbLine
 10
101.1442318660343
 20
335.9342183616486
 30
0.0
 11
104.6442318660343
 21
335.9342183616486
 31
0.0
  0
LINE
  5
1824
330
2
100
AcDbEntity
  8
0
100
AcDbLine
 10
56.64433186603435
 20
343.4342183616486
 30
0.0
 11
102.6442318660343
 21
343.4342183616486
 31
0.0
  0
LINE
  5
1825
330
2
100
AcDbEntity
  8
0
100
AcDbLine
 10
57.04433286603432
 20
342.0342093616486
 30
0.0
 11
97.14423186603438
 21
342.0342093616486
 31
0.0
  0
LINE
  5
1826
330
2
100
AcDbEntity
  8
0
100
AcDbLine
 10
54.64433186603435
 20
341.4342183616486
 30
0.0
 11
56.64433186603435
 21
343.4342183616486
 31
0.0
  0
LINE
  5
1827
330
2
100
AcDbEntity
  8
0
100
AcDbLine
 10
56.04432586603434
 20
341.0342093616486
 30
0.0
 11
57.04433286603432
 21
342.0342093616486
 31
0.0
  0
LINE
  5
1828
330
2
100
AcDbEntity
  8
0
100
AcDbLine
 10
102.6442318660343
 20
343.4342183616486
 30
0.0
 11
104.6442318660343
 21
341.4342183616486
 31
0.0
  0
LINE
  5
1829
330
2
100
AcDbEntity
  8
0
100
AcDbLine
 10
104.6442318660343
 20
341.4342183616486
 30
0.0
 11
102.6442318660343
 21
343.4342183616486
 31
0.0
  0
ARC
  5
182A
330
2
100
AcDbEntity
  8
0
100
AcDbCircle
 10
101.1444308660343
 20
339.9342183616486
 30
0.0
 40
2.049999999999998
100
AcDbArc
 50
351.9380399160179
 51
0.0
  0
ARC
  5
182B
330
2
100
AcDbEntity
  8
0
100
AcDbCircle
 10
101.1444308660343
 20
339.9342183616486
 30
0.0
 40
2.049999999999998
100
AcDbArc
 50
0.0
 51
8.061960083982105
  0
ARC
  5
182C
330
2
100
AcDbEntity
  8
0
100
AcDbCircle
 10
99.11473086603439
 20
341.9639183616486
 30
0.0
 40
1.742199999999999
100
AcDbArc
 50
269.9986903345002
 51
0.0013096654997424
  0
ARC
  5
182D
330
2
100
AcDbEntity
  8
0
100
AcDbCircle
 10
99.11473086603439
 20
337.9045183616486
 30
0.0
 40
1.742199999999999
100
AcDbArc
 50
359.9986903345002
 51
90.00130966549649
  0
LINE
  5
182E
330
2
100
AcDbEntity
  8
0
100
AcDbLine
 10
97.14423186603438
 20
339.9342183616486
 30
0.0
 11
97.14423186603438
 21
343.4342183616486
 31
0.0
  0
ARC
  5
182F
330
2
100
AcDbEntity
  8
0
100
AcDbCircle
 10
101.1444308660343
 20
339.9342183616486
 30
0.0
 40
2.049999999999998
100
AcDbArc
 50
180.0
 51
188.0619600839821
  0
ARC
  5
1830
330
2
100
AcDbEntity
  8
0
100
AcDbCircle
 10
101.1444308660343
 20
339.9342183616486
 30
0.0
 40
2.049999999999998
100
AcDbArc
 50
171.9380399160178
 51
180.0
  0
ARC
  5
1831
330
2
100
AcDbEntity
  8
0
100
AcDbCircle
 10
101.1444308660343
 20
339.9342183616486
 30
0.0
 40
2.049999999999998
100
AcDbArc
 50
270.0
 51
278.0619600839818
  0
ARC
  5
1832
330
2
100
AcDbEntity
  8
0
100
AcDbCircle
 10
101.1444308660343
 20
339.9342183616486
 30
0.0
 40
2.049999999999998
100
AcDbArc
 50
261.9380399160181
 51
270.0
  0
ARC
  5
1833
330
2
100
AcDbEntity
  8
0
100
AcDbCircle
 10
101.1444308660343
 20
339.9342183616486
 30
0.0
 40
2.049999999999998
100
AcDbArc
 50
81.93803991601813
 51
90.0
  0
ARC
  5
1834
330
2
100
AcDbEntity
  8
0
100
AcDbCircle
 10
101.1444308660343
 20
339.9342183616486
 30
0.0
 40
2.049999999999998
100
AcDbArc
 50
90.0
 51
98.06196008398188
  0
ARC
  5
1835
330
2
100
AcDbEntity
  8
0
100
AcDbCircle
 10
103.1741308660344
 20
341.9639183616486
 30
0.0
 40
1.742199999999999
100
AcDbArc
 50
179.9986903345002
 51
270.0013096654964
  0
ARC
  5
1836
330
2
100
AcDbEntity
  8
0
100
AcDbCircle
 10
103.1741308660344
 20
337.9045183616486
 30
0.0
 40
1.742199999999999
100
AcDbArc
 50
89.9986903345035
 51
180.0013096654997
  0
LINE
  5
183E
330
2
100
AcDbEntity
  8
0
100
AcDbLine
 10
401.018139626177
 20
165.288649385172
 30
0.0
 11
401.018139626177
 21
150.252200032716
 31
0.0
  0
ARC
  5
1846
330
2
100
AcDbEntity
  8
0
100
AcDbCircle
 10
397.5181546261769
 20
157.3886493851721
 30
0.0
 40
9.0
100
AcDbArc
 50
74.11914999171883
 51
105.8808500082811
  0
SPLINE
  5
1847
330
2
100
AcDbEntity
  8
0
100
AcDbSpline
210
0.0
220
0.0
230
1.0
 70
     8
 71
     3
 72
    11
 73
     7
 74
     0
 42
0.0000000001
 43
0.0000000001
 40
0.0
 40
0.0
 40
0.0
 40
0.0
 40
0.4601364636755307
 40
1.04988694485363
 40
1.713742833862792
 40
2.320347933405154
 40
2.320347933405154
 40
2.320347933405154
 40
2.320347933405179
 10
397.2306546257219
 20
164.8716493851721
 30
0.0
 10
397.208236968614
 20
165.0266728248519
 30
0.0
 10
397.1570869133809
 20
165.3803876427694
 30
0.0
 10
396.7212017518472
 20
165.8051153143712
 30
0.0
 10
396.1161510368398
 20
166.024302494337
 30
0.0
 10
395.690966412664
 20
165.9553111947263
 30
0.0
 10
395.4884148030129
 20
165.9410909225496
 30
0.0
  0
LINE
  5
1848
330
2
100
AcDbEntity
  8
0
100
AcDbLine
 10
393.518139626177
 20
163.788649385172
 30
0.0
 11
401.018139626177
 21
163.7886493851721
 31
0.0
  0
LINE
  5
1849
330
2
100
AcDbEntity
  8
0
100
AcDbLine
 10
395.4884148030129
 20
165.9410909225496
 30
0.0
 11
395.468154626177
 21
166.1520676680112
 31
0.0
  0
ARC
  5
184A
330
2
100
AcDbEntity
  8
0
100
AcDbCircle
 10
395.411143872584
 20
164.7947621094184
 30
0.0
 40
1.3
100
AcDbArc
 50
105.8808500082811
 51
175.0000000000002
  0
LINE
  5
184B
330
2
100
AcDbEntity
  8
0
100
AcDbLine
 10
393.018139626177
 20
166.288649385172
 30
0.0
 11
393.518139626177
 21
165.788649385172
 31
0.0
  0
LINE
  5
184C
330
2
100
AcDbEntity
  8
0
100
AcDbLine
 10
393.518139626177
 20
165.788649385172
 30
0.0
 11
394.5731772365565
 21
165.788649385172
 31
0.0
  0
LINE
  5
184D
330
2
100
AcDbEntity
  8
0
100
AcDbLine
 10
394.0181546261769
 20
163.7886493851721
 30
0.0
 11
394.1160907650648
 21
164.9080645749904
 31
0.0
  0
LINE
  5
184E
330
2
100
AcDbEntity
  8
0
100
AcDbLine
 10
393.518139626177
 20
163.788649385172
 30
0.0
 11
393.518139626177
 21
165.7886493851721
 31
0.0
  0
LINE
  5
184F
330
2
100
AcDbEntity
  8
0
100
AcDbLine
 10
398.8560634422032
 20
166.288649385172
 30
0.0
 11
400.018139626177
 21
166.288649385172
 31
0.0
  0
LINE
  5
1850
330
2
100
AcDbEntity
  8
0
100
AcDbLine
 10
399.5478944493411
 20
165.9410909225496
 30
0.0
 11
399.568154626177
 21
166.1520676680112
 31
0.0
  0
LINE
  5
1851
330
2
100
AcDbEntity
  8
0
100
AcDbLine
 10
397.805654626632
 20
164.8716493851721
 30
0.0
 11
397.2306546257219
 21
164.8716493851721
 31
0.0
  0
SPLINE
  5
1852
330
2
100
AcDbEntity
  8
0
100
AcDbSpline
210
0.0
220
0.0
230
1.0
 70
     8
 71
     3
 72
    11
 73
     7
 74
     0
 42
0.0000000001
 43
0.0000000001
 40
0.0
 40
0.0
 40
0.0
 40
0.0
 40
0.4601364636755307
 40
1.04988694485363
 40
1.713742833862792
 40
2.320347933405154
 40
2.320347933405154
 40
2.320347933405154
 40
2.320347933405179
 10
397.805654626632
 20
164.8716493851721
 30
0.0
 10
397.8280722837398
 20
165.0266728248519
 30
0.0
 10
397.8792223389732
 20
165.3803876427694
 30
0.0
 10
398.3151075005067
 20
165.8051153143712
 30
0.0
 10
398.9201582155142
 20
166.024302494337
 30
0.0
 10
399.34534283969
 20
165.9553111947263
 30
0.0
 10
399.5478944493411
 20
165.9410909225496
 30
0.0
  0
ARC
  5
1853
330
2
100
AcDbEntity
  8
0
100
AcDbCircle
 10
399.6251653797699
 20
164.7947621094184
 30
0.0
 40
1.3
100
AcDbArc
 50
4.999999999999743
 51
74.11914999171883
  0
LINE
  5
1854
330
2
100
AcDbEntity
  8
0
100
AcDbLine
 10
400.018139626177
 20
166.288649385172
 30
0.0
 11
401.018139626177
 21
165.288649385172
 31
0.0
  0
LINE
  5
1855
330
2
100
AcDbEntity
  8
0
100
AcDbLine
 10
401.0181546261769
 20
163.7886493851721
 30
0.0
 11
400.920218487289
 21
164.9080645749904
 31
0.0
  0
ARC
  5
1989
330
2
100
AcDbEntity
  8
0
100
AcDbCircle
 10
409.0181546261771
 20
140.088655385172
 30
0.0
 40
2.0
100
AcDbArc
 50
180.0
 51
270.0
  0
ARC
  5
198A
330
2
100
AcDbEntity
  8
0
100
AcDbCircle
 10
409.0181546261771
 20
96.08865538517205
 30
0.0
 40
2.0
100
AcDbArc
 50
90.00000000000003
 51
180.0
  0
ARC
  5
198B
330
2
100
AcDbEntity
  8
0
100
AcDbCircle
 10
343.0181546261768
 20
96.08865538517205
 30
0.0
 40
2.0
100
AcDbArc
 50
0.000000000000007
 51
89.99999999999998
  0
ARC
  5
198C
330
2
100
AcDbEntity
  8
0
100
AcDbCircle
 10
343.0181546261768
 20
140.088655385172
 30
0.0
 40
2.0
100
AcDbArc
 50
270.0
 51
0.000000000000007
  0
ARC
  5
198D
330
2
100
AcDbEntity
  8
0
100
AcDbCircle
 10
159.6443468660343
 20
352.4342183616486
 30
0.0
 40
1.0
100
AcDbArc
 50
90.0
 51
180.0
  0
ARC
  5
198E
330
2
100
AcDbEntity
  8
0
100
AcDbCircle
 10
197.6443508660343
 20
352.4342183616486
 30
0.0
 40
1.0
100
AcDbArc
 50
0.0
 51
90.0
  0
LINE
  5
198F
330
2
100
AcDbEntity
  8
0
100
AcDbLine
 10
198.6443508660343
 20
352.4342183616486
 30
0.0
 11
198.6443508660343
 21
351.4302183636538
 31
0.0
  0
ARC
  5
1990
330
2
100
AcDbEntity
  8
0
100
AcDbCircle
 10
200.6443468660343
 20
351.4342183616487
 30
0.0
 40
2.0
100
AcDbArc
 50
180.0
 51
270.0
  0
LINE
  5
1991
330
2
100
AcDbEntity
  8
0
100
AcDbLine
 10
158.6443468660343
 20
352.4342183616486
 30
0.0
 11
158.6443468660343
 21
351.4342183616487
 31
0.0
  0
ARC
  5
1992
330
2
100
AcDbEntity
  8
0
100
AcDbCircle
 10
156.6443468660342
 20
351.4342183616487
 30
0.0
 40
2.0
100
AcDbArc
 50
270.0
 51
0.0
  0
LINE
  5
1993
330
2
100
AcDbEntity
  8
0
100
AcDbLine
 10
197.6443508660343
 20
353.4342183616486
 30
0.0
 11
159.6443468660343
 21
353.4342183616486
 31
0.0
  0
ARC
  5
1994
330
2
100
AcDbEntity
  8
0
100
AcDbCircle
 10
156.6443468660342
 20
285.4342183616485
 30
0.0
 40
2.0
100
AcDbArc
 50
0.0
 51
90.00000000000003
  0
ARC
  5
1995
330
2
100
AcDbEntity
  8
0
100
AcDbCircle
 10
200.6443468660343
 20
285.4342183616485
 30
0.0
 40
2.0
100
AcDbArc
 50
90.00000000000003
 51
179.9999999999999
  0
ENDSEC
  0
SECTION
  2
OBJECTS
  0
DICTIONARY
  5
7
330
0
100
AcDbDictionary
  3
ACAD_GROUP
350
75
  3
ACAD_LAYOUT
350
61
  3
ACAD_MLINESTYLE
350
76
  3
ACAD_PLOTSETTINGS
350
77
  3
ACAD_PLOTSTYLENAME
350
6
  3
ACADDIM
350
480
  3
ACDBHEADERROUNDTRIPXREC
350
19D4
  3
ACDBVARIABLEDICTIONARY
350
102
  3
DWGPROPS
350
3D2
  0
DICTIONARY
  5
19F5
330
2
100
AcDbDictionary
280
     1
  3
ACAD_LAYOUTSELFREF
360
19F6
  0
DICTIONARY
  5
19F7
330
19CE
100
AcDbDictionary
280
     1
  3
ACAD_LAYOUTSELFREF
360
19F8
  0
DICTIONARY
  5
75
102
{ACAD_REACTORS
330
7
102
}
330
7
100
AcDbDictionary
  0
DICTIONARY
  5
61
102
{ACAD_REACTORS
330
7
102
}
330
7
100
AcDbDictionary
  0
DICTIONARY
  5
76
102
{ACAD_REACTORS
330
7
102
}
330
7
100
AcDbDictionary
  3
STANDARD
350
78
  0
DICTIONARY
  5
77
102
{ACAD_REACTORS
330
7
102
}
330
7
100
AcDbDictionary
  0
ACDBDICTIONARYWDFLT
  5
6
102
{ACAD_REACTORS
330
7
102
}
330
7
100
AcDbDictionary
281
     1
  3
Normal
350
5
100
AcDbDictionaryWithDefault
340
5
  0
XRECORD
  5
480
102
{ACAD_REACTORS
330
7
102
}
330
7
100
AcDbXrecord
 90
   990106
  3

 60
     0
 61
     0
 62
     1
 63
     3
 64
     1
 65
     0
 66
     0
 67
     3
 68
     1
 69
     0
 70
     0
 71
     0
 72
     0
 40
0.0
170
     2
340
0
  0
DICTIONARY
  5
19D4
102
{ACAD_REACTORS
330
7
102
}
330
7
100
AcDbDictionary
  3
CEPSNTYPE
350
19DE
  3
DIMSTYLEDATA
350
19E2
  3
FINGERPRINTGUID
350
19DF
  3
HYPERLINKBASE
350
19D7
  3
INSUNITS
350
19DD
  3
LAYOUTDICT
350
19D9
  3
LWETCUNION
350
19DC
  3
PLOTSETDICT
350
19DA
  3
PLOTSTYLNAMDICT
350
19DB
  3
PSVPSCALE
350
19E1
  3
PUCSBASE
350
19E5
  3
PUCSORGBACK
350
19EB
  3
PUCSORGBOTTOM
350
19E7
  3
PUCSORGFRONT
350
19EA
  3
PUCSORGLEFT
350
19E8
  3
PUCSORGRIGHT
350
19E9
  3
PUCSORGTOP
350
19E6
  3
PUCSORTHOREF
350
19E3
  3
PUCSORTHOVIEW
350
19E4
  3
STYLESHEET
350
19D8
  3
TSTACKALIGN
350
19D5
  3
TSTACKSIZE
350
19D6
  3
UCSBASE
350
19EE
  3
UCSORGBACK
350
19F4
  3
UCSORGBOTTOM
350
19F0
  3
UCSORGFRONT
350
19F3
  3
UCSORGLEFT
350
19F1
  3
UCSORGRIGHT
350
19F2
  3
UCSORGTOP
350
19EF
  3
UCSORTHOREF
350
19EC
  3
UCSORTHOVIEW
350
19ED
  3
VERSIONGUID
350
19E0
  0
DICTIONARY
  5
102
102
{ACAD_REACTORS
330
7
102
}
330
7
100
AcDbDictionary
  3
DIMASSOC
350
103
  3
SORTENTS
350
155E
  0
XRECORD
  5
3D2
102
{ACAD_REACTORS
330
7
102
}
330
7
100
AcDbXrecord
  1
DWGPROPS COOKIE
  2

  3

  4

  6

  7

  8

  9

300
=
301
=
302
=
303
=
304
=
305
=
306
=
307
=
308
=
309
=
 40
0.5353330671296296
 41
2452052.431989363
 42
2453406.550756377
  1

 90
        0
  0
XRECORD
  5
19F6
102
{ACAD_REACTORS
330
19F5
102
}
330
19F5
100
AcDbXrecord
340
2
  0
XRECORD
  5
19F8
102
{ACAD_REACTORS
330
19F7
102
}
330
19F7
100
AcDbXrecord
340
19CE
  0
MLINESTYLE
  5
78
102
{ACAD_REACTORS
330
76
102
}
330
76
100
AcDbMlineStyle
  2
STANDARD
 70
     0
  3

 62
     0
 51
90.0
 52
90.0
 71
     2
 49
0.5
 62
   256
  6
BYLAYER
 49
-0.5
 62
   256
  6
BYLAYER
  0
ACDBPLACEHOLDER
  5
5
102
{ACAD_REACTORS
330
6
102
}
330
6
100
AcDbPlaceHolder
280
     0
  0
XRECORD
  5
19DE
102
{ACAD_REACTORS
330
19D4
102
}
330
19D4
100
AcDbXrecord
 90
        0
  0
XRECORD
  5
19E2
102
{ACAD_REACTORS
330
19D4
102
}
330
19D4
100
AcDbXrecord
1000
DSTYLE
1002
{
1070
   179
 70
     2
1070
   277
 70
     6
1002
}
  0
XRECORD
  5
19DF
102
{ACAD_REACTORS
330
19D4
102
}
330
19D4
100
AcDbXrecord
  1
{6385560B-F4B1-4644-A7C2-A3E32AC3D232}
  0
XRECORD
  5
19D7
102
{ACAD_REACTORS
330
19D4
102
}
330
19D4
100
AcDbXrecord
  1

  0
XRECORD
  5
19DD
102
{ACAD_REACTORS
330
19D4
102
}
330
19D4
100
AcDbXrecord
 90
        0
  0
XRECORD
  5
19D9
102
{ACAD_REACTORS
330
19D4
102
}
330
19D4
100
AcDbXrecord
340
61
  0
XRECORD
  5
19DC
102
{ACAD_REACTORS
330
19D4
102
}
330
19D4
100
AcDbXrecord
 90
    10781
  0
XRECORD
  5
19DA
102
{ACAD_REACTORS
330
19D4
102
}
330
19D4
100
AcDbXrecord
340
77
  0
XRECORD
  5
19DB
102
{ACAD_REACTORS
330
19D4
102
}
330
19D4
100
AcDbXrecord
340
6
  0
XRECORD
  5
19E1
102
{ACAD_REACTORS
330
19D4
102
}
330
19D4
100
AcDbXrecord
 40
0.0
  0
XRECORD
  5
19E5
102
{ACAD_REACTORS
330
19D4
102
}
330
19D4
100
AcDbXrecord
340
0
  0
XRECORD
  5
19EB
102
{ACAD_REACTORS
330
19D4
102
}
330
19D4
100
AcDbXrecord
 10
0.0
 20
0.0
 30
0.0
  0
XRECORD
  5
19E7
102
{ACAD_REACTORS
330
19D4
102
}
330
19D4
100
AcDbXrecord
 10
0.0
 20
0.0
 30
0.0
  0
XRECORD
  5
19EA
102
{ACAD_REACTORS
330
19D4
102
}
330
19D4
100
AcDbXrecord
 10
0.0
 20
0.0
 30
0.0
  0
XRECORD
  5
19E8
102
{ACAD_REACTORS
330
19D4
102
}
330
19D4
100
AcDbXrecord
 10
0.0
 20
0.0
 30
0.0
  0
XRECORD
  5
19E9
102
{ACAD_REACTORS
330
19D4
102
}
330
19D4
100
AcDbXrecord
 10
0.0
 20
0.0
 30
0.0
  0
XRECORD
  5
19E6
102
{ACAD_REACTORS
330
19D4
102
}
330
19D4
100
AcDbXrecord
 10
0.0
 20
0.0
 30
0.0
  0
XRECORD
  5
19E3
102
{ACAD_REACTORS
330
19D4
102
}
330
19D4
100
AcDbXrecord
340
0
  0
XRECORD
  5
19E4
102
{ACAD_REACTORS
330
19D4
102
}
330
19D4
100
AcDbXrecord
 70
     0
  0
XRECORD
  5
19D8
102
{ACAD_REACTORS
330
19D4
102
}
330
19D4
100
AcDbXrecord
  1
Sekkei.ctb
  0
XRECORD
  5
19D5
102
{ACAD_REACTORS
330
19D4
102
}
330
19D4
100
AcDbXrecord
 90
        1
  0
XRECORD
  5
19D6
102
{ACAD_REACTORS
330
19D4
102
}
330
19D4
100
AcDbXrecord
 90
       70
  0
XRECORD
  5
19EE
102
{ACAD_REACTORS
330
19D4
102
}
330
19D4
100
AcDbXrecord
340
0
  0
XRECORD
  5
19F4
102
{ACAD_REACTORS
330
19D4
102
}
330
19D4
100
AcDbXrecord
 10
0.0
 20
0.0
 30
0.0
  0
XRECORD
  5
19F0
102
{ACAD_REACTORS
330
19D4
102
}
330
19D4
100
AcDbXrecord
 10
0.0
 20
0.0
 30
0.0
  0
XRECORD
  5
19F3
102
{ACAD_REACTORS
330
19D4
102
}
330
19D4
100
AcDbXrecord
 10
0.0
 20
0.0
 30
0.0
  0
XRECORD
  5
19F1
102
{ACAD_REACTORS
330
19D4
102
}
330
19D4
100
AcDbXrecord
 10
0.0
 20
0.0
 30
0.0
  0
XRECORD
  5
19F2
102
{ACAD_REACTORS
330
19D4
102
}
330
19D4
100
AcDbXrecord
 10
0.0
 20
0.0
 30
0.0
  0
XRECORD
  5
19EF
102
{ACAD_REACTORS
330
19D4
102
}
330
19D4
100
AcDbXrecord
 10
0.0
 20
0.0
 30
0.0
  0
XRECORD
  5
19EC
102
{ACAD_REACTORS
330
19D4
102
}
330
19D4
100
AcDbXrecord
340
0
  0
XRECORD
  5
19ED
102
{ACAD_REACTORS
330
19D4
102
}
330
19D4
100
AcDbXrecord
 70
     0
  0
XRECORD
  5
19E0
102
{ACAD_REACTORS
330
19D4
102
}
330
19D4
100
AcDbXrecord
  1
{8CE46000-C88F-4A15-83B2-17DAF4DC25D7}
  0
DICTIONARYVAR
  5
103
102
{ACAD_REACTORS
330
102
102
}
330
102
100
DictionaryVariables
280
     0
  1
1
  0
DICTIONARYVAR
  5
155E
102
{ACAD_REACTORS
330
102
102
}
330
102
100
DictionaryVariables
280
     0
  1
96
  0
ENDSEC
  0
EOF
