  0
SECTION
  2
HEADER
  9
$CLAYER
  8
1
  9
$LTSCALE
 40
3.0
  0
ENDSEC
  0
SECTION
  2
TABLES
  0
TABLE
  2
LTYPE
 70
     4
  0
LTYPE
  2
CONTINUOUS
  3
solid line
 70
    64
 72
    65
 73
     0
 40
0.0
  0
LTYPE
  2
DASHED
  3
__ __ __ __ __ __ __ __ __ __ __ __ __ __ __
 70
    64
 72
    65
 73
     2
 40
0.75
 49
0.5
 49
-0.25
  0
LTYPE
  2
CENTER
  3
____ _ ____ _ ____ _ ____ _ ____ _ ____ _ ____
 70
    64
 72
    65
 73
     4
 40
2.0
 49
1.25
 49
-0.25
 49
0.25
 49
-0.25
  0
LTYPE
  2
PHANTOM
  3
_____ _ _ _____ _ _ _____ _ _ _____ _ _ ____
 70
    64
 72
    65
 73
     6
 40
2.5
 49
1.25
 49
-0.25
 49
0.25
 49
-0.25
 49
0.25
 49
-0.25
  0
ENDTAB
  0
TABLE
  2
LAYER
 70
     1
  0
LAYER
  2
0
 70
    64
 62
     7
  6
CONTINUOUS
  0
ENDTAB
  0
TABLE
  2
STYLE
 70
     1
  0
STYLE
  2
STANDARD
 70
     0
 40
0.000000
 41
1.000000
 50
0.000000
 71
     0
 42
3.000000
  3
txt
  4
BIGFONT
  0
ENDTAB
  0
ENDSEC
  0
SECTION
  2
BLOCKS
  0
ENDSEC
  0
SECTION
  2
ENTITIES
  0
LINE
  8
0
  6
CONTINUOUS
 10
1.991250
 20
14.325000
 11
1.991250
 21
78.324997
  0
LINE
  8
0
  6
CONTINUOUS
 10
5.955347
 20
84.324997
 11
22.491249
 21
84.324997
  0
LINE
  8
0
  6
CONTINUOUS
 10
5.955353
 20
8.325000
 11
22.491249
 21
8.325000
  0
LINE
  8
0
  6
CONTINUOUS
 10
2.491250
 20
11.325000
 11
2.491250
 21
81.324997
  0
LINE
  8
0
  6
CONTINUOUS
 10
1.991250
 20
78.324997
 11
2.491250
 21
78.824997
  0
LINE
  8
0
  6
CONTINUOUS
 10
1.991250
 20
14.325000
 11
2.491250
 21
13.825000
  0
LINE
  8
0
  6
CONTINUOUS
 10
3.357268
 20
82.824989
 11
2.491250
 21
81.324997
  0
ARC
  8
0
  6
CONTINUOUS
 10
5.955358
 20
81.325012
 40
3.000000
 50
90.000000
 51
150.000397
  0
LINE
  8
0
  6
CONTINUOUS
 10
3.357268
 20
9.825010
 11
2.491250
 21
11.325000
  0
ARC
  8
0
  6
CONTINUOUS
 10
5.955358
 20
11.324990
 40
3.000000
 50
-150.000397
 51
-90.000000
  0
LINE
  8
0
  6
CONTINUOUS
 10
4.072886
 20
76.573997
 11
22.491249
 21
76.573997
  0
LINE
  8
0
  6
CONTINUOUS
 10
22.491249
 20
16.076000
 11
4.072886
 21
16.076000
  0
LINE
  8
0
  6
CONTINUOUS
 10
22.991249
 20
85.824997
 11
22.991249
 21
84.324997
  0
LINE
  8
0
  6
CONTINUOUS
 10
15.991250
 20
85.824997
 11
15.991250
 21
84.324997
  0
LINE
  8
0
  6
CONTINUOUS
 10
15.991250
 20
85.824997
 11
22.991249
 21
85.824997
  0
LINE
  8
0
  6
CONTINUOUS
 10
20.391251
 20
98.824997
 11
20.391251
 21
85.824997
  0
LINE
  8
0
  6
CONTINUOUS
 10
18.591249
 20
99.449997
 11
18.591249
 21
85.824997
  0
LINE
  8
0
  6
CONTINUOUS
 10
16.791250
 20
97.387497
 11
16.791250
 21
85.824997
  0
LINE
  8
0
  6
CONTINUOUS
 10
22.191250
 20
98.199997
 11
22.191250
 21
85.824997
  0
LINE
  8
0
  6
CONTINUOUS
 10
18.591249
 20
99.449997
 11
20.391251
 21
98.824997
  0
LINE
  8
0
  6
CONTINUOUS
 10
16.791250
 20
97.387497
 11
18.591249
 21
98.012497
  0
LINE
  8
0
  6
CONTINUOUS
 10
22.191250
 20
98.199997
 11
20.392260
 21
97.752289
  0
LINE
  8
0
  6
CONTINUOUS
 10
22.491249
 20
8.325000
 11
22.491249
 21
84.324997
  0
LINE
  8
0
  6
CENTER
 10
-6.990000
 20
46.325001
 11
114.241249
 21
46.325001
  0
LINE
  8
0
  6
CONTINUOUS
 10
179.991257
 20
79.325577
 11
179.991257
 21
3.625000
  0
LINE
  8
0
  6
CONTINUOUS
 10
94.991249
 20
79.325600
 11
94.991249
 21
3.625000
  0
LINE
  8
0
  6
CONTINUOUS
 10
22.491249
 20
84.324997
 11
98.410927
 21
84.324997
  0
LINE
  8
0
  6
CONTINUOUS
 10
22.491249
 20
8.325000
 11
94.991249
 21
8.325000
  0
LINE
  8
0
  6
CENTER
 10
137.491257
 20
282.862488
 11
137.491257
 21
146.362503
  0
LINE
  8
0
  6
CENTER
 10
106.991249
 20
68.625000
 11
169.713745
 21
68.625000
  0
LINE
  8
0
  6
CONTINUOUS
 10
94.991249
 20
3.625000
 11
179.991257
 21
3.625000
  0
LINE
  8
0
  6
CONTINUOUS
 10
124.070747
 20
101.224998
 11
150.911850
 21
101.224998
  0
LINE
  8
0
  6
CONTINUOUS
 10
177.863556
 20
83.418251
 11
153.784119
 21
100.317612
  0
LINE
  8
0
  6
CONTINUOUS
 10
97.118942
 20
83.418259
 11
121.198349
 21
100.317650
  0
ARC
  8
0
  6
CONTINUOUS
 10
150.911850
 20
96.224991
 40
5.000000
 50
54.938431
 51
90.000000
  0
ARC
  8
0
  6
CONTINUOUS
 10
124.070747
 20
96.225014
 40
5.000000
 50
90.000000
 51
125.062202
  0
ARC
  8
0
  6
CONTINUOUS
 10
174.991257
 20
79.325577
 40
5.000000
 50
0.000000
 51
54.938370
  0
ARC
  8
0
  6
CONTINUOUS
 10
99.991272
 20
79.325623
 40
5.000000
 50
125.062302
 51
180.000000
  0
LINE
  8
0
  6
CONTINUOUS
 10
96.991257
 20
11.625000
 11
177.991257
 21
11.625000
  0
LINE
  8
0
  6
CENTER
 10
171.491257
 20
15.012500
 11
171.491257
 21
-0.737500
  0
LINE
  8
0
  6
CENTER
 10
103.491249
 20
15.012500
 11
103.491249
 21
-0.487500
  0
LINE
  8
0
  6
DASHED
 10
106.741249
 20
11.625000
 11
106.741249
 21
3.625000
  0
LINE
  8
0
  6
DASHED
 10
100.241249
 20
11.625000
 11
100.241249
 21
3.625000
  0
LINE
  8
0
  6
DASHED
 10
174.741257
 20
11.625000
 11
174.741257
 21
3.625000
  0
LINE
  8
0
  6
DASHED
 10
168.241257
 20
11.625000
 11
168.241257
 21
3.625000
  0
LINE
  8
0
  6
CONTINUOUS
 10
177.491257
 20
69.986397
 11
177.491257
 21
41.263863
  0
LINE
  8
0
  6
CONTINUOUS
 10
97.491249
 20
69.986267
 11
97.491249
 21
41.263462
  0
ARC
  8
0
  6
CONTINUOUS
 10
137.491257
 20
55.625000
 40
42.500000
 50
199.749893
 51
340.250092
  0
ARC
  8
0
  6
CONTINUOUS
 10
137.491257
 20
55.625000
 40
42.500000
 50
19.749901
 51
160.250107
  0
LINE
  8
0
  6
CONTINUOUS
 10
146.991257
 20
71.125000
 11
146.991257
 21
66.125000
  0
LINE
  8
0
  6
CONTINUOUS
 10
141.991257
 20
66.125000
 11
141.991257
 21
71.125000
  0
LINE
  8
0
  6
CONTINUOUS
 10
141.991257
 20
71.125000
 11
146.991257
 21
71.125000
  0
LINE
  8
0
  6
CONTINUOUS
 10
141.991257
 20
66.125000
 11
146.991257
 21
66.125000
  0
ARC
  8
0
  6
CONTINUOUS
 10
137.491257
 20
68.625000
 40
7.500000
 50
19.471210
 51
340.528809
  0
ARC
  8
0
  6
CONTINUOUS
 10
177.991257
 20
9.624990
 40
2.000000
 50
0.000000
 51
90.000000
  0
ARC
  8
0
  6
CONTINUOUS
 10
96.991257
 20
9.625010
 40
2.000000
 50
90.000000
 51
180.000000
  0
CIRCLE
  8
0
  6
CONTINUOUS
 10
137.741257
 20
68.574997
 40
20.000000
  0
LINE
  8
0
  6
CONTINUOUS
 10
119.303848
 20
76.324997
 11
119.303947
 21
76.324997
  0
LINE
  8
0
  6
CONTINUOUS
 10
100.373062
 20
76.324997
 11
100.373070
 21
76.324997
  0
LINE
  8
0
  6
CONTINUOUS
 10
22.491199
 20
76.573997
 11
94.991241
 21
76.573997
  0
LINE
  8
0
  6
CONTINUOUS
 10
22.491199
 20
16.076000
 11
94.991241
 21
16.076000
  0
LINE
  8
0
  6
CONTINUOUS
 10
131.116257
 20
38.178223
 11
131.116257
 21
32.625000
  0
LINE
  8
0
  6
CONTINUOUS
 10
134.303757
 20
40.195312
 11
134.303757
 21
42.187500
  0
LINE
  8
0
  6
CONTINUOUS
 10
140.678757
 20
40.195312
 11
140.678757
 21
42.187500
  0
LINE
  8
0
  6
CONTINUOUS
 10
136.868652
 20
41.017090
 11
136.868652
 21
33.670898
  0
LINE
  8
0
  6
CONTINUOUS
 10
138.064056
 20
41.017090
 11
138.064056
 21
33.670898
  0
LINE
  8
0
  6
CONTINUOUS
 10
144.339355
 20
41.017090
 11
144.339355
 21
33.621090
  0
LINE
  8
0
  6
CONTINUOUS
 10
145.435043
 20
37.094971
 11
145.435043
 21
33.621090
  0
LINE
  8
0
  6
CONTINUOUS
 10
129.603745
 20
40.917480
 11
126.531853
 21
40.917480
  0
LINE
  8
0
  6
CONTINUOUS
 10
126.531853
 20
40.917480
 11
125.812050
 21
40.024979
  0
LINE
  8
0
  6
CONTINUOUS
 10
125.898651
 20
42.187500
 11
124.741249
 21
40.705502
  0
LINE
  8
0
  6
CONTINUOUS
 10
125.812050
 20
34.515919
 11
126.543350
 21
33.745602
  0
LINE
  8
0
  6
CONTINUOUS
 10
124.741249
 20
33.865860
 11
125.971046
 21
32.625000
  0
LINE
  8
0
  6
CONTINUOUS
 10
124.741249
 20
40.705502
 11
124.741249
 21
33.865860
  0
LINE
  8
0
  6
CONTINUOUS
 10
125.812050
 20
40.024979
 11
125.812050
 21
34.515919
  0
LINE
  8
0
  6
CONTINUOUS
 10
130.194855
 20
40.346035
 11
129.591644
 21
40.917480
  0
LINE
  8
0
  6
CONTINUOUS
 10
130.185257
 20
42.187500
 11
131.116257
 21
41.154358
  0
LINE
  8
0
  6
CONTINUOUS
 10
130.194855
 20
40.195312
 11
131.116257
 21
40.195312
  0
LINE
  8
0
  6
CONTINUOUS
 10
125.898651
 20
42.187500
 11
130.185257
 21
42.187500
  0
LINE
  8
0
  6
CONTINUOUS
 10
130.194855
 20
37.132324
 11
128.526443
 21
37.132324
  0
LINE
  8
0
  6
CONTINUOUS
 10
130.194855
 20
36.136230
 11
130.194855
 21
36.933105
  0
LINE
  8
0
  6
CONTINUOUS
 10
128.202652
 20
33.745602
 11
126.543350
 21
33.745602
  0
ARC
  8
0
  6
CONTINUOUS
 10
128.202652
 20
35.737789
 40
1.992187
 50
-89.999786
 51
0.000109
  0
LINE
  8
0
  6
CONTINUOUS
 10
130.194855
 20
33.387260
 11
130.194855
 21
32.625000
  0
LINE
  8
0
  6
CONTINUOUS
 10
131.116257
 20
41.154358
 11
131.116257
 21
40.195312
  0
LINE
  8
0
  6
CONTINUOUS
 10
130.194855
 20
37.132324
 11
130.194855
 21
35.737789
  0
LINE
  8
0
  6
CONTINUOUS
 10
128.526443
 20
38.178223
 11
128.526443
 21
37.132324
  0
LINE
  8
0
  6
CONTINUOUS
 10
130.194855
 20
32.625000
 11
131.116257
 21
32.625000
  0
LINE
  8
0
  6
CONTINUOUS
 10
130.194855
 20
33.387260
 11
129.286346
 21
32.625000
  0
LINE
  8
0
  6
CONTINUOUS
 10
138.064056
 20
33.670898
 11
138.462448
 21
33.670898
  0
LINE
  8
0
  6
CONTINUOUS
 10
136.395554
 20
33.670898
 11
136.395554
 21
32.625000
  0
LINE
  8
0
  6
CONTINUOUS
 10
138.462448
 20
33.670898
 11
138.462448
 21
32.625000
  0
LINE
  8
0
  6
CONTINUOUS
 10
140.013748
 20
40.195312
 11
140.678757
 21
40.195312
  0
LINE
  8
0
  6
CONTINUOUS
 10
134.303757
 20
40.195312
 11
135.011353
 21
40.195312
  0
LINE
  8
0
  6
CONTINUOUS
 10
134.303757
 20
42.187500
 11
140.678757
 21
42.187500
  0
LINE
  8
0
  6
CONTINUOUS
 10
136.395554
 20
32.625000
 11
138.462448
 21
32.625000
  0
LINE
  8
0
  6
CONTINUOUS
 10
136.395554
 20
33.670898
 11
136.868652
 21
33.670898
  0
ARC
  8
0
  6
CONTINUOUS
 10
147.688751
 20
39.635010
 40
2.552490
 50
-73.981873
 51
90.003510
  0
ARC
  8
0
  6
CONTINUOUS
 10
147.688751
 20
39.635010
 40
1.557193
 50
-82.585274
 51
62.411850
  0
LINE
  8
0
  6
CONTINUOUS
 10
143.866257
 20
42.187500
 11
147.688751
 21
42.187500
  0
LINE
  8
0
  6
CONTINUOUS
 10
143.866257
 20
42.187500
 11
143.866257
 21
41.017090
  0
LINE
  8
0
  6
CONTINUOUS
 10
145.435043
 20
41.017090
 11
145.435043
 21
38.090836
  0
LINE
  8
0
  6
CONTINUOUS
 10
148.393051
 20
37.181622
 11
149.972946
 21
33.621090
  0
LINE
  8
0
  6
CONTINUOUS
 10
147.475555
 20
37.094971
 11
148.970551
 21
33.621090
  0
LINE
  8
0
  6
CONTINUOUS
 10
143.866257
 20
33.621090
 11
144.339355
 21
33.621090
  0
LINE
  8
0
  6
CONTINUOUS
 10
145.435043
 20
33.621090
 11
145.870850
 21
33.621090
  0
LINE
  8
0
  6
CONTINUOUS
 10
145.870850
 20
32.625000
 11
143.866257
 21
32.625000
  0
LINE
  8
0
  6
CONTINUOUS
 10
148.772049
 20
33.621090
 11
148.970551
 21
33.621090
  0
LINE
  8
0
  6
CONTINUOUS
 10
149.972946
 20
33.621090
 11
150.241257
 21
33.621090
  0
LINE
  8
0
  6
CONTINUOUS
 10
148.772049
 20
32.625000
 11
150.241257
 21
32.625000
  0
LINE
  8
0
  6
CONTINUOUS
 10
150.241257
 20
33.621090
 11
150.241257
 21
32.625000
  0
LINE
  8
0
  6
CONTINUOUS
 10
148.772049
 20
33.621090
 11
148.772049
 21
32.625000
  0
LINE
  8
0
  6
CONTINUOUS
 10
145.870850
 20
33.621090
 11
145.870850
 21
32.625000
  0
LINE
  8
0
  6
CONTINUOUS
 10
143.866257
 20
33.621090
 11
143.866257
 21
32.625000
  0
LINE
  8
0
  6
CONTINUOUS
 10
135.353745
 20
41.017090
 11
135.011353
 21
40.195312
  0
LINE
  8
0
  6
CONTINUOUS
 10
139.725052
 20
41.017090
 11
140.013748
 21
40.195312
  0
LINE
  8
0
  6
CONTINUOUS
 10
138.064056
 20
41.017090
 11
139.725052
 21
41.017090
  0
LINE
  8
0
  6
CONTINUOUS
 10
136.868652
 20
41.017090
 11
135.353745
 21
41.017090
  0
LINE
  8
0
  6
CONTINUOUS
 10
143.866257
 20
41.017090
 11
144.339355
 21
41.017090
  0
LINE
  8
0
  6
CONTINUOUS
 10
145.435043
 20
41.017090
 11
148.409943
 21
41.015152
  0
LINE
  8
0
  6
CONTINUOUS
 10
130.194855
 20
40.346035
 11
130.194855
 21
40.195312
  0
LINE
  8
0
  6
CONTINUOUS
 10
125.971046
 20
32.625000
 11
129.286346
 21
32.625000
  0
LINE
  8
0
  6
CONTINUOUS
 10
145.435043
 20
38.090836
 11
147.889755
 21
38.090836
  0
LINE
  8
0
  6
CONTINUOUS
 10
145.435043
 20
37.094971
 11
147.475555
 21
37.094971
  0
LINE
  8
0
  6
CONTINUOUS
 10
128.526443
 20
38.178223
 11
131.116257
 21
38.178223
  0
LINE
  8
0
  6
CENTER
 10
301.517456
 20
-2.737500
 11
301.517456
 21
108.262497
  0
LINE
  8
0
  6
CENTER
 10
228.423752
 20
68.625000
 11
372.966064
 21
68.625000
  0
LINE
  8
0
  6
CONTINUOUS
 10
254.517456
 20
3.625000
 11
348.517456
 21
3.625000
  0
LINE
  8
0
  6
CONTINUOUS
 10
335.517456
 20
11.625000
 11
346.517456
 21
11.625000
  0
LINE
  8
0
  6
CONTINUOUS
 10
348.517456
 20
9.625000
 11
348.517456
 21
3.625000
  0
LINE
  8
0
  6
CENTER
 10
341.517456
 20
14.512500
 11
341.517456
 21
-2.487500
  0
LINE
  8
0
  6
CONTINUOUS
 10
237.517456
 20
76.125000
 11
264.517456
 21
76.125000
  0
LINE
  8
0
  6
CONTINUOUS
 10
237.517456
 20
61.125000
 11
264.517456
 21
61.125000
  0
LINE
  8
0
  6
CONTINUOUS
 10
237.517456
 20
76.125000
 11
237.517456
 21
61.125000
  0
LINE
  8
0
  6
CONTINUOUS
 10
237.517456
 20
71.125000
 11
259.017456
 21
71.125000
  0
LINE
  8
0
  6
CONTINUOUS
 10
237.517456
 20
66.125000
 11
259.017456
 21
66.125000
  0
LINE
  8
0
  6
CONTINUOUS
 10
264.517456
 20
77.125000
 11
264.517456
 21
60.125000
  0
ARC
  8
0
  6
CONTINUOUS
 10
259.017456
 20
68.624992
 40
2.500000
 50
0.000000
 51
90.000000
  0
ARC
  8
0
  6
CONTINUOUS
 10
259.017456
 20
68.625000
 40
2.500000
 50
-90.000000
 51
0.000000
  0
LINE
  8
0
  6
CONTINUOUS
 10
270.517456
 20
14.625000
 11
270.517456
 21
98.718399
  0
LINE
  8
0
  6
CONTINUOUS
 10
332.517456
 20
14.625000
 11
332.517456
 21
98.718513
  0
LINE
  8
0
  6
CONTINUOUS
 10
330.552338
 20
100.718208
 11
301.517456
 21
101.225014
  0
LINE
  8
0
  6
CONTINUOUS
 10
272.482544
 20
100.718102
 11
301.517456
 21
101.225014
  0
ARC
  8
0
  6
CONTINUOUS
 10
330.517456
 20
98.718513
 40
2.000000
 50
0.000000
 51
89.000137
  0
ARC
  8
0
  6
CONTINUOUS
 10
272.517456
 20
98.718407
 40
2.000000
 50
91.000641
 51
180.000000
  0
LINE
  8
0
  6
CONTINUOUS
 10
335.517456
 20
88.625000
 11
332.517456
 21
88.625000
  0
LINE
  8
0
  6
CONTINUOUS
 10
335.517456
 20
48.625000
 11
332.517456
 21
48.625000
  0
LINE
  8
0
  6
CONTINUOUS
 10
336.517456
 20
49.625000
 11
336.517456
 21
87.625000
  0
ARC
  8
0
  6
CONTINUOUS
 10
335.517456
 20
87.625000
 40
1.000000
 50
0.000000
 51
90.000000
  0
ARC
  8
0
  6
CONTINUOUS
 10
335.517456
 20
49.624996
 40
1.000000
 50
-90.000000
 51
0.000000
  0
LINE
  8
0
  6
CONTINUOUS
 10
267.517456
 20
11.625000
 11
256.517456
 21
11.625000
  0
LINE
  8
0
  6
CONTINUOUS
 10
254.517456
 20
9.625000
 11
254.517456
 21
3.625000
  0
LINE
  8
0
  6
CENTER
 10
261.517456
 20
14.262500
 11
261.517456
 21
0.012500
  0
LINE
  8
0
  6
DASHED
 10
344.767456
 20
11.625000
 11
344.767456
 21
3.625000
  0
LINE
  8
0
  6
DASHED
 10
338.267456
 20
11.625000
 11
338.267456
 21
3.625000
  0
LINE
  8
0
  6
DASHED
 10
264.767456
 20
11.625000
 11
264.767456
 21
3.625000
  0
LINE
  8
0
  6
DASHED
 10
258.267456
 20
11.625000
 11
258.267456
 21
3.625000
  0
ARC
  8
0
  6
CONTINUOUS
 10
346.517456
 20
9.624990
 40
2.000000
 50
0.000000
 51
90.000000
  0
ARC
  8
0
  6
CONTINUOUS
 10
256.517456
 20
9.625010
 40
2.000000
 50
90.000000
 51
180.000000
  0
LINE
  8
0
  6
CONTINUOUS
 10
272.191162
 20
81.925011
 11
330.909851
 21
81.925011
  0
LINE
  8
0
  6
CONTINUOUS
 10
267.517456
 20
88.625000
 11
270.517456
 21
88.625000
  0
LINE
  8
0
  6
CONTINUOUS
 10
267.517456
 20
48.625000
 11
270.517456
 21
48.625000
  0
LINE
  8
0
  6
CONTINUOUS
 10
266.517456
 20
49.625000
 11
266.517456
 21
87.625000
  0
ARC
  8
0
  6
CONTINUOUS
 10
267.517456
 20
87.625000
 40
1.000000
 50
90.000000
 51
180.000000
  0
ARC
  8
0
  6
CONTINUOUS
 10
267.517456
 20
49.624996
 40
1.000000
 50
180.000000
 51
270.000000
  0
LINE
  8
0
  6
CONTINUOUS
 10
365.517456
 20
76.125000
 11
338.517456
 21
76.125000
  0
LINE
  8
0
  6
CONTINUOUS
 10
365.517456
 20
61.125000
 11
338.517456
 21
61.125000
  0
LINE
  8
0
  6
CONTINUOUS
 10
365.517456
 20
76.125000
 11
365.517456
 21
61.125000
  0
LINE
  8
0
  6
CONTINUOUS
 10
365.517456
 20
71.125000
 11
344.017456
 21
71.125000
  0
LINE
  8
0
  6
CONTINUOUS
 10
365.517456
 20
66.125000
 11
344.017456
 21
66.125000
  0
LINE
  8
0
  6
CONTINUOUS
 10
338.517456
 20
77.125000
 11
338.517456
 21
60.125000
  0
ARC
  8
0
  6
CONTINUOUS
 10
344.017456
 20
68.624992
 40
2.500000
 50
90.000000
 51
180.000000
  0
ARC
  8
0
  6
CONTINUOUS
 10
344.017456
 20
68.625000
 40
2.500000
 50
180.000000
 51
270.000000
  0
ARC
  8
0
  6
CONTINUOUS
 10
301.517456
 20
46.325001
 40
38.000000
 50
-35.334469
 51
21.294241
  0
ARC
  8
0
  6
CONTINUOUS
 10
301.517456
 20
46.325001
 40
38.000000
 50
158.705795
 51
215.334503
  0
LINE
  8
0
  6
CENTER
 10
257.152863
 20
46.325001
 11
346.729065
 21
46.325001
  0
LINE
  8
0
  6
CONTINUOUS
 10
336.517456
 20
77.125000
 11
338.517456
 21
77.125000
  0
LINE
  8
0
  6
CONTINUOUS
 10
336.517456
 20
60.125000
 11
338.517456
 21
60.125000
  0
LINE
  8
0
  6
CONTINUOUS
 10
264.517456
 20
77.125000
 11
266.517456
 21
77.125000
  0
LINE
  8
0
  6
CONTINUOUS
 10
264.517456
 20
60.125000
 11
266.517456
 21
60.125000
  0
ARC
  8
0
  6
CONTINUOUS
 10
267.517456
 20
14.624990
 40
3.000000
 50
-90.000000
 51
0.000000
  0
ARC
  8
0
  6
CONTINUOUS
 10
335.517456
 20
14.625000
 40
3.000000
 50
180.000000
 51
270.000000
  0
LINE
  8
0
  6
CENTER
 10
-8.008750
 20
214.362503
 11
191.231247
 21
214.362503
  0
LINE
  8
0
  6
CONTINUOUS
 10
97.497749
 20
245.362503
 11
177.484741
 21
245.362503
  0
LINE
  8
0
  6
CONTINUOUS
 10
179.222321
 20
258.414856
 11
179.991257
 21
214.362503
  0
LINE
  8
0
  6
CONTINUOUS
 10
1.991250
 20
182.362503
 11
1.991250
 21
246.362503
  0
LINE
  8
0
  6
CONTINUOUS
 10
5.955347
 20
252.362503
 11
22.491249
 21
252.362503
  0
LINE
  8
0
  6
CONTINUOUS
 10
5.955353
 20
176.362503
 11
22.491249
 21
176.362503
  0
LINE
  8
0
  6
CONTINUOUS
 10
2.491250
 20
179.362503
 11
2.491250
 21
249.362503
  0
LINE
  8
0
  6
CONTINUOUS
 10
1.991250
 20
246.362503
 11
2.491250
 21
246.862503
  0
LINE
  8
0
  6
CONTINUOUS
 10
1.991250
 20
182.362503
 11
2.491250
 21
181.862503
  0
LINE
  8
0
  6
CONTINUOUS
 10
3.357268
 20
250.862488
 11
2.491250
 21
249.362503
  0
ARC
  8
0
  6
CONTINUOUS
 10
5.955358
 20
249.362503
 40
3.000000
 50
90.000000
 51
150.000397
  0
LINE
  8
0
  6
CONTINUOUS
 10
3.357268
 20
177.862503
 11
2.491250
 21
179.362503
  0
ARC
  8
0
  6
CONTINUOUS
 10
5.955358
 20
179.362488
 40
3.000000
 50
-150.000397
 51
-90.000000
  0
LINE
  8
0
  6
CONTINUOUS
 10
4.072886
 20
237.362503
 11
22.491249
 21
237.362503
  0
LINE
  8
0
  6
CONTINUOUS
 10
22.491249
 20
176.362503
 11
22.491249
 21
207.496475
  0
LINE
  8
0
  6
CONTINUOUS
 10
4.072886
 20
191.362503
 11
22.491249
 21
191.362503
  0
LINE
  8
0
  6
CONTINUOUS
 10
98.759613
 20
261.362488
 11
129.991257
 21
261.362488
  0
ARC
  8
0
  6
CONTINUOUS
 10
176.222763
 20
258.362488
 40
3.000000
 50
1.000000
 51
90.000000
  0
LINE
  8
0
  6
CONTINUOUS
 10
95.760071
 20
258.414856
 11
95.535690
 21
245.558411
  0
ARC
  8
0
  6
CONTINUOUS
 10
177.484741
 20
243.362503
 40
2.000000
 50
1.000000
 51
90.000000
  0
ARC
  8
0
  6
CONTINUOUS
 10
97.497749
 20
243.362503
 40
2.000000
 50
90.000000
 51
179.000000
  0
ARC
  8
0
  6
CONTINUOUS
 10
98.759613
 20
258.362488
 40
3.000000
 50
90.000000
 51
179.000153
  0
LINE
  8
0
  6
CONTINUOUS
 10
92.991249
 20
252.362503
 11
22.491249
 21
252.362503
  0
LINE
  8
0
  6
CONTINUOUS
 10
22.491249
 20
237.362503
 11
98.410927
 21
237.362503
  0
LINE
  8
0
  6
CENTER
 10
93.616249
 20
254.362503
 11
111.241249
 21
254.362503
  0
LINE
  8
0
  6
CENTER
 10
171.491257
 20
264.112488
 11
171.491257
 21
246.112503
  0
CIRCLE
  8
0
  6
CONTINUOUS
 10
171.491257
 20
254.362503
 40
3.250000
  0
LINE
  8
0
  6
CENTER
 10
103.491249
 20
264.112488
 11
103.491249
 21
246.112503
  0
CIRCLE
  8
0
  6
CONTINUOUS
 10
103.491249
 20
254.362503
 40
3.250000
  0
LINE
  8
0
  6
CENTER
 10
162.991257
 20
254.362503
 11
182.116257
 21
254.362503
  0
LINE
  8
0
  6
CONTINUOUS
 10
97.497749
 20
183.362503
 11
177.484741
 21
183.362503
  0
LINE
  8
0
  6
CONTINUOUS
 10
179.222321
 20
170.310150
 11
179.991257
 21
214.362503
  0
LINE
  8
0
  6
CONTINUOUS
 10
98.759613
 20
167.362503
 11
129.991257
 21
167.362503
  0
ARC
  8
0
  6
CONTINUOUS
 10
176.222763
 20
170.362503
 40
3.000000
 50
-90.000000
 51
-1.000000
  0
LINE
  8
0
  6
CONTINUOUS
 10
95.760071
 20
170.310150
 11
95.535690
 21
183.166595
  0
ARC
  8
0
  6
CONTINUOUS
 10
177.484741
 20
185.362503
 40
2.000000
 50
-90.000000
 51
-1.000000
  0
ARC
  8
0
  6
CONTINUOUS
 10
97.497749
 20
185.362503
 40
2.000000
 50
-179.000000
 51
-90.000000
  0
ARC
  8
0
  6
CONTINUOUS
 10
98.759613
 20
170.362503
 40
3.000000
 50
-179.000153
 51
-90.000000
  0
LINE
  8
0
  6
CONTINUOUS
 10
22.491249
 20
176.362503
 11
92.991249
 21
176.362503
  0
LINE
  8
0
  6
CONTINUOUS
 10
22.491249
 20
191.362503
 11
98.410927
 21
191.362503
  0
LINE
  8
0
  6
CENTER
 10
93.616249
 20
174.362503
 11
111.241249
 21
174.362503
  0
LINE
  8
0
  6
CENTER
 10
171.491257
 20
164.612503
 11
171.491257
 21
182.612503
  0
CIRCLE
  8
0
  6
CONTINUOUS
 10
171.491257
 20
174.362503
 40
3.250000
  0
LINE
  8
0
  6
CENTER
 10
103.491249
 20
164.612503
 11
103.491249
 21
182.612503
  0
CIRCLE
  8
0
  6
CONTINUOUS
 10
103.491249
 20
174.362503
 40
3.250000
  0
LINE
  8
0
  6
CENTER
 10
162.991257
 20
174.362503
 11
182.116257
 21
174.362503
  0
LINE
  8
0
  6
CENTER
 10
137.491257
 20
112.824997
 11
137.491257
 21
-3.175000
  0
LINE
  8
0
  6
CONTINUOUS
 10
129.991257
 20
150.362503
 11
129.991257
 21
177.362503
  0
LINE
  8
0
  6
CONTINUOUS
 10
129.991257
 20
150.362503
 11
146.991257
 21
150.362503
  0
LINE
  8
0
  6
CONTINUOUS
 10
128.991257
 20
177.362503
 11
145.991257
 21
177.362503
  0
LINE
  8
0
  6
CONTINUOUS
 10
117.491249
 20
248.362503
 11
117.491249
 21
245.362503
  0
LINE
  8
0
  6
CONTINUOUS
 10
157.491257
 20
248.362503
 11
157.491257
 21
245.362503
  0
LINE
  8
0
  6
CONTINUOUS
 10
156.491257
 20
249.362503
 11
118.491249
 21
249.362503
  0
ARC
  8
0
  6
CONTINUOUS
 10
118.491249
 20
248.362503
 40
1.000000
 50
90.000000
 51
180.000000
  0
ARC
  8
0
  6
CONTINUOUS
 10
156.491257
 20
248.362503
 40
1.000000
 50
0.000000
 51
90.000000
  0
LINE
  8
0
  6
CONTINUOUS
 10
117.491249
 20
180.362503
 11
117.491249
 21
183.362503
  0
LINE
  8
0
  6
CONTINUOUS
 10
157.491257
 20
180.362503
 11
157.491257
 21
183.362503
  0
LINE
  8
0
  6
CONTINUOUS
 10
156.491257
 20
179.362503
 11
118.491249
 21
179.362503
  0
ARC
  8
0
  6
CONTINUOUS
 10
118.491249
 20
180.362503
 40
1.000000
 50
180.000000
 51
270.000000
  0
ARC
  8
0
  6
CONTINUOUS
 10
156.491257
 20
180.362503
 40
1.000000
 50
-90.000000
 51
0.000000
  0
LINE
  8
0
  6
CONTINUOUS
 10
128.991257
 20
177.362503
 11
128.991257
 21
179.362503
  0
LINE
  8
0
  6
CONTINUOUS
 10
145.991257
 20
177.362503
 11
145.991257
 21
179.362503
  0
LINE
  8
0
  6
CONTINUOUS
 10
146.991257
 20
167.362503
 11
176.222763
 21
167.362503
  0
LINE
  8
0
  6
CONTINUOUS
 10
146.991257
 20
261.362488
 11
176.222763
 21
261.362488
  0
LINE
  8
0
  6
CONTINUOUS
 10
146.991257
 20
174.362503
 11
146.991257
 21
150.362503
  0
LINE
  8
0
  6
CONTINUOUS
 10
144.562256
 20
174.362503
 11
144.562256
 21
150.362503
  0
LINE
  8
0
  6
CONTINUOUS
 10
144.562256
 20
174.362503
 11
146.991257
 21
174.362503
  0
LINE
  8
0
  6
CONTINUOUS
 10
144.991257
 20
174.362503
 11
144.991257
 21
177.362503
  0
LINE
  8
0
  6
CONTINUOUS
 10
129.991257
 20
278.362488
 11
129.991257
 21
251.362503
  0
LINE
  8
0
  6
CONTINUOUS
 10
129.991257
 20
278.362488
 11
146.991257
 21
278.362488
  0
LINE
  8
0
  6
CONTINUOUS
 10
128.991257
 20
251.362503
 11
145.991257
 21
251.362503
  0
LINE
  8
0
  6
CONTINUOUS
 10
128.991257
 20
251.362503
 11
128.991257
 21
249.362503
  0
LINE
  8
0
  6
CONTINUOUS
 10
145.991257
 20
251.362503
 11
145.991257
 21
249.362503
  0
LINE
  8
0
  6
CONTINUOUS
 10
146.991257
 20
254.362503
 11
146.991257
 21
278.362488
  0
LINE
  8
0
  6
CONTINUOUS
 10
144.562256
 20
254.362503
 11
144.562256
 21
278.362488
  0
LINE
  8
0
  6
CONTINUOUS
 10
144.562256
 20
254.362503
 11
146.991257
 21
254.362503
  0
LINE
  8
0
  6
CONTINUOUS
 10
144.991257
 20
254.362503
 11
144.991257
 21
251.362503
  0
LINE
  8
0
  6
CONTINUOUS
 10
152.491257
 20
243.397400
 11
152.491257
 21
185.327591
  0
LINE
  8
0
  6
CONTINUOUS
 10
122.491249
 20
243.397400
 11
122.491249
 21
185.327591
  0
LINE
  8
0
  6
CONTINUOUS
 10
94.991249
 20
250.362503
 11
94.991249
 21
246.714661
  0
LINE
  8
0
  6
CONTINUOUS
 10
98.410927
 20
193.362503
 11
98.410927
 21
235.362778
  0
ARC
  8
0
  6
CONTINUOUS
 10
92.991249
 20
250.362503
 40
2.000000
 50
0.000000
 51
90.000000
  0
ARC
  8
0
  6
CONTINUOUS
 10
96.491249
 20
246.714661
 40
1.500000
 50
180.000000
 51
286.712646
  0
LINE
  8
0
  6
CONTINUOUS
 10
95.497978
 20
243.397400
 11
95.392654
 21
237.362503
  0
LINE
  8
0
  6
CONTINUOUS
 10
94.991249
 20
178.362503
 11
94.991249
 21
182.010345
  0
ARC
  8
0
  6
CONTINUOUS
 10
92.991249
 20
178.362503
 40
2.000000
 50
-90.000000
 51
0.000000
  0
ARC
  8
0
  6
CONTINUOUS
 10
96.491249
 20
182.010345
 40
1.500000
 50
-286.712646
 51
-180.000000
  0
LINE
  8
0
  6
CONTINUOUS
 10
95.497978
 20
185.327606
 11
95.392654
 21
191.362503
  0
LINE
  8
0
  6
CONTINUOUS
 10
22.491249
 20
221.228531
 11
22.491249
 21
252.362503
  0
LINE
  8
0
  6
CONTINUOUS
 10
15.991250
 20
208.362503
 11
15.991250
 21
220.362503
  0
LINE
  8
0
  6
CONTINUOUS
 10
22.991249
 20
208.362503
 11
22.991249
 21
220.362503
  0
LINE
  8
0
  6
CONTINUOUS
 10
16.991249
 20
221.362503
 11
21.991249
 21
221.362503
  0
LINE
  8
0
  6
CONTINUOUS
 10
21.991249
 20
207.362503
 11
16.991249
 21
207.362503
  0
ARC
  8
0
  6
CONTINUOUS
 10
21.991249
 20
220.362503
 40
1.000000
 50
0.000000
 51
90.000000
  0
ARC
  8
0
  6
CONTINUOUS
 10
16.991249
 20
220.362503
 40
1.000000
 50
90.000000
 51
180.000000
  0
ARC
  8
0
  6
CONTINUOUS
 10
16.991249
 20
208.362503
 40
1.000000
 50
180.000000
 51
270.000000
  0
ARC
  8
0
  6
CONTINUOUS
 10
21.991249
 20
208.362503
 40
1.000000
 50
-90.000000
 51
0.000000
  0
LINE
  8
0
  6
CONTINUOUS
 10
20.491249
 20
210.862503
 11
20.491249
 21
217.862503
  0
LINE
  8
0
  6
CONTINUOUS
 10
18.491249
 20
210.862503
 11
18.491249
 21
217.862503
  0
ARC
  8
0
  6
CONTINUOUS
 10
19.491249
 20
217.862503
 40
1.000000
 50
90.000000
 51
180.000000
  0
ARC
  8
0
  6
CONTINUOUS
 10
19.491249
 20
217.862503
 40
1.000000
 50
0.000000
 51
90.000000
  0
ARC
  8
0
  6
CONTINUOUS
 10
19.491249
 20
210.862503
 40
1.000000
 50
180.000000
 51
270.000000
  0
ARC
  8
0
  6
CONTINUOUS
 10
19.491249
 20
210.862503
 40
1.000000
 50
-90.000000
 51
0.000000
  0
TEXT
  8
0
 10
-8.000000
 20
-3.000000
 40
4.000000
 41
1.000000
  1
HLM-15T-10~240-S15W
 50
0.000000
  0
ENDSEC
  0
EOF
