  0
SECTION
  2
HEADER
  9
$CLAYER
  8
1
  9
$LTSCALE
 40
3.0
  0
ENDSEC
  0
SECTION
  2
TABLES
  0
TABLE
  2
LTYPE
 70
     4
  0
LTYPE
  2
CONTINUOUS
  3
solid line
 70
    64
 72
    65
 73
     0
 40
0.0
  0
LTYPE
  2
DASHED
  3
__ __ __ __ __ __ __ __ __ __ __ __ __ __ __
 70
    64
 72
    65
 73
     2
 40
0.75
 49
0.5
 49
-0.25
  0
LTYPE
  2
CENTER
  3
____ _ ____ _ ____ _ ____ _ ____ _ ____ _ ____
 70
    64
 72
    65
 73
     4
 40
2.0
 49
1.25
 49
-0.25
 49
0.25
 49
-0.25
  0
LTYPE
  2
PHANTOM
  3
_____ _ _ _____ _ _ _____ _ _ _____ _ _ ____
 70
    64
 72
    65
 73
     6
 40
2.5
 49
1.25
 49
-0.25
 49
0.25
 49
-0.25
 49
0.25
 49
-0.25
  0
ENDTAB
  0
TABLE
  2
LAYER
 70
     1
  0
LAYER
  2
0
 70
    64
 62
     7
  6
CONTINUOUS
  0
ENDTAB
  0
TABLE
  2
STYLE
 70
     1
  0
STYLE
  2
STANDARD
 70
     0
 40
0.000000
 41
1.000000
 50
0.000000
 71
     0
 42
3.000000
  3
txt
  4
BIGFONT
  0
ENDTAB
  0
ENDSEC
  0
SECTION
  2
BLOCKS
  0
ENDSEC
  0
SECTION
  2
ENTITIES
  0
LINE
  8
0
  6
CENTER
 10
137.117493
 20
298.883759
 11
137.117493
 21
162.383743
  0
LINE
  8
0
  6
CENTER
 10
-8.382500
 20
230.383743
 11
190.857498
 21
230.383743
  0
LINE
  8
0
  6
CONTINUOUS
 10
97.124001
 20
261.383759
 11
177.110992
 21
261.383759
  0
LINE
  8
0
  6
CONTINUOUS
 10
178.848557
 20
274.436096
 11
179.617493
 21
230.383743
  0
LINE
  8
0
  6
CONTINUOUS
 10
98.385864
 20
277.383759
 11
129.617493
 21
277.383759
  0
ARC
  8
0
  6
CONTINUOUS
 10
175.849014
 20
274.383759
 40
3.000000
 50
1.000000
 51
90.000000
  0
LINE
  8
0
  6
CONTINUOUS
 10
95.386322
 20
274.436096
 11
95.161942
 21
261.579651
  0
ARC
  8
0
  6
CONTINUOUS
 10
177.110992
 20
259.383759
 40
2.000000
 50
1.000000
 51
90.000000
  0
ARC
  8
0
  6
CONTINUOUS
 10
97.124001
 20
259.383759
 40
2.000000
 50
90.000000
 51
179.000000
  0
ARC
  8
0
  6
CONTINUOUS
 10
98.385864
 20
274.383759
 40
3.000000
 50
90.000000
 51
179.000153
  0
LINE
  8
0
  6
CONTINUOUS
 10
92.617500
 20
268.383759
 11
22.117500
 21
268.383759
  0
LINE
  8
0
  6
CONTINUOUS
 10
63.117489
 20
253.383743
 11
98.037178
 21
253.383743
  0
LINE
  8
0
  6
CENTER
 10
93.242500
 20
270.383759
 11
110.867500
 21
270.383759
  0
LINE
  8
0
  6
CENTER
 10
171.117493
 20
280.133759
 11
171.117493
 21
262.133759
  0
CIRCLE
  8
0
  6
CONTINUOUS
 10
171.117493
 20
270.383759
 40
3.250000
  0
LINE
  8
0
  6
CENTER
 10
103.117500
 20
280.133759
 11
103.117500
 21
262.133759
  0
CIRCLE
  8
0
  6
CONTINUOUS
 10
103.117500
 20
270.383759
 40
3.250000
  0
LINE
  8
0
  6
CENTER
 10
162.617493
 20
270.383759
 11
181.742493
 21
270.383759
  0
LINE
  8
0
  6
CONTINUOUS
 10
97.124001
 20
199.383743
 11
177.110992
 21
199.383743
  0
LINE
  8
0
  6
CONTINUOUS
 10
178.848557
 20
186.331390
 11
179.617493
 21
230.383743
  0
LINE
  8
0
  6
CONTINUOUS
 10
98.385864
 20
183.383743
 11
129.617493
 21
183.383743
  0
ARC
  8
0
  6
CONTINUOUS
 10
175.849014
 20
186.383743
 40
3.000000
 50
-90.000000
 51
-1.000000
  0
LINE
  8
0
  6
CONTINUOUS
 10
95.386322
 20
186.331406
 11
95.161942
 21
199.187836
  0
ARC
  8
0
  6
CONTINUOUS
 10
177.110992
 20
201.383743
 40
2.000000
 50
-90.000000
 51
-1.000000
  0
ARC
  8
0
  6
CONTINUOUS
 10
97.124001
 20
201.383743
 40
2.000000
 50
-179.000000
 51
-90.000000
  0
ARC
  8
0
  6
CONTINUOUS
 10
98.385864
 20
186.383743
 40
3.000000
 50
-179.000153
 51
-90.000000
  0
LINE
  8
0
  6
CONTINUOUS
 10
22.117500
 20
192.383743
 11
92.617500
 21
192.383743
  0
LINE
  8
0
  6
CONTINUOUS
 10
63.117493
 20
207.383743
 11
98.037178
 21
207.383743
  0
LINE
  8
0
  6
CENTER
 10
93.242500
 20
190.383743
 11
110.867500
 21
190.383743
  0
LINE
  8
0
  6
CENTER
 10
171.117493
 20
180.633743
 11
171.117493
 21
198.633743
  0
CIRCLE
  8
0
  6
CONTINUOUS
 10
171.117493
 20
190.383743
 40
3.250000
  0
LINE
  8
0
  6
CENTER
 10
103.117500
 20
180.633743
 11
103.117500
 21
198.633743
  0
CIRCLE
  8
0
  6
CONTINUOUS
 10
103.117500
 20
190.383743
 40
3.250000
  0
LINE
  8
0
  6
CENTER
 10
162.617493
 20
190.383743
 11
181.742493
 21
190.383743
  0
LINE
  8
0
  6
CONTINUOUS
 10
129.617493
 20
166.383743
 11
129.617493
 21
193.383743
  0
LINE
  8
0
  6
CONTINUOUS
 10
129.617493
 20
166.383743
 11
146.617493
 21
166.383743
  0
LINE
  8
0
  6
CONTINUOUS
 10
128.617493
 20
193.383743
 11
145.617493
 21
193.383743
  0
LINE
  8
0
  6
CONTINUOUS
 10
117.117500
 20
264.383759
 11
117.117500
 21
261.383759
  0
LINE
  8
0
  6
CONTINUOUS
 10
157.117508
 20
264.383759
 11
157.117508
 21
261.383759
  0
LINE
  8
0
  6
CONTINUOUS
 10
156.117508
 20
265.383759
 11
118.117500
 21
265.383759
  0
ARC
  8
0
  6
CONTINUOUS
 10
118.117500
 20
264.383759
 40
1.000000
 50
90.000000
 51
180.000000
  0
ARC
  8
0
  6
CONTINUOUS
 10
156.117508
 20
264.383759
 40
1.000000
 50
0.000000
 51
90.000000
  0
LINE
  8
0
  6
CONTINUOUS
 10
117.117500
 20
196.383743
 11
117.117500
 21
199.383743
  0
LINE
  8
0
  6
CONTINUOUS
 10
157.117508
 20
196.383743
 11
157.117508
 21
199.383743
  0
LINE
  8
0
  6
CONTINUOUS
 10
156.117508
 20
195.383743
 11
118.117500
 21
195.383743
  0
ARC
  8
0
  6
CONTINUOUS
 10
118.117500
 20
196.383743
 40
1.000000
 50
180.000000
 51
270.000000
  0
ARC
  8
0
  6
CONTINUOUS
 10
156.117508
 20
196.383743
 40
1.000000
 50
-90.000000
 51
0.000000
  0
LINE
  8
0
  6
CONTINUOUS
 10
128.617493
 20
193.383743
 11
128.617493
 21
195.383743
  0
LINE
  8
0
  6
CONTINUOUS
 10
145.617493
 20
193.383743
 11
145.617493
 21
195.383743
  0
LINE
  8
0
  6
CONTINUOUS
 10
146.617493
 20
183.383743
 11
175.849014
 21
183.383743
  0
LINE
  8
0
  6
CONTINUOUS
 10
146.617493
 20
277.383759
 11
175.849014
 21
277.383759
  0
LINE
  8
0
  6
CONTINUOUS
 10
146.617493
 20
190.383743
 11
146.617493
 21
166.383743
  0
LINE
  8
0
  6
CONTINUOUS
 10
144.188507
 20
190.383743
 11
144.188507
 21
166.383743
  0
LINE
  8
0
  6
CONTINUOUS
 10
144.188507
 20
190.383743
 11
146.617493
 21
190.383743
  0
LINE
  8
0
  6
CONTINUOUS
 10
144.617493
 20
190.383743
 11
144.617493
 21
193.383743
  0
LINE
  8
0
  6
CONTINUOUS
 10
129.617493
 20
294.383759
 11
129.617493
 21
267.383759
  0
LINE
  8
0
  6
CONTINUOUS
 10
129.617493
 20
294.383759
 11
146.617493
 21
294.383759
  0
LINE
  8
0
  6
CONTINUOUS
 10
128.617493
 20
267.383759
 11
145.617493
 21
267.383759
  0
LINE
  8
0
  6
CONTINUOUS
 10
128.617493
 20
267.383759
 11
128.617493
 21
265.383759
  0
LINE
  8
0
  6
CONTINUOUS
 10
145.617493
 20
267.383759
 11
145.617493
 21
265.383759
  0
LINE
  8
0
  6
CONTINUOUS
 10
146.617493
 20
270.383759
 11
146.617493
 21
294.383759
  0
LINE
  8
0
  6
CONTINUOUS
 10
144.188507
 20
270.383759
 11
144.188507
 21
294.383759
  0
LINE
  8
0
  6
CONTINUOUS
 10
144.188507
 20
270.383759
 11
146.617493
 21
270.383759
  0
LINE
  8
0
  6
CONTINUOUS
 10
144.617493
 20
270.383759
 11
144.617493
 21
267.383759
  0
LINE
  8
0
  6
CONTINUOUS
 10
152.117493
 20
259.418640
 11
152.117493
 21
201.348846
  0
LINE
  8
0
  6
CONTINUOUS
 10
122.117500
 20
259.418640
 11
122.117500
 21
201.348846
  0
LINE
  8
0
  6
CONTINUOUS
 10
94.617500
 20
266.383759
 11
94.617500
 21
262.735901
  0
LINE
  8
0
  6
CONTINUOUS
 10
98.037178
 20
209.383743
 11
98.037178
 21
251.384018
  0
ARC
  8
0
  6
CONTINUOUS
 10
92.617500
 20
266.383759
 40
2.000000
 50
0.000000
 51
90.000000
  0
ARC
  8
0
  6
CONTINUOUS
 10
96.117500
 20
262.735901
 40
1.500000
 50
180.000000
 51
286.712646
  0
LINE
  8
0
  6
CONTINUOUS
 10
95.124229
 20
259.418640
 11
95.018906
 21
253.383743
  0
LINE
  8
0
  6
CONTINUOUS
 10
94.617500
 20
194.383743
 11
94.617500
 21
198.031586
  0
ARC
  8
0
  6
CONTINUOUS
 10
92.617500
 20
194.383743
 40
2.000000
 50
-90.000000
 51
0.000000
  0
ARC
  8
0
  6
CONTINUOUS
 10
96.117500
 20
198.031586
 40
1.500000
 50
-286.712646
 51
-180.000000
  0
LINE
  8
0
  6
CONTINUOUS
 10
95.124229
 20
201.348846
 11
95.018906
 21
207.383743
  0
LINE
  8
0
  6
CONTINUOUS
 10
22.117500
 20
268.383759
 11
22.117500
 21
255.383743
  0
LINE
  8
0
  6
CONTINUOUS
 10
22.117500
 20
268.383759
 11
5.581610
 21
268.383759
  0
LINE
  8
0
  6
CONTINUOUS
 10
2.117500
 20
265.383759
 11
2.117500
 21
195.383743
  0
LINE
  8
0
  6
CONTINUOUS
 10
22.117500
 20
192.383743
 11
5.581610
 21
192.383743
  0
LINE
  8
0
  6
CONTINUOUS
 10
13.117500
 20
207.383743
 11
3.699130
 21
207.383743
  0
LINE
  8
0
  6
CONTINUOUS
 10
13.117500
 20
253.383743
 11
3.699130
 21
253.383743
  0
LINE
  8
0
  6
CONTINUOUS
 10
2.983520
 20
266.883759
 11
2.117500
 21
265.383759
  0
ARC
  8
0
  6
CONTINUOUS
 10
5.581610
 20
265.383759
 40
3.000000
 50
90.000000
 51
150.000397
  0
LINE
  8
0
  6
CONTINUOUS
 10
2.983520
 20
193.883743
 11
2.117500
 21
195.383743
  0
ARC
  8
0
  6
CONTINUOUS
 10
5.581610
 20
195.383743
 40
3.000000
 50
-150.000397
 51
-90.000000
  0
LINE
  8
0
  6
CONTINUOUS
 10
1.617500
 20
262.383759
 11
1.617500
 21
198.383743
  0
LINE
  8
0
  6
CONTINUOUS
 10
1.617500
 20
262.383759
 11
2.117500
 21
262.883759
  0
LINE
  8
0
  6
CONTINUOUS
 10
1.617500
 20
198.383743
 11
2.117500
 21
197.883743
  0
LINE
  8
0
  6
CONTINUOUS
 10
22.117500
 20
205.383743
 11
22.117500
 21
192.383743
  0
LINE
  8
0
  6
CONTINUOUS
 10
1.617500
 20
14.036250
 11
1.617500
 21
78.036247
  0
LINE
  8
0
  6
CONTINUOUS
 10
5.581597
 20
84.036247
 11
22.117500
 21
84.036247
  0
LINE
  8
0
  6
CONTINUOUS
 10
5.581603
 20
8.036250
 11
22.117500
 21
8.036250
  0
LINE
  8
0
  6
CONTINUOUS
 10
2.117500
 20
11.036250
 11
2.117500
 21
81.036247
  0
LINE
  8
0
  6
CONTINUOUS
 10
1.617500
 20
78.036247
 11
2.117500
 21
78.536247
  0
LINE
  8
0
  6
CONTINUOUS
 10
1.617500
 20
14.036250
 11
2.117500
 21
13.536250
  0
LINE
  8
0
  6
CONTINUOUS
 10
2.983518
 20
82.536240
 11
2.117500
 21
81.036247
  0
ARC
  8
0
  6
CONTINUOUS
 10
5.581608
 20
81.036263
 40
3.000000
 50
90.000000
 51
150.000397
  0
LINE
  8
0
  6
CONTINUOUS
 10
2.983518
 20
9.536260
 11
2.117500
 21
11.036250
  0
ARC
  8
0
  6
CONTINUOUS
 10
5.581608
 20
11.036240
 40
3.000000
 50
-150.000397
 51
-90.000000
  0
LINE
  8
0
  6
CONTINUOUS
 10
3.699136
 20
76.285248
 11
22.117500
 21
76.285248
  0
LINE
  8
0
  6
CONTINUOUS
 10
22.117500
 20
15.787250
 11
3.699136
 21
15.787250
  0
LINE
  8
0
  6
CONTINUOUS
 10
22.117500
 20
8.036250
 11
22.117500
 21
84.036247
  0
LINE
  8
0
  6
CENTER
 10
-6.792500
 20
46.036251
 11
115.904373
 21
46.036251
  0
LINE
  8
0
  6
CONTINUOUS
 10
179.617493
 20
79.036827
 11
179.617493
 21
3.336250
  0
LINE
  8
0
  6
CONTINUOUS
 10
94.617500
 20
79.036850
 11
94.617500
 21
3.336250
  0
LINE
  8
0
  6
CONTINUOUS
 10
22.117500
 20
84.036247
 11
98.037201
 21
84.036247
  0
LINE
  8
0
  6
CONTINUOUS
 10
22.117500
 20
8.036250
 11
94.617500
 21
8.036250
  0
LINE
  8
0
  6
CENTER
 10
137.117493
 20
110.223747
 11
137.117493
 21
-3.463750
  0
LINE
  8
0
  6
CENTER
 10
111.756874
 20
68.336250
 11
160.867493
 21
68.336250
  0
LINE
  8
0
  6
CONTINUOUS
 10
94.617500
 20
3.336250
 11
179.617493
 21
3.336250
  0
LINE
  8
0
  6
CONTINUOUS
 10
123.696999
 20
100.936249
 11
150.537994
 21
100.936249
  0
LINE
  8
0
  6
CONTINUOUS
 10
177.489807
 20
83.129509
 11
153.410294
 21
100.028908
  0
LINE
  8
0
  6
CONTINUOUS
 10
96.745193
 20
83.129509
 11
120.824600
 21
100.028900
  0
ARC
  8
0
  6
CONTINUOUS
 10
150.538101
 20
95.936241
 40
5.000000
 50
54.938431
 51
90.000000
  0
ARC
  8
0
  6
CONTINUOUS
 10
123.696999
 20
95.936256
 40
5.000000
 50
90.000000
 51
125.062202
  0
ARC
  8
0
  6
CONTINUOUS
 10
174.617493
 20
79.036827
 40
5.000000
 50
0.000000
 51
54.938370
  0
ARC
  8
0
  6
CONTINUOUS
 10
99.617500
 20
79.036873
 40
5.000000
 50
125.062302
 51
180.000000
  0
LINE
  8
0
  6
CONTINUOUS
 10
96.617508
 20
11.336250
 11
177.617493
 21
11.336250
  0
LINE
  8
0
  6
CENTER
 10
171.117493
 20
14.723750
 11
171.117493
 21
-1.026250
  0
LINE
  8
0
  6
CENTER
 10
103.117500
 20
14.723750
 11
103.117500
 21
-0.776250
  0
LINE
  8
0
  6
DASHED
 10
106.367500
 20
11.336250
 11
106.367500
 21
3.336250
  0
LINE
  8
0
  6
DASHED
 10
99.867500
 20
11.336250
 11
99.867500
 21
3.336250
  0
LINE
  8
0
  6
DASHED
 10
174.367493
 20
11.336250
 11
174.367493
 21
3.336250
  0
LINE
  8
0
  6
DASHED
 10
167.867493
 20
11.336250
 11
167.867493
 21
3.336250
  0
LINE
  8
0
  6
CONTINUOUS
 10
177.117493
 20
69.697647
 11
177.117493
 21
40.975113
  0
LINE
  8
0
  6
CONTINUOUS
 10
97.117500
 20
69.697517
 11
97.117500
 21
40.974712
  0
ARC
  8
0
  6
CONTINUOUS
 10
137.117493
 20
55.336250
 40
42.500000
 50
199.749893
 51
340.250092
  0
ARC
  8
0
  6
CONTINUOUS
 10
137.117493
 20
55.336250
 40
42.500000
 50
19.749901
 51
160.250107
  0
LINE
  8
0
  6
CONTINUOUS
 10
146.617493
 20
70.836250
 11
146.617493
 21
65.836250
  0
LINE
  8
0
  6
CONTINUOUS
 10
141.617493
 20
65.836250
 11
141.617493
 21
70.836250
  0
LINE
  8
0
  6
CONTINUOUS
 10
141.617493
 20
70.836250
 11
146.617493
 21
70.836250
  0
LINE
  8
0
  6
CONTINUOUS
 10
141.617493
 20
65.836250
 11
146.617493
 21
65.836250
  0
ARC
  8
0
  6
CONTINUOUS
 10
137.117493
 20
68.336250
 40
7.500000
 50
19.471210
 51
340.528809
  0
ARC
  8
0
  6
CONTINUOUS
 10
177.617493
 20
9.336240
 40
2.000000
 50
0.000000
 51
90.000000
  0
ARC
  8
0
  6
CONTINUOUS
 10
96.617508
 20
9.336260
 40
2.000000
 50
90.000000
 51
180.000000
  0
CIRCLE
  8
0
  6
CONTINUOUS
 10
137.367493
 20
68.286247
 40
20.000000
  0
LINE
  8
0
  6
CONTINUOUS
 10
22.117451
 20
76.285248
 11
94.617493
 21
76.285248
  0
LINE
  8
0
  6
CONTINUOUS
 10
22.117451
 20
15.787250
 11
94.617493
 21
15.787250
  0
LINE
  8
0
  6
CONTINUOUS
 10
130.742493
 20
37.889473
 11
130.742493
 21
32.336250
  0
LINE
  8
0
  6
CONTINUOUS
 10
133.929993
 20
39.906563
 11
133.929993
 21
41.898750
  0
LINE
  8
0
  6
CONTINUOUS
 10
140.304993
 20
39.906563
 11
140.304993
 21
41.898750
  0
LINE
  8
0
  6
CONTINUOUS
 10
136.494904
 20
40.728340
 11
136.494904
 21
33.382149
  0
LINE
  8
0
  6
CONTINUOUS
 10
137.690308
 20
40.728340
 11
137.690308
 21
33.382149
  0
LINE
  8
0
  6
CONTINUOUS
 10
143.965607
 20
40.728340
 11
143.965607
 21
33.332340
  0
LINE
  8
0
  6
CONTINUOUS
 10
145.061295
 20
36.806221
 11
145.061295
 21
33.332340
  0
LINE
  8
0
  6
CONTINUOUS
 10
129.229996
 20
40.628731
 11
126.158096
 21
40.628731
  0
LINE
  8
0
  6
CONTINUOUS
 10
126.158096
 20
40.628731
 11
125.438301
 21
39.736229
  0
LINE
  8
0
  6
CONTINUOUS
 10
125.524902
 20
41.898750
 11
124.367500
 21
40.416752
  0
LINE
  8
0
  6
CONTINUOUS
 10
125.438301
 20
34.227169
 11
126.169601
 21
33.456848
  0
LINE
  8
0
  6
CONTINUOUS
 10
124.367500
 20
33.577110
 11
125.597298
 21
32.336250
  0
LINE
  8
0
  6
CONTINUOUS
 10
124.367500
 20
40.416752
 11
124.367500
 21
33.577110
  0
LINE
  8
0
  6
CONTINUOUS
 10
125.438301
 20
39.736229
 11
125.438301
 21
34.227169
  0
LINE
  8
0
  6
CONTINUOUS
 10
129.821106
 20
40.057285
 11
129.217896
 21
40.628731
  0
LINE
  8
0
  6
CONTINUOUS
 10
129.811493
 20
41.898750
 11
130.742493
 21
40.865608
  0
LINE
  8
0
  6
CONTINUOUS
 10
129.821106
 20
39.906563
 11
130.742493
 21
39.906563
  0
LINE
  8
0
  6
CONTINUOUS
 10
125.524902
 20
41.898750
 11
129.811493
 21
41.898750
  0
LINE
  8
0
  6
CONTINUOUS
 10
129.821106
 20
36.843575
 11
128.152695
 21
36.843575
  0
LINE
  8
0
  6
CONTINUOUS
 10
129.821106
 20
35.847481
 11
129.821106
 21
36.644356
  0
LINE
  8
0
  6
CONTINUOUS
 10
127.828903
 20
33.456848
 11
126.169601
 21
33.456848
  0
ARC
  8
0
  6
CONTINUOUS
 10
127.828903
 20
35.449039
 40
1.992187
 50
-89.999786
 51
0.000109
  0
LINE
  8
0
  6
CONTINUOUS
 10
129.821106
 20
33.098511
 11
129.821106
 21
32.336250
  0
LINE
  8
0
  6
CONTINUOUS
 10
130.742493
 20
40.865608
 11
130.742493
 21
39.906563
  0
LINE
  8
0
  6
CONTINUOUS
 10
129.821106
 20
36.843575
 11
129.821106
 21
35.449039
  0
LINE
  8
0
  6
CONTINUOUS
 10
128.152695
 20
37.889473
 11
128.152695
 21
36.843575
  0
LINE
  8
0
  6
CONTINUOUS
 10
129.821106
 20
32.336250
 11
130.742493
 21
32.336250
  0
LINE
  8
0
  6
CONTINUOUS
 10
129.821106
 20
33.098511
 11
128.912598
 21
32.336250
  0
LINE
  8
0
  6
CONTINUOUS
 10
137.690308
 20
33.382149
 11
138.088699
 21
33.382149
  0
LINE
  8
0
  6
CONTINUOUS
 10
136.021805
 20
33.382149
 11
136.021805
 21
32.336250
  0
LINE
  8
0
  6
CONTINUOUS
 10
138.088699
 20
33.382149
 11
138.088699
 21
32.336250
  0
LINE
  8
0
  6
CONTINUOUS
 10
139.639999
 20
39.906563
 11
140.304993
 21
39.906563
  0
LINE
  8
0
  6
CONTINUOUS
 10
133.929993
 20
39.906563
 11
134.637604
 21
39.906563
  0
LINE
  8
0
  6
CONTINUOUS
 10
133.929993
 20
41.898750
 11
140.304993
 21
41.898750
  0
LINE
  8
0
  6
CONTINUOUS
 10
136.021805
 20
32.336250
 11
138.088699
 21
32.336250
  0
LINE
  8
0
  6
CONTINUOUS
 10
136.021805
 20
33.382149
 11
136.494904
 21
33.382149
  0
ARC
  8
0
  6
CONTINUOUS
 10
147.315002
 20
39.346260
 40
2.552490
 50
-73.981873
 51
90.003510
  0
ARC
  8
0
  6
CONTINUOUS
 10
147.315002
 20
39.346260
 40
1.557193
 50
-82.585274
 51
62.411850
  0
LINE
  8
0
  6
CONTINUOUS
 10
143.492493
 20
41.898750
 11
147.315002
 21
41.898750
  0
LINE
  8
0
  6
CONTINUOUS
 10
143.492493
 20
41.898750
 11
143.492493
 21
40.728340
  0
LINE
  8
0
  6
CONTINUOUS
 10
145.061295
 20
40.728340
 11
145.061295
 21
37.802086
  0
LINE
  8
0
  6
CONTINUOUS
 10
148.019302
 20
36.892872
 11
149.599197
 21
33.332340
  0
LINE
  8
0
  6
CONTINUOUS
 10
147.101807
 20
36.806221
 11
148.596802
 21
33.332340
  0
LINE
  8
0
  6
CONTINUOUS
 10
143.492493
 20
33.332340
 11
143.965607
 21
33.332340
  0
LINE
  8
0
  6
CONTINUOUS
 10
145.061295
 20
33.332340
 11
145.497101
 21
33.332340
  0
LINE
  8
0
  6
CONTINUOUS
 10
145.497101
 20
32.336250
 11
143.492493
 21
32.336250
  0
LINE
  8
0
  6
CONTINUOUS
 10
148.398300
 20
33.332340
 11
148.596802
 21
33.332340
  0
LINE
  8
0
  6
CONTINUOUS
 10
149.599197
 20
33.332340
 11
149.867493
 21
33.332340
  0
LINE
  8
0
  6
CONTINUOUS
 10
148.398300
 20
32.336250
 11
149.867493
 21
32.336250
  0
LINE
  8
0
  6
CONTINUOUS
 10
149.867493
 20
33.332340
 11
149.867493
 21
32.336250
  0
LINE
  8
0
  6
CONTINUOUS
 10
148.398300
 20
33.332340
 11
148.398300
 21
32.336250
  0
LINE
  8
0
  6
CONTINUOUS
 10
145.497101
 20
33.332340
 11
145.497101
 21
32.336250
  0
LINE
  8
0
  6
CONTINUOUS
 10
143.492493
 20
33.332340
 11
143.492493
 21
32.336250
  0
LINE
  8
0
  6
CONTINUOUS
 10
134.979996
 20
40.728340
 11
134.637604
 21
39.906563
  0
LINE
  8
0
  6
CONTINUOUS
 10
139.351303
 20
40.728340
 11
139.639999
 21
39.906563
  0
LINE
  8
0
  6
CONTINUOUS
 10
137.690308
 20
40.728340
 11
139.351303
 21
40.728340
  0
LINE
  8
0
  6
CONTINUOUS
 10
136.494904
 20
40.728340
 11
134.979996
 21
40.728340
  0
LINE
  8
0
  6
CONTINUOUS
 10
143.492493
 20
40.728340
 11
143.965607
 21
40.728340
  0
LINE
  8
0
  6
CONTINUOUS
 10
145.061295
 20
40.728340
 11
148.036194
 21
40.726402
  0
LINE
  8
0
  6
CONTINUOUS
 10
129.821106
 20
40.057285
 11
129.821106
 21
39.906563
  0
LINE
  8
0
  6
CONTINUOUS
 10
125.597298
 20
32.336250
 11
128.912598
 21
32.336250
  0
LINE
  8
0
  6
CONTINUOUS
 10
145.061295
 20
37.802086
 11
147.516006
 21
37.802086
  0
LINE
  8
0
  6
CONTINUOUS
 10
145.061295
 20
36.806221
 11
147.101807
 21
36.806221
  0
LINE
  8
0
  6
CONTINUOUS
 10
128.152695
 20
37.889473
 11
130.742493
 21
37.889473
  0
LINE
  8
0
  6
CENTER
 10
317.117493
 20
-3.026250
 11
317.117493
 21
141.466873
  0
LINE
  8
0
  6
CENTER
 10
244.023804
 20
68.336250
 11
388.566101
 21
68.336250
  0
LINE
  8
0
  6
CONTINUOUS
 10
270.117493
 20
3.336250
 11
364.117493
 21
3.336250
  0
LINE
  8
0
  6
CONTINUOUS
 10
351.117493
 20
11.336250
 11
362.117493
 21
11.336250
  0
LINE
  8
0
  6
CONTINUOUS
 10
364.117493
 20
9.336250
 11
364.117493
 21
3.336250
  0
LINE
  8
0
  6
CENTER
 10
357.117493
 20
14.223750
 11
357.117493
 21
-2.776250
  0
LINE
  8
0
  6
CONTINUOUS
 10
253.117493
 20
75.836250
 11
280.117493
 21
75.836250
  0
LINE
  8
0
  6
CONTINUOUS
 10
253.117493
 20
60.836250
 11
280.117493
 21
60.836250
  0
LINE
  8
0
  6
CONTINUOUS
 10
253.117493
 20
75.836250
 11
253.117493
 21
60.836250
  0
LINE
  8
0
  6
CONTINUOUS
 10
253.117493
 20
70.836250
 11
274.617493
 21
70.836250
  0
LINE
  8
0
  6
CONTINUOUS
 10
253.117493
 20
65.836250
 11
274.617493
 21
65.836250
  0
LINE
  8
0
  6
CONTINUOUS
 10
280.117493
 20
76.836250
 11
280.117493
 21
59.836250
  0
ARC
  8
0
  6
CONTINUOUS
 10
274.617493
 20
68.336243
 40
2.500000
 50
0.000000
 51
90.000000
  0
ARC
  8
0
  6
CONTINUOUS
 10
274.617493
 20
68.336250
 40
2.500000
 50
-90.000000
 51
0.000000
  0
LINE
  8
0
  6
CONTINUOUS
 10
286.117493
 20
14.336250
 11
286.117493
 21
98.429649
  0
LINE
  8
0
  6
CONTINUOUS
 10
348.117493
 20
14.336250
 11
348.117493
 21
98.429764
  0
LINE
  8
0
  6
CONTINUOUS
 10
346.152405
 20
100.429459
 11
317.117493
 21
100.936256
  0
LINE
  8
0
  6
CONTINUOUS
 10
288.082611
 20
100.429352
 11
317.117493
 21
100.936256
  0
ARC
  8
0
  6
CONTINUOUS
 10
346.117493
 20
98.429764
 40
2.000000
 50
0.000000
 51
89.000137
  0
ARC
  8
0
  6
CONTINUOUS
 10
288.117493
 20
98.429657
 40
2.000000
 50
91.000641
 51
180.000000
  0
LINE
  8
0
  6
CONTINUOUS
 10
351.117493
 20
88.336250
 11
348.117493
 21
88.336250
  0
LINE
  8
0
  6
CONTINUOUS
 10
351.117493
 20
48.336250
 11
348.117493
 21
48.336250
  0
LINE
  8
0
  6
CONTINUOUS
 10
352.117493
 20
49.336250
 11
352.117493
 21
87.336250
  0
ARC
  8
0
  6
CONTINUOUS
 10
351.117493
 20
87.336250
 40
1.000000
 50
0.000000
 51
90.000000
  0
ARC
  8
0
  6
CONTINUOUS
 10
351.117493
 20
49.336246
 40
1.000000
 50
-90.000000
 51
0.000000
  0
LINE
  8
0
  6
CONTINUOUS
 10
283.117493
 20
11.336250
 11
272.117493
 21
11.336250
  0
LINE
  8
0
  6
CONTINUOUS
 10
270.117493
 20
9.336250
 11
270.117493
 21
3.336250
  0
LINE
  8
0
  6
CENTER
 10
277.117493
 20
13.973750
 11
277.117493
 21
-0.276250
  0
LINE
  8
0
  6
DASHED
 10
360.367493
 20
11.336250
 11
360.367493
 21
3.336250
  0
LINE
  8
0
  6
DASHED
 10
353.867493
 20
11.336250
 11
353.867493
 21
3.336250
  0
LINE
  8
0
  6
DASHED
 10
280.367493
 20
11.336250
 11
280.367493
 21
3.336250
  0
LINE
  8
0
  6
DASHED
 10
273.867493
 20
11.336250
 11
273.867493
 21
3.336250
  0
ARC
  8
0
  6
CONTINUOUS
 10
362.117493
 20
9.336240
 40
2.000000
 50
0.000000
 51
90.000000
  0
ARC
  8
0
  6
CONTINUOUS
 10
272.117493
 20
9.336260
 40
2.000000
 50
90.000000
 51
180.000000
  0
LINE
  8
0
  6
CONTINUOUS
 10
287.791199
 20
81.636261
 11
346.509888
 21
81.636261
  0
LINE
  8
0
  6
CONTINUOUS
 10
283.117493
 20
88.336250
 11
286.117493
 21
88.336250
  0
LINE
  8
0
  6
CONTINUOUS
 10
283.117493
 20
48.336250
 11
286.117493
 21
48.336250
  0
LINE
  8
0
  6
CONTINUOUS
 10
282.117493
 20
49.336250
 11
282.117493
 21
87.336250
  0
ARC
  8
0
  6
CONTINUOUS
 10
283.117493
 20
87.336250
 40
1.000000
 50
90.000000
 51
180.000000
  0
ARC
  8
0
  6
CONTINUOUS
 10
283.117493
 20
49.336246
 40
1.000000
 50
180.000000
 51
270.000000
  0
LINE
  8
0
  6
CONTINUOUS
 10
381.117493
 20
75.836250
 11
354.117493
 21
75.836250
  0
LINE
  8
0
  6
CONTINUOUS
 10
381.117493
 20
60.836250
 11
354.117493
 21
60.836250
  0
LINE
  8
0
  6
CONTINUOUS
 10
381.117493
 20
75.836250
 11
381.117493
 21
60.836250
  0
LINE
  8
0
  6
CONTINUOUS
 10
381.117493
 20
70.836250
 11
359.617493
 21
70.836250
  0
LINE
  8
0
  6
CONTINUOUS
 10
381.117493
 20
65.836250
 11
359.617493
 21
65.836250
  0
LINE
  8
0
  6
CONTINUOUS
 10
354.117493
 20
76.836250
 11
354.117493
 21
59.836250
  0
ARC
  8
0
  6
CONTINUOUS
 10
359.617493
 20
68.336243
 40
2.500000
 50
90.000000
 51
180.000000
  0
ARC
  8
0
  6
CONTINUOUS
 10
359.617493
 20
68.336250
 40
2.500000
 50
180.000000
 51
270.000000
  0
ARC
  8
0
  6
CONTINUOUS
 10
317.117493
 20
46.036251
 40
38.000000
 50
-35.334469
 51
21.294241
  0
ARC
  8
0
  6
CONTINUOUS
 10
317.117493
 20
46.036251
 40
38.000000
 50
158.705795
 51
215.334503
  0
LINE
  8
0
  6
CENTER
 10
272.752899
 20
46.036251
 11
362.329102
 21
46.036251
  0
LINE
  8
0
  6
CONTINUOUS
 10
352.117493
 20
76.836250
 11
354.117493
 21
76.836250
  0
LINE
  8
0
  6
CONTINUOUS
 10
352.117493
 20
59.836250
 11
354.117493
 21
59.836250
  0
LINE
  8
0
  6
CONTINUOUS
 10
280.117493
 20
76.836250
 11
282.117493
 21
76.836250
  0
LINE
  8
0
  6
CONTINUOUS
 10
280.117493
 20
59.836250
 11
282.117493
 21
59.836250
  0
ARC
  8
0
  6
CONTINUOUS
 10
283.117493
 20
14.336240
 40
3.000000
 50
-90.000000
 51
0.000000
  0
ARC
  8
0
  6
CONTINUOUS
 10
351.117493
 20
14.336250
 40
3.000000
 50
180.000000
 51
270.000000
  0
LINE
  8
0
  6
CONTINUOUS
 10
13.117500
 20
207.383743
 11
13.117500
 21
253.383743
  0
LINE
  8
0
  6
CONTINUOUS
 10
15.117500
 20
255.383743
 11
13.117500
 21
253.383743
  0
LINE
  8
0
  6
CONTINUOUS
 10
15.117500
 20
255.383743
 11
61.117489
 21
255.383743
  0
LINE
  8
0
  6
CONTINUOUS
 10
55.617500
 20
250.883743
 11
55.617500
 21
255.383743
  0
ARC
  8
0
  6
CONTINUOUS
 10
58.617500
 20
250.883743
 40
3.000000
 50
180.000000
 51
270.000000
  0
LINE
  8
0
  6
CONTINUOUS
 10
58.617500
 20
247.883743
 11
63.117489
 21
247.883743
  0
CIRCLE
  8
0
  6
CONTINUOUS
 10
59.617500
 20
251.883743
 40
2.250000
  0
LINE
  8
0
  6
CONTINUOUS
 10
63.117493
 20
207.383743
 11
63.117489
 21
253.383743
  0
LINE
  8
0
  6
CONTINUOUS
 10
61.117489
 20
255.383743
 11
63.117489
 21
253.383743
  0
LINE
  8
0
  6
CONTINUOUS
 10
61.117493
 20
205.383743
 11
63.117493
 21
207.383743
  0
LINE
  8
0
  6
CONTINUOUS
 10
61.117493
 20
205.383743
 11
15.117500
 21
205.383743
  0
LINE
  8
0
  6
CONTINUOUS
 10
13.117500
 20
207.383743
 11
15.117500
 21
205.383743
  0
LINE
  8
0
  6
CONTINUOUS
 10
17.617500
 20
212.883743
 11
13.117510
 21
212.883743
  0
CIRCLE
  8
0
  6
CONTINUOUS
 10
16.617500
 20
208.883743
 40
2.250000
  0
ARC
  8
0
  6
CONTINUOUS
 10
17.617500
 20
209.883743
 40
3.000000
 50
0.000000
 51
90.000000
  0
LINE
  8
0
  6
CONTINUOUS
 10
20.617500
 20
209.883743
 11
20.617500
 21
205.383743
  0
LINE
  8
0
  6
CENTER
 10
38.117500
 20
197.917969
 11
38.117500
 21
262.049988
  0
LINE
  8
0
  6
CONTINUOUS
 10
14.117506
 20
212.883743
 11
14.117506
 21
247.883743
  0
LINE
  8
0
  6
CONTINUOUS
 10
55.617500
 20
254.383743
 11
20.617500
 21
254.383743
  0
LINE
  8
0
  6
CONTINUOUS
 10
62.117493
 20
247.883743
 11
62.117493
 21
212.883743
  0
LINE
  8
0
  6
CONTINUOUS
 10
20.617500
 20
206.383743
 11
55.617500
 21
206.383743
  0
LINE
  8
0
  6
CONTINUOUS
 10
17.617500
 20
247.883743
 11
13.117500
 21
247.883743
  0
ARC
  8
0
  6
CONTINUOUS
 10
17.617500
 20
250.883743
 40
3.000000
 50
-90.000000
 51
0.000000
  0
LINE
  8
0
  6
CONTINUOUS
 10
20.617500
 20
250.883743
 11
20.617500
 21
255.383743
  0
CIRCLE
  8
0
  6
CONTINUOUS
 10
16.617500
 20
251.883743
 40
2.250000
  0
ARC
  8
0
  6
CONTINUOUS
 10
58.617500
 20
209.883743
 40
3.000000
 50
90.000000
 51
180.000000
  0
LINE
  8
0
  6
CONTINUOUS
 10
55.617500
 20
209.883743
 11
55.617500
 21
205.383759
  0
LINE
  8
0
  6
CONTINUOUS
 10
58.617500
 20
212.883743
 11
63.117500
 21
212.883743
  0
CIRCLE
  8
0
  6
CONTINUOUS
 10
59.617500
 20
208.883743
 40
2.250000
  0
LINE
  8
0
  6
CONTINUOUS
 10
342.117493
 20
129.536255
 11
342.117493
 21
100.499893
  0
LINE
  8
0
  6
CONTINUOUS
 10
292.117493
 20
129.536255
 11
292.117493
 21
100.499786
  0
LINE
  8
0
  6
CONTINUOUS
 10
293.117493
 20
130.536255
 11
341.117493
 21
130.536255
  0
LINE
  8
0
  6
CONTINUOUS
 10
341.117493
 20
130.536255
 11
342.117493
 21
129.536255
  0
LINE
  8
0
  6
CONTINUOUS
 10
293.117493
 20
130.536255
 11
292.117493
 21
129.536255
  0
LINE
  8
0
  6
CONTINUOUS
 10
292.117493
 20
129.536255
 11
342.117493
 21
129.536255
  0
LINE
  8
0
  6
CONTINUOUS
 10
14.617500
 20
85.536247
 11
61.117500
 21
85.536247
  0
LINE
  8
0
  6
CONTINUOUS
 10
63.117481
 20
129.536255
 11
63.117500
 21
87.536247
  0
LINE
  8
0
  6
CONTINUOUS
 10
13.117500
 20
129.536255
 11
13.117500
 21
87.536247
  0
LINE
  8
0
  6
CONTINUOUS
 10
13.117500
 20
97.536247
 11
63.117500
 21
97.536247
  0
LINE
  8
0
  6
CONTINUOUS
 10
61.117500
 20
85.536247
 11
63.117500
 21
87.536247
  0
LINE
  8
0
  6
CONTINUOUS
 10
13.117500
 20
87.536247
 11
15.117500
 21
85.536247
  0
LINE
  8
0
  6
CONTINUOUS
 10
13.117500
 20
87.536247
 11
63.117500
 21
87.536247
  0
LINE
  8
0
  6
CONTINUOUS
 10
13.117500
 20
98.536247
 11
63.117481
 21
98.536247
  0
LINE
  8
0
  6
CONTINUOUS
 10
14.117500
 20
130.536255
 11
62.117481
 21
130.536255
  0
LINE
  8
0
  6
CONTINUOUS
 10
62.117481
 20
130.536255
 11
63.117481
 21
129.536255
  0
LINE
  8
0
  6
CONTINUOUS
 10
14.117500
 20
130.536255
 11
13.117500
 21
129.536255
  0
LINE
  8
0
  6
CONTINUOUS
 10
13.117500
 20
129.536255
 11
63.117481
 21
129.536255
  0
LINE
  8
0
  6
CENTER
 10
38.117500
 20
79.146744
 11
38.117500
 21
136.838745
  0
LINE
  8
0
  6
CENTER
 10
10.742500
 20
113.536247
 11
15.367500
 21
113.536247
  0
LINE
  8
0
  6
CONTINUOUS
 10
14.617500
 20
85.536247
 11
14.617500
 21
84.036247
  0
LINE
  8
0
  6
CONTINUOUS
 10
60.617500
 20
85.536247
 11
60.617500
 21
84.036247
  0
LINE
  8
0
  6
CONTINUOUS
 10
12.242500
 20
124.036247
 11
14.242500
 21
124.036247
  0
LINE
  8
0
  6
CONTINUOUS
 10
12.242500
 20
103.036247
 11
14.242500
 21
103.036247
  0
TEXT
  8
0
 10
-8.000000
 20
-3.000000
 40
4.000000
 41
1.000000
  1
HLM-15T-10~240-S25K
 50
0.000000
  0
ENDSEC
  0
EOF
