  0
SECTION
  2
HEADER
  9
$CLAYER
  8
1
  9
$LTSCALE
 40
3.0
  0
ENDSEC
  0
SECTION
  2
TABLES
  0
TABLE
  2
LTYPE
 70
     4
  0
LTYPE
  2
CONTINUOUS
  3
solid line
 70
    64
 72
    65
 73
     0
 40
0.0
  0
LTYPE
  2
DASHED
  3
__ __ __ __ __ __ __ __ __ __ __ __ __ __ __
 70
    64
 72
    65
 73
     2
 40
0.75
 49
0.5
 49
-0.25
  0
LTYPE
  2
CENTER
  3
____ _ ____ _ ____ _ ____ _ ____ _ ____ _ ____
 70
    64
 72
    65
 73
     4
 40
2.0
 49
1.25
 49
-0.25
 49
0.25
 49
-0.25
  0
LTYPE
  2
PHANTOM
  3
_____ _ _ _____ _ _ _____ _ _ _____ _ _ ____
 70
    64
 72
    65
 73
     6
 40
2.5
 49
1.25
 49
-0.25
 49
0.25
 49
-0.25
 49
0.25
 49
-0.25
  0
ENDTAB
  0
TABLE
  2
LAYER
 70
     1
  0
LAYER
  2
0
 70
    64
 62
     7
  6
CONTINUOUS
  0
ENDTAB
  0
TABLE
  2
STYLE
 70
     1
  0
STYLE
  2
STANDARD
 70
     0
 40
0.000000
 41
1.000000
 50
0.000000
 71
     0
 42
3.000000
  3
txt
  4
BIGFONT
  0
ENDTAB
  0
ENDSEC
  0
SECTION
  2
BLOCKS
  0
ENDSEC
  0
SECTION
  2
ENTITIES
  0
LINE
  8
0
  6
CENTER
 10
137.712494
 20
300.973755
 11
137.712494
 21
164.473755
  0
LINE
  8
0
  6
CENTER
 10
-7.787500
 20
232.473755
 11
191.452499
 21
232.473755
  0
LINE
  8
0
  6
CONTINUOUS
 10
97.719002
 20
263.473755
 11
177.705994
 21
263.473755
  0
LINE
  8
0
  6
CONTINUOUS
 10
179.443558
 20
276.526093
 11
180.212494
 21
232.473755
  0
LINE
  8
0
  6
CONTINUOUS
 10
98.980865
 20
279.473755
 11
130.212494
 21
279.473755
  0
ARC
  8
0
  6
CONTINUOUS
 10
176.444016
 20
276.473755
 40
3.000000
 50
1.000000
 51
90.000000
  0
LINE
  8
0
  6
CONTINUOUS
 10
95.981323
 20
276.526093
 11
95.756943
 21
263.669647
  0
ARC
  8
0
  6
CONTINUOUS
 10
177.705994
 20
261.473755
 40
2.000000
 50
1.000000
 51
90.000000
  0
ARC
  8
0
  6
CONTINUOUS
 10
97.719002
 20
261.473755
 40
2.000000
 50
90.000000
 51
179.000000
  0
ARC
  8
0
  6
CONTINUOUS
 10
98.980865
 20
276.473755
 40
3.000000
 50
90.000000
 51
179.000153
  0
LINE
  8
0
  6
CONTINUOUS
 10
93.212502
 20
270.473755
 11
22.712500
 21
270.473755
  0
LINE
  8
0
  6
CONTINUOUS
 10
63.712490
 20
255.473755
 11
98.632179
 21
255.473755
  0
LINE
  8
0
  6
CENTER
 10
93.837502
 20
272.473755
 11
111.462502
 21
272.473755
  0
LINE
  8
0
  6
CENTER
 10
171.712494
 20
282.223755
 11
171.712494
 21
264.223755
  0
CIRCLE
  8
0
  6
CONTINUOUS
 10
171.712494
 20
272.473755
 40
3.250000
  0
LINE
  8
0
  6
CENTER
 10
103.712502
 20
282.223755
 11
103.712502
 21
264.223755
  0
CIRCLE
  8
0
  6
CONTINUOUS
 10
103.712502
 20
272.473755
 40
3.250000
  0
LINE
  8
0
  6
CENTER
 10
163.212494
 20
272.473755
 11
182.337494
 21
272.473755
  0
LINE
  8
0
  6
CONTINUOUS
 10
97.719002
 20
201.473755
 11
177.705994
 21
201.473755
  0
LINE
  8
0
  6
CONTINUOUS
 10
179.443558
 20
188.421387
 11
180.212494
 21
232.473755
  0
LINE
  8
0
  6
CONTINUOUS
 10
98.980865
 20
185.473755
 11
130.212494
 21
185.473755
  0
ARC
  8
0
  6
CONTINUOUS
 10
176.444016
 20
188.473755
 40
3.000000
 50
-90.000000
 51
-1.000000
  0
LINE
  8
0
  6
CONTINUOUS
 10
95.981323
 20
188.421402
 11
95.756943
 21
201.277847
  0
ARC
  8
0
  6
CONTINUOUS
 10
177.705994
 20
203.473755
 40
2.000000
 50
-90.000000
 51
-1.000000
  0
ARC
  8
0
  6
CONTINUOUS
 10
97.719002
 20
203.473755
 40
2.000000
 50
-179.000000
 51
-90.000000
  0
ARC
  8
0
  6
CONTINUOUS
 10
98.980865
 20
188.473755
 40
3.000000
 50
-179.000153
 51
-90.000000
  0
LINE
  8
0
  6
CONTINUOUS
 10
22.712500
 20
194.473755
 11
93.212502
 21
194.473755
  0
LINE
  8
0
  6
CONTINUOUS
 10
63.712494
 20
209.473755
 11
98.632179
 21
209.473755
  0
LINE
  8
0
  6
CENTER
 10
93.837502
 20
192.473755
 11
111.462502
 21
192.473755
  0
LINE
  8
0
  6
CENTER
 10
171.712494
 20
182.723755
 11
171.712494
 21
200.723755
  0
CIRCLE
  8
0
  6
CONTINUOUS
 10
171.712494
 20
192.473755
 40
3.250000
  0
LINE
  8
0
  6
CENTER
 10
103.712502
 20
182.723755
 11
103.712502
 21
200.723755
  0
CIRCLE
  8
0
  6
CONTINUOUS
 10
103.712502
 20
192.473755
 40
3.250000
  0
LINE
  8
0
  6
CENTER
 10
163.212494
 20
192.473755
 11
182.337494
 21
192.473755
  0
LINE
  8
0
  6
CONTINUOUS
 10
130.212494
 20
168.473755
 11
130.212494
 21
195.473755
  0
LINE
  8
0
  6
CONTINUOUS
 10
130.212494
 20
168.473755
 11
147.212494
 21
168.473755
  0
LINE
  8
0
  6
CONTINUOUS
 10
129.212494
 20
195.473755
 11
146.212494
 21
195.473755
  0
LINE
  8
0
  6
CONTINUOUS
 10
117.712502
 20
266.473755
 11
117.712502
 21
263.473755
  0
LINE
  8
0
  6
CONTINUOUS
 10
157.712494
 20
266.473755
 11
157.712494
 21
263.473755
  0
LINE
  8
0
  6
CONTINUOUS
 10
156.712494
 20
267.473755
 11
118.712502
 21
267.473755
  0
ARC
  8
0
  6
CONTINUOUS
 10
118.712502
 20
266.473755
 40
1.000000
 50
90.000000
 51
180.000000
  0
ARC
  8
0
  6
CONTINUOUS
 10
156.712509
 20
266.473755
 40
1.000000
 50
0.000000
 51
90.000000
  0
LINE
  8
0
  6
CONTINUOUS
 10
117.712502
 20
198.473755
 11
117.712502
 21
201.473755
  0
LINE
  8
0
  6
CONTINUOUS
 10
157.712494
 20
198.473755
 11
157.712494
 21
201.473755
  0
LINE
  8
0
  6
CONTINUOUS
 10
156.712494
 20
197.473755
 11
118.712502
 21
197.473755
  0
ARC
  8
0
  6
CONTINUOUS
 10
118.712502
 20
198.473755
 40
1.000000
 50
180.000000
 51
270.000000
  0
ARC
  8
0
  6
CONTINUOUS
 10
156.712509
 20
198.473755
 40
1.000000
 50
-90.000000
 51
0.000000
  0
LINE
  8
0
  6
CONTINUOUS
 10
129.212494
 20
195.473755
 11
129.212494
 21
197.473755
  0
LINE
  8
0
  6
CONTINUOUS
 10
146.212494
 20
195.473755
 11
146.212494
 21
197.473755
  0
LINE
  8
0
  6
CONTINUOUS
 10
147.212494
 20
185.473755
 11
176.444016
 21
185.473755
  0
LINE
  8
0
  6
CONTINUOUS
 10
147.212494
 20
279.473755
 11
176.444016
 21
279.473755
  0
LINE
  8
0
  6
CONTINUOUS
 10
147.212494
 20
192.473755
 11
147.212494
 21
168.473755
  0
LINE
  8
0
  6
CONTINUOUS
 10
144.783493
 20
192.473755
 11
144.783493
 21
168.473755
  0
LINE
  8
0
  6
CONTINUOUS
 10
144.783493
 20
192.473755
 11
147.212494
 21
192.473755
  0
LINE
  8
0
  6
CONTINUOUS
 10
145.212494
 20
192.473755
 11
145.212494
 21
195.473755
  0
LINE
  8
0
  6
CONTINUOUS
 10
130.212494
 20
296.473755
 11
130.212494
 21
269.473755
  0
LINE
  8
0
  6
CONTINUOUS
 10
130.212494
 20
296.473755
 11
147.212494
 21
296.473755
  0
LINE
  8
0
  6
CONTINUOUS
 10
129.212494
 20
269.473755
 11
146.212494
 21
269.473755
  0
LINE
  8
0
  6
CONTINUOUS
 10
129.212494
 20
269.473755
 11
129.212494
 21
267.473755
  0
LINE
  8
0
  6
CONTINUOUS
 10
146.212494
 20
269.473755
 11
146.212494
 21
267.473755
  0
LINE
  8
0
  6
CONTINUOUS
 10
147.212494
 20
272.473755
 11
147.212494
 21
296.473755
  0
LINE
  8
0
  6
CONTINUOUS
 10
144.783493
 20
272.473755
 11
144.783493
 21
296.473755
  0
LINE
  8
0
  6
CONTINUOUS
 10
144.783493
 20
272.473755
 11
147.212494
 21
272.473755
  0
LINE
  8
0
  6
CONTINUOUS
 10
145.212494
 20
272.473755
 11
145.212494
 21
269.473755
  0
LINE
  8
0
  6
CONTINUOUS
 10
152.712494
 20
261.508667
 11
152.712494
 21
203.438843
  0
LINE
  8
0
  6
CONTINUOUS
 10
122.712502
 20
261.508667
 11
122.712502
 21
203.438843
  0
LINE
  8
0
  6
CONTINUOUS
 10
95.212502
 20
268.473755
 11
95.212502
 21
264.825897
  0
LINE
  8
0
  6
CONTINUOUS
 10
98.632179
 20
211.473755
 11
98.632179
 21
253.474030
  0
ARC
  8
0
  6
CONTINUOUS
 10
93.212502
 20
268.473755
 40
2.000000
 50
0.000000
 51
90.000000
  0
ARC
  8
0
  6
CONTINUOUS
 10
96.712502
 20
264.825897
 40
1.500000
 50
180.000000
 51
286.712646
  0
LINE
  8
0
  6
CONTINUOUS
 10
95.719231
 20
261.508636
 11
95.613907
 21
255.473755
  0
LINE
  8
0
  6
CONTINUOUS
 10
95.212502
 20
196.473755
 11
95.212502
 21
200.121597
  0
ARC
  8
0
  6
CONTINUOUS
 10
93.212502
 20
196.473755
 40
2.000000
 50
-90.000000
 51
0.000000
  0
ARC
  8
0
  6
CONTINUOUS
 10
96.712502
 20
200.121597
 40
1.500000
 50
-286.712646
 51
-180.000000
  0
LINE
  8
0
  6
CONTINUOUS
 10
95.719231
 20
203.438843
 11
95.613907
 21
209.473755
  0
LINE
  8
0
  6
CONTINUOUS
 10
22.712500
 20
270.473755
 11
22.712500
 21
257.473755
  0
LINE
  8
0
  6
CONTINUOUS
 10
22.712500
 20
270.473755
 11
6.176610
 21
270.473755
  0
LINE
  8
0
  6
CONTINUOUS
 10
2.712500
 20
267.473755
 11
2.712500
 21
197.473755
  0
LINE
  8
0
  6
CONTINUOUS
 10
22.712500
 20
194.473755
 11
6.176610
 21
194.473755
  0
LINE
  8
0
  6
CONTINUOUS
 10
13.712500
 20
209.473755
 11
4.294130
 21
209.473755
  0
LINE
  8
0
  6
CONTINUOUS
 10
13.712500
 20
255.473755
 11
4.294130
 21
255.473755
  0
LINE
  8
0
  6
CONTINUOUS
 10
3.578520
 20
268.973755
 11
2.712500
 21
267.473755
  0
ARC
  8
0
  6
CONTINUOUS
 10
6.176610
 20
267.473755
 40
3.000000
 50
90.000000
 51
150.000397
  0
LINE
  8
0
  6
CONTINUOUS
 10
3.578520
 20
195.973755
 11
2.712500
 21
197.473755
  0
ARC
  8
0
  6
CONTINUOUS
 10
6.176610
 20
197.473755
 40
3.000000
 50
-150.000397
 51
-90.000000
  0
LINE
  8
0
  6
CONTINUOUS
 10
2.212500
 20
264.473755
 11
2.212500
 21
200.473755
  0
LINE
  8
0
  6
CONTINUOUS
 10
2.212500
 20
264.473755
 11
2.712500
 21
264.973755
  0
LINE
  8
0
  6
CONTINUOUS
 10
2.212500
 20
200.473755
 11
2.712500
 21
199.973755
  0
LINE
  8
0
  6
CONTINUOUS
 10
22.712500
 20
207.473755
 11
22.712500
 21
194.473755
  0
LINE
  8
0
  6
CONTINUOUS
 10
12.712500
 20
239.973755
 11
13.712500
 21
239.973755
  0
ARC
  8
0
  6
CONTINUOUS
 10
12.712520
 20
238.973755
 40
1.000000
 50
90.000000
 51
180.000000
  0
LINE
  8
0
  6
CONTINUOUS
 10
8.212515
 20
236.473755
 11
8.212515
 21
228.473755
  0
LINE
  8
0
  6
CONTINUOUS
 10
8.212515
 20
236.473755
 11
11.712515
 21
237.973755
  0
LINE
  8
0
  6
CONTINUOUS
 10
8.212500
 20
228.473755
 11
11.712500
 21
226.973755
  0
LINE
  8
0
  6
CONTINUOUS
 10
11.712515
 20
238.973755
 11
11.712515
 21
225.973755
  0
LINE
  8
0
  6
CONTINUOUS
 10
12.712500
 20
224.973755
 11
13.712500
 21
224.973755
  0
ARC
  8
0
  6
CONTINUOUS
 10
12.712520
 20
225.973755
 40
1.000000
 50
-180.000000
 51
-90.000000
  0
LINE
  8
0
  6
CONTINUOUS
 10
13.712500
 20
209.473755
 11
13.712500
 21
255.473755
  0
LINE
  8
0
  6
CONTINUOUS
 10
15.712500
 20
257.473755
 11
13.712500
 21
255.473755
  0
LINE
  8
0
  6
CONTINUOUS
 10
15.712500
 20
257.473755
 11
61.712490
 21
257.473755
  0
LINE
  8
0
  6
CONTINUOUS
 10
56.212502
 20
252.973755
 11
56.212502
 21
257.473755
  0
ARC
  8
0
  6
CONTINUOUS
 10
59.212502
 20
252.973755
 40
3.000000
 50
180.000000
 51
270.000000
  0
LINE
  8
0
  6
CONTINUOUS
 10
59.212502
 20
249.973755
 11
63.712490
 21
249.973755
  0
CIRCLE
  8
0
  6
CONTINUOUS
 10
60.212502
 20
253.973755
 40
2.250000
  0
LINE
  8
0
  6
CONTINUOUS
 10
63.712494
 20
209.473755
 11
63.712490
 21
255.473755
  0
LINE
  8
0
  6
CONTINUOUS
 10
61.712490
 20
257.473755
 11
63.712490
 21
255.473755
  0
LINE
  8
0
  6
CONTINUOUS
 10
61.712494
 20
207.473755
 11
63.712494
 21
209.473755
  0
LINE
  8
0
  6
CONTINUOUS
 10
61.712494
 20
207.473755
 11
15.712500
 21
207.473755
  0
LINE
  8
0
  6
CONTINUOUS
 10
13.712500
 20
209.473755
 11
15.712500
 21
207.473755
  0
LINE
  8
0
  6
CONTINUOUS
 10
18.212500
 20
214.973755
 11
13.712510
 21
214.973755
  0
CIRCLE
  8
0
  6
CONTINUOUS
 10
17.212500
 20
210.973755
 40
2.250000
  0
ARC
  8
0
  6
CONTINUOUS
 10
18.212500
 20
211.973755
 40
3.000000
 50
0.000000
 51
90.000000
  0
LINE
  8
0
  6
CONTINUOUS
 10
21.212500
 20
211.973755
 11
21.212500
 21
207.473755
  0
LINE
  8
0
  6
CENTER
 10
38.712502
 20
200.007965
 11
38.712502
 21
264.140015
  0
LINE
  8
0
  6
CONTINUOUS
 10
16.126719
 20
256.473755
 11
14.712506
 21
255.059540
  0
LINE
  8
0
  6
CONTINUOUS
 10
14.712506
 20
214.973755
 11
14.712506
 21
255.059540
  0
LINE
  8
0
  6
CONTINUOUS
 10
56.212502
 20
256.473755
 11
16.126719
 21
256.473755
  0
LINE
  8
0
  6
CONTINUOUS
 10
62.712494
 20
249.973755
 11
62.712494
 21
209.887970
  0
LINE
  8
0
  6
CONTINUOUS
 10
21.212500
 20
208.473755
 11
61.298283
 21
208.473755
  0
LINE
  8
0
  6
CONTINUOUS
 10
61.298283
 20
208.473755
 11
62.712494
 21
209.887970
  0
LINE
  8
0
  6
CONTINUOUS
 10
2.212500
 20
16.126249
 11
2.212500
 21
80.126251
  0
LINE
  8
0
  6
CONTINUOUS
 10
6.176597
 20
86.126251
 11
22.712500
 21
86.126251
  0
LINE
  8
0
  6
CONTINUOUS
 10
6.176603
 20
10.126250
 11
22.712500
 21
10.126250
  0
LINE
  8
0
  6
CONTINUOUS
 10
2.712500
 20
13.126250
 11
2.712500
 21
83.126251
  0
LINE
  8
0
  6
CONTINUOUS
 10
2.212500
 20
80.126251
 11
2.712500
 21
80.626251
  0
LINE
  8
0
  6
CONTINUOUS
 10
2.212500
 20
16.126249
 11
2.712500
 21
15.626250
  0
LINE
  8
0
  6
CONTINUOUS
 10
3.578518
 20
84.626244
 11
2.712500
 21
83.126251
  0
ARC
  8
0
  6
CONTINUOUS
 10
6.176608
 20
83.126259
 40
3.000000
 50
90.000000
 51
150.000397
  0
LINE
  8
0
  6
CONTINUOUS
 10
3.578518
 20
11.626260
 11
2.712500
 21
13.126250
  0
ARC
  8
0
  6
CONTINUOUS
 10
6.176608
 20
13.126240
 40
3.000000
 50
-150.000397
 51
-90.000000
  0
LINE
  8
0
  6
CONTINUOUS
 10
4.294136
 20
78.375252
 11
22.712500
 21
78.375252
  0
LINE
  8
0
  6
CONTINUOUS
 10
22.712500
 20
17.877251
 11
4.294136
 21
17.877251
  0
LINE
  8
0
  6
CONTINUOUS
 10
22.712500
 20
10.126250
 11
22.712500
 21
86.126251
  0
LINE
  8
0
  6
CENTER
 10
-6.197500
 20
48.126251
 11
116.499374
 21
48.126251
  0
LINE
  8
0
  6
CONTINUOUS
 10
180.212494
 20
81.126831
 11
180.212494
 21
5.426250
  0
LINE
  8
0
  6
CONTINUOUS
 10
95.212502
 20
81.126846
 11
95.212502
 21
5.426250
  0
LINE
  8
0
  6
CONTINUOUS
 10
22.712500
 20
86.126251
 11
98.632202
 21
86.126251
  0
LINE
  8
0
  6
CONTINUOUS
 10
22.712500
 20
10.126250
 11
95.212502
 21
10.126250
  0
LINE
  8
0
  6
CENTER
 10
137.712494
 20
112.313751
 11
137.712494
 21
-1.373750
  0
LINE
  8
0
  6
CENTER
 10
107.635002
 20
70.426247
 11
166.416245
 21
70.426247
  0
LINE
  8
0
  6
CONTINUOUS
 10
95.212502
 20
5.426250
 11
180.212494
 21
5.426250
  0
LINE
  8
0
  6
CONTINUOUS
 10
124.292000
 20
103.026253
 11
151.132996
 21
103.026253
  0
LINE
  8
0
  6
CONTINUOUS
 10
178.084793
 20
85.219513
 11
154.005295
 21
102.118912
  0
LINE
  8
0
  6
CONTINUOUS
 10
97.340187
 20
85.219513
 11
121.419601
 21
102.118896
  0
ARC
  8
0
  6
CONTINUOUS
 10
151.133102
 20
98.026237
 40
5.000000
 50
54.938431
 51
90.000000
  0
ARC
  8
0
  6
CONTINUOUS
 10
124.292000
 20
98.026260
 40
5.000000
 50
90.000000
 51
125.062202
  0
ARC
  8
0
  6
CONTINUOUS
 10
175.212494
 20
81.126831
 40
5.000000
 50
0.000000
 51
54.938370
  0
ARC
  8
0
  6
CONTINUOUS
 10
100.212502
 20
81.126869
 40
5.000000
 50
125.062302
 51
180.000000
  0
LINE
  8
0
  6
CONTINUOUS
 10
97.212509
 20
13.426250
 11
178.212494
 21
13.426250
  0
LINE
  8
0
  6
CENTER
 10
171.712494
 20
16.813749
 11
171.712494
 21
1.063750
  0
LINE
  8
0
  6
CENTER
 10
103.712502
 20
16.813749
 11
103.712502
 21
1.313750
  0
LINE
  8
0
  6
DASHED
 10
106.962502
 20
13.426250
 11
106.962502
 21
5.426250
  0
LINE
  8
0
  6
DASHED
 10
100.462502
 20
13.426250
 11
100.462502
 21
5.426250
  0
LINE
  8
0
  6
DASHED
 10
174.962494
 20
13.426250
 11
174.962494
 21
5.426250
  0
LINE
  8
0
  6
DASHED
 10
168.462494
 20
13.426250
 11
168.462494
 21
5.426250
  0
LINE
  8
0
  6
CONTINUOUS
 10
177.712494
 20
71.787651
 11
177.712494
 21
43.065113
  0
LINE
  8
0
  6
CONTINUOUS
 10
97.712502
 20
71.787521
 11
97.712502
 21
43.064713
  0
ARC
  8
0
  6
CONTINUOUS
 10
137.712494
 20
57.426250
 40
42.500000
 50
199.749893
 51
340.250092
  0
ARC
  8
0
  6
CONTINUOUS
 10
137.712494
 20
57.426250
 40
42.500000
 50
19.749901
 51
160.250107
  0
LINE
  8
0
  6
CONTINUOUS
 10
147.212494
 20
72.926247
 11
147.212494
 21
67.926247
  0
LINE
  8
0
  6
CONTINUOUS
 10
142.212494
 20
67.926247
 11
142.212494
 21
72.926247
  0
LINE
  8
0
  6
CONTINUOUS
 10
142.212494
 20
72.926247
 11
147.212494
 21
72.926247
  0
LINE
  8
0
  6
CONTINUOUS
 10
142.212494
 20
67.926247
 11
147.212494
 21
67.926247
  0
ARC
  8
0
  6
CONTINUOUS
 10
137.712494
 20
70.426247
 40
7.500000
 50
19.471210
 51
340.528809
  0
ARC
  8
0
  6
CONTINUOUS
 10
178.212494
 20
11.426240
 40
2.000000
 50
0.000000
 51
90.000000
  0
ARC
  8
0
  6
CONTINUOUS
 10
97.212509
 20
11.426260
 40
2.000000
 50
90.000000
 51
180.000000
  0
CIRCLE
  8
0
  6
CONTINUOUS
 10
137.962494
 20
70.376251
 40
20.000000
  0
LINE
  8
0
  6
CONTINUOUS
 10
119.525101
 20
78.126251
 11
119.525200
 21
78.126251
  0
LINE
  8
0
  6
CONTINUOUS
 10
22.712450
 20
78.375252
 11
95.212486
 21
78.375252
  0
LINE
  8
0
  6
CONTINUOUS
 10
22.712450
 20
17.877251
 11
95.212486
 21
17.877251
  0
LINE
  8
0
  6
CONTINUOUS
 10
131.337494
 20
39.979473
 11
131.337494
 21
34.426250
  0
LINE
  8
0
  6
CONTINUOUS
 10
134.524994
 20
41.996563
 11
134.524994
 21
43.988750
  0
LINE
  8
0
  6
CONTINUOUS
 10
140.899994
 20
41.996563
 11
140.899994
 21
43.988750
  0
LINE
  8
0
  6
CONTINUOUS
 10
137.089905
 20
42.818340
 11
137.089905
 21
35.472149
  0
LINE
  8
0
  6
CONTINUOUS
 10
138.285294
 20
42.818340
 11
138.285294
 21
35.472149
  0
LINE
  8
0
  6
CONTINUOUS
 10
144.560593
 20
42.818340
 11
144.560593
 21
35.422340
  0
LINE
  8
0
  6
CONTINUOUS
 10
145.656296
 20
38.896221
 11
145.656296
 21
35.422340
  0
LINE
  8
0
  6
CONTINUOUS
 10
129.824997
 20
42.718731
 11
126.753098
 21
42.718731
  0
LINE
  8
0
  6
CONTINUOUS
 10
126.753098
 20
42.718731
 11
126.033302
 21
41.826229
  0
LINE
  8
0
  6
CONTINUOUS
 10
126.119904
 20
43.988750
 11
124.962502
 21
42.506752
  0
LINE
  8
0
  6
CONTINUOUS
 10
126.033302
 20
36.317169
 11
126.764603
 21
35.546848
  0
LINE
  8
0
  6
CONTINUOUS
 10
124.962502
 20
35.667110
 11
126.192299
 21
34.426250
  0
LINE
  8
0
  6
CONTINUOUS
 10
124.962502
 20
42.506752
 11
124.962502
 21
35.667110
  0
LINE
  8
0
  6
CONTINUOUS
 10
126.033302
 20
41.826229
 11
126.033302
 21
36.317169
  0
LINE
  8
0
  6
CONTINUOUS
 10
130.416107
 20
42.147285
 11
129.812897
 21
42.718731
  0
LINE
  8
0
  6
CONTINUOUS
 10
130.406494
 20
43.988750
 11
131.337494
 21
42.955608
  0
LINE
  8
0
  6
CONTINUOUS
 10
130.416107
 20
41.996563
 11
131.337494
 21
41.996563
  0
LINE
  8
0
  6
CONTINUOUS
 10
126.119904
 20
43.988750
 11
130.406494
 21
43.988750
  0
LINE
  8
0
  6
CONTINUOUS
 10
130.416107
 20
38.933575
 11
128.747696
 21
38.933575
  0
LINE
  8
0
  6
CONTINUOUS
 10
130.416107
 20
37.937481
 11
130.416107
 21
38.734356
  0
LINE
  8
0
  6
CONTINUOUS
 10
128.423904
 20
35.546848
 11
126.764603
 21
35.546848
  0
ARC
  8
0
  6
CONTINUOUS
 10
128.423904
 20
37.539040
 40
1.992187
 50
-89.999786
 51
0.000109
  0
LINE
  8
0
  6
CONTINUOUS
 10
130.416107
 20
35.188511
 11
130.416107
 21
34.426250
  0
LINE
  8
0
  6
CONTINUOUS
 10
131.337494
 20
42.955608
 11
131.337494
 21
41.996563
  0
LINE
  8
0
  6
CONTINUOUS
 10
130.416107
 20
38.933575
 11
130.416107
 21
37.539040
  0
LINE
  8
0
  6
CONTINUOUS
 10
128.747696
 20
39.979473
 11
128.747696
 21
38.933575
  0
LINE
  8
0
  6
CONTINUOUS
 10
130.416107
 20
34.426250
 11
131.337494
 21
34.426250
  0
LINE
  8
0
  6
CONTINUOUS
 10
130.416107
 20
35.188511
 11
129.507599
 21
34.426250
  0
LINE
  8
0
  6
CONTINUOUS
 10
138.285294
 20
35.472149
 11
138.683701
 21
35.472149
  0
LINE
  8
0
  6
CONTINUOUS
 10
136.616806
 20
35.472149
 11
136.616806
 21
34.426250
  0
LINE
  8
0
  6
CONTINUOUS
 10
138.683701
 20
35.472149
 11
138.683701
 21
34.426250
  0
LINE
  8
0
  6
CONTINUOUS
 10
140.235001
 20
41.996563
 11
140.899994
 21
41.996563
  0
LINE
  8
0
  6
CONTINUOUS
 10
134.524994
 20
41.996563
 11
135.232605
 21
41.996563
  0
LINE
  8
0
  6
CONTINUOUS
 10
134.524994
 20
43.988750
 11
140.899994
 21
43.988750
  0
LINE
  8
0
  6
CONTINUOUS
 10
136.616806
 20
34.426250
 11
138.683701
 21
34.426250
  0
LINE
  8
0
  6
CONTINUOUS
 10
136.616806
 20
35.472149
 11
137.089905
 21
35.472149
  0
ARC
  8
0
  6
CONTINUOUS
 10
147.910004
 20
41.436260
 40
2.552490
 50
-73.981873
 51
90.003510
  0
ARC
  8
0
  6
CONTINUOUS
 10
147.910004
 20
41.436260
 40
1.557193
 50
-82.585274
 51
62.411850
  0
LINE
  8
0
  6
CONTINUOUS
 10
144.087494
 20
43.988750
 11
147.910004
 21
43.988750
  0
LINE
  8
0
  6
CONTINUOUS
 10
144.087494
 20
43.988750
 11
144.087494
 21
42.818340
  0
LINE
  8
0
  6
CONTINUOUS
 10
145.656296
 20
42.818340
 11
145.656296
 21
39.892086
  0
LINE
  8
0
  6
CONTINUOUS
 10
148.614304
 20
38.982872
 11
150.194199
 21
35.422340
  0
LINE
  8
0
  6
CONTINUOUS
 10
147.696793
 20
38.896221
 11
149.191803
 21
35.422340
  0
LINE
  8
0
  6
CONTINUOUS
 10
144.087494
 20
35.422340
 11
144.560593
 21
35.422340
  0
LINE
  8
0
  6
CONTINUOUS
 10
145.656296
 20
35.422340
 11
146.092102
 21
35.422340
  0
LINE
  8
0
  6
CONTINUOUS
 10
146.092102
 20
34.426250
 11
144.087494
 21
34.426250
  0
LINE
  8
0
  6
CONTINUOUS
 10
148.993301
 20
35.422340
 11
149.191803
 21
35.422340
  0
LINE
  8
0
  6
CONTINUOUS
 10
150.194199
 20
35.422340
 11
150.462494
 21
35.422340
  0
LINE
  8
0
  6
CONTINUOUS
 10
148.993301
 20
34.426250
 11
150.462494
 21
34.426250
  0
LINE
  8
0
  6
CONTINUOUS
 10
150.462494
 20
35.422340
 11
150.462494
 21
34.426250
  0
LINE
  8
0
  6
CONTINUOUS
 10
148.993301
 20
35.422340
 11
148.993301
 21
34.426250
  0
LINE
  8
0
  6
CONTINUOUS
 10
146.092102
 20
35.422340
 11
146.092102
 21
34.426250
  0
LINE
  8
0
  6
CONTINUOUS
 10
144.087494
 20
35.422340
 11
144.087494
 21
34.426250
  0
LINE
  8
0
  6
CONTINUOUS
 10
135.574997
 20
42.818340
 11
135.232605
 21
41.996563
  0
LINE
  8
0
  6
CONTINUOUS
 10
139.946304
 20
42.818340
 11
140.235001
 21
41.996563
  0
LINE
  8
0
  6
CONTINUOUS
 10
138.285294
 20
42.818340
 11
139.946304
 21
42.818340
  0
LINE
  8
0
  6
CONTINUOUS
 10
137.089905
 20
42.818340
 11
135.574997
 21
42.818340
  0
LINE
  8
0
  6
CONTINUOUS
 10
144.087494
 20
42.818340
 11
144.560593
 21
42.818340
  0
LINE
  8
0
  6
CONTINUOUS
 10
145.656296
 20
42.818340
 11
148.631195
 21
42.816402
  0
LINE
  8
0
  6
CONTINUOUS
 10
130.416107
 20
42.147285
 11
130.416107
 21
41.996563
  0
LINE
  8
0
  6
CONTINUOUS
 10
126.192299
 20
34.426250
 11
129.507599
 21
34.426250
  0
LINE
  8
0
  6
CONTINUOUS
 10
145.656296
 20
39.892086
 11
148.110992
 21
39.892086
  0
LINE
  8
0
  6
CONTINUOUS
 10
145.656296
 20
38.896221
 11
147.696793
 21
38.896221
  0
LINE
  8
0
  6
CONTINUOUS
 10
128.747696
 20
39.979473
 11
131.337494
 21
39.979473
  0
LINE
  8
0
  6
CENTER
 10
317.712494
 20
-0.936250
 11
317.712494
 21
125.828125
  0
LINE
  8
0
  6
CENTER
 10
244.618805
 20
70.426247
 11
389.161102
 21
70.426247
  0
LINE
  8
0
  6
CONTINUOUS
 10
270.712494
 20
5.426250
 11
364.712494
 21
5.426250
  0
LINE
  8
0
  6
CONTINUOUS
 10
351.712494
 20
13.426250
 11
362.712494
 21
13.426250
  0
LINE
  8
0
  6
CONTINUOUS
 10
364.712494
 20
11.426250
 11
364.712494
 21
5.426250
  0
LINE
  8
0
  6
CENTER
 10
357.712494
 20
16.313749
 11
357.712494
 21
-0.686250
  0
LINE
  8
0
  6
CONTINUOUS
 10
253.712494
 20
77.926247
 11
280.712494
 21
77.926247
  0
LINE
  8
0
  6
CONTINUOUS
 10
253.712494
 20
62.926250
 11
280.712494
 21
62.926250
  0
LINE
  8
0
  6
CONTINUOUS
 10
253.712494
 20
77.926247
 11
253.712494
 21
62.926250
  0
LINE
  8
0
  6
CONTINUOUS
 10
253.712494
 20
72.926247
 11
275.212494
 21
72.926247
  0
LINE
  8
0
  6
CONTINUOUS
 10
253.712494
 20
67.926247
 11
275.212494
 21
67.926247
  0
LINE
  8
0
  6
CONTINUOUS
 10
280.712494
 20
78.926247
 11
280.712494
 21
61.926250
  0
ARC
  8
0
  6
CONTINUOUS
 10
275.212494
 20
70.426239
 40
2.500000
 50
0.000000
 51
90.000000
  0
ARC
  8
0
  6
CONTINUOUS
 10
275.212494
 20
70.426247
 40
2.500000
 50
-90.000000
 51
0.000000
  0
LINE
  8
0
  6
CONTINUOUS
 10
286.712494
 20
16.426250
 11
286.712494
 21
100.519653
  0
LINE
  8
0
  6
CONTINUOUS
 10
348.712494
 20
16.426250
 11
348.712494
 21
100.519760
  0
LINE
  8
0
  6
CONTINUOUS
 10
346.747406
 20
102.519463
 11
317.712494
 21
103.026260
  0
LINE
  8
0
  6
CONTINUOUS
 10
288.677612
 20
102.519348
 11
317.712494
 21
103.026260
  0
ARC
  8
0
  6
CONTINUOUS
 10
346.712494
 20
100.519760
 40
2.000000
 50
0.000000
 51
89.000137
  0
ARC
  8
0
  6
CONTINUOUS
 10
288.712494
 20
100.519661
 40
2.000000
 50
91.000641
 51
180.000000
  0
LINE
  8
0
  6
CONTINUOUS
 10
351.712494
 20
90.426247
 11
348.712494
 21
90.426247
  0
LINE
  8
0
  6
CONTINUOUS
 10
351.712494
 20
50.426250
 11
348.712494
 21
50.426250
  0
LINE
  8
0
  6
CONTINUOUS
 10
352.712494
 20
51.426250
 11
352.712494
 21
89.426247
  0
ARC
  8
0
  6
CONTINUOUS
 10
351.712494
 20
89.426247
 40
1.000000
 50
0.000000
 51
90.000000
  0
ARC
  8
0
  6
CONTINUOUS
 10
351.712494
 20
51.426247
 40
1.000000
 50
-90.000000
 51
0.000000
  0
LINE
  8
0
  6
CONTINUOUS
 10
283.712494
 20
13.426250
 11
272.712494
 21
13.426250
  0
LINE
  8
0
  6
CONTINUOUS
 10
270.712494
 20
11.426250
 11
270.712494
 21
5.426250
  0
LINE
  8
0
  6
CENTER
 10
277.712494
 20
16.063749
 11
277.712494
 21
1.813750
  0
LINE
  8
0
  6
DASHED
 10
360.962494
 20
13.426250
 11
360.962494
 21
5.426250
  0
LINE
  8
0
  6
DASHED
 10
354.462494
 20
13.426250
 11
354.462494
 21
5.426250
  0
LINE
  8
0
  6
DASHED
 10
280.962494
 20
13.426250
 11
280.962494
 21
5.426250
  0
LINE
  8
0
  6
DASHED
 10
274.462494
 20
13.426250
 11
274.462494
 21
5.426250
  0
ARC
  8
0
  6
CONTINUOUS
 10
362.712494
 20
11.426240
 40
2.000000
 50
0.000000
 51
90.000000
  0
ARC
  8
0
  6
CONTINUOUS
 10
272.712494
 20
11.426260
 40
2.000000
 50
90.000000
 51
180.000000
  0
LINE
  8
0
  6
CONTINUOUS
 10
288.386200
 20
83.726257
 11
347.104889
 21
83.726257
  0
LINE
  8
0
  6
CONTINUOUS
 10
283.712494
 20
90.426247
 11
286.712494
 21
90.426247
  0
LINE
  8
0
  6
CONTINUOUS
 10
283.712494
 20
50.426250
 11
286.712494
 21
50.426250
  0
LINE
  8
0
  6
CONTINUOUS
 10
282.712494
 20
51.426250
 11
282.712494
 21
89.426247
  0
ARC
  8
0
  6
CONTINUOUS
 10
283.712494
 20
89.426247
 40
1.000000
 50
90.000000
 51
180.000000
  0
ARC
  8
0
  6
CONTINUOUS
 10
283.712494
 20
51.426247
 40
1.000000
 50
180.000000
 51
270.000000
  0
LINE
  8
0
  6
CONTINUOUS
 10
381.712494
 20
77.926247
 11
354.712494
 21
77.926247
  0
LINE
  8
0
  6
CONTINUOUS
 10
381.712494
 20
62.926250
 11
354.712494
 21
62.926250
  0
LINE
  8
0
  6
CONTINUOUS
 10
381.712494
 20
77.926247
 11
381.712494
 21
62.926250
  0
LINE
  8
0
  6
CONTINUOUS
 10
381.712494
 20
72.926247
 11
360.212494
 21
72.926247
  0
LINE
  8
0
  6
CONTINUOUS
 10
381.712494
 20
67.926247
 11
360.212494
 21
67.926247
  0
LINE
  8
0
  6
CONTINUOUS
 10
354.712494
 20
78.926247
 11
354.712494
 21
61.926250
  0
ARC
  8
0
  6
CONTINUOUS
 10
360.212494
 20
70.426239
 40
2.500000
 50
90.000000
 51
180.000000
  0
ARC
  8
0
  6
CONTINUOUS
 10
360.212494
 20
70.426247
 40
2.500000
 50
180.000000
 51
270.000000
  0
ARC
  8
0
  6
CONTINUOUS
 10
317.712494
 20
48.126251
 40
38.000000
 50
-35.334469
 51
21.294241
  0
ARC
  8
0
  6
CONTINUOUS
 10
317.712494
 20
48.126251
 40
38.000000
 50
158.705795
 51
215.334503
  0
LINE
  8
0
  6
CENTER
 10
273.347900
 20
48.126251
 11
362.924103
 21
48.126251
  0
LINE
  8
0
  6
CONTINUOUS
 10
352.712494
 20
78.926247
 11
354.712494
 21
78.926247
  0
LINE
  8
0
  6
CONTINUOUS
 10
352.712494
 20
61.926250
 11
354.712494
 21
61.926250
  0
LINE
  8
0
  6
CONTINUOUS
 10
280.712494
 20
78.926247
 11
282.712494
 21
78.926247
  0
LINE
  8
0
  6
CONTINUOUS
 10
280.712494
 20
61.926250
 11
282.712494
 21
61.926250
  0
ARC
  8
0
  6
CONTINUOUS
 10
283.712494
 20
16.426241
 40
3.000000
 50
-90.000000
 51
0.000000
  0
ARC
  8
0
  6
CONTINUOUS
 10
351.712494
 20
16.426250
 40
3.000000
 50
180.000000
 51
270.000000
  0
LINE
  8
0
  6
CONTINUOUS
 10
15.212500
 20
87.626251
 11
61.712502
 21
87.626251
  0
LINE
  8
0
  6
CONTINUOUS
 10
63.712479
 20
117.626251
 11
63.712502
 21
89.626251
  0
LINE
  8
0
  6
CONTINUOUS
 10
13.712500
 20
117.626251
 11
13.712500
 21
89.626251
  0
LINE
  8
0
  6
CONTINUOUS
 10
11.712500
 20
99.626251
 11
63.712502
 21
99.626251
  0
LINE
  8
0
  6
CONTINUOUS
 10
61.712502
 20
87.626251
 11
63.712502
 21
89.626251
  0
LINE
  8
0
  6
CONTINUOUS
 10
13.712500
 20
89.626251
 11
15.712500
 21
87.626251
  0
LINE
  8
0
  6
CONTINUOUS
 10
13.712500
 20
89.626251
 11
63.712502
 21
89.626251
  0
LINE
  8
0
  6
CONTINUOUS
 10
14.712500
 20
118.626251
 11
62.712479
 21
118.626251
  0
LINE
  8
0
  6
CONTINUOUS
 10
62.712479
 20
118.626251
 11
63.712479
 21
117.626251
  0
LINE
  8
0
  6
CONTINUOUS
 10
14.712500
 20
118.626251
 11
13.712500
 21
117.626251
  0
LINE
  8
0
  6
CONTINUOUS
 10
13.712500
 20
117.626251
 11
63.712479
 21
117.626251
  0
LINE
  8
0
  6
CENTER
 10
5.768744
 20
109.126251
 11
17.843760
 21
109.126251
  0
LINE
  8
0
  6
CONTINUOUS
 10
11.712520
 20
115.626251
 11
11.712500
 21
99.626251
  0
LINE
  8
0
  6
CONTINUOUS
 10
12.712500
 20
116.626251
 11
13.712500
 21
116.626251
  0
ARC
  8
0
  6
CONTINUOUS
 10
12.712520
 20
115.626251
 40
1.000000
 50
90.000000
 51
180.000000
  0
LINE
  8
0
  6
CONTINUOUS
 10
8.212520
 20
113.126251
 11
8.212520
 21
105.126251
  0
LINE
  8
0
  6
CONTINUOUS
 10
8.212520
 20
113.126251
 11
11.712520
 21
114.626251
  0
LINE
  8
0
  6
CONTINUOUS
 10
8.212500
 20
105.126251
 11
11.712500
 21
103.626251
  0
LINE
  8
0
  6
CENTER
 10
38.712502
 20
82.932487
 11
38.712502
 21
124.013748
  0
LINE
  8
0
  6
CONTINUOUS
 10
15.212500
 20
87.626251
 11
15.212500
 21
86.126251
  0
LINE
  8
0
  6
CONTINUOUS
 10
61.212502
 20
87.626251
 11
61.212502
 21
86.126251
  0
LINE
  8
0
  6
CONTINUOUS
 10
342.712494
 20
117.626251
 11
342.712494
 21
102.589890
  0
LINE
  8
0
  6
CONTINUOUS
 10
292.712494
 20
117.626251
 11
292.712494
 21
102.589790
  0
LINE
  8
0
  6
CONTINUOUS
 10
293.712494
 20
118.626251
 11
341.712494
 21
118.626251
  0
LINE
  8
0
  6
CONTINUOUS
 10
341.712494
 20
118.626251
 11
342.712494
 21
117.626251
  0
LINE
  8
0
  6
CONTINUOUS
 10
293.712494
 20
118.626251
 11
292.712494
 21
117.626251
  0
LINE
  8
0
  6
CONTINUOUS
 10
292.712494
 20
117.626251
 11
342.712494
 21
117.626251
  0
TEXT
  8
0
 10
-7.000000
 20
-1.000000
 40
4.000000
 41
1.000000
  1
HLM-15T-10~240-S25WT
 50
0.000000
  0
ENDSEC
  0
EOF
