  0
SECTION
  2
HEADER
  9
$CLAYER
  8
1
  9
$LTSCALE
 40
3.0
  0
ENDSEC
  0
SECTION
  2
TABLES
  0
TABLE
  2
LTYPE
 70
     4
  0
LTYPE
  2
CONTINUOUS
  3
solid line
 70
    64
 72
    65
 73
     0
 40
0.0
  0
LTYPE
  2
DASHED
  3
__ __ __ __ __ __ __ __ __ __ __ __ __ __ __
 70
    64
 72
    65
 73
     2
 40
0.75
 49
0.5
 49
-0.25
  0
LTYPE
  2
CENTER
  3
____ _ ____ _ ____ _ ____ _ ____ _ ____ _ ____
 70
    64
 72
    65
 73
     4
 40
2.0
 49
1.25
 49
-0.25
 49
0.25
 49
-0.25
  0
LTYPE
  2
PHANTOM
  3
_____ _ _ _____ _ _ _____ _ _ _____ _ _ ____
 70
    64
 72
    65
 73
     6
 40
2.5
 49
1.25
 49
-0.25
 49
0.25
 49
-0.25
 49
0.25
 49
-0.25
  0
ENDTAB
  0
TABLE
  2
LAYER
 70
     1
  0
LAYER
  2
0
 70
    64
 62
     7
  6
CONTINUOUS
  0
ENDTAB
  0
TABLE
  2
STYLE
 70
     1
  0
STYLE
  2
STANDARD
 70
     0
 40
0.000000
 41
1.000000
 50
0.000000
 71
     0
 42
3.000000
  3
txt
  4
BIGFONT
  0
ENDTAB
  0
ENDSEC
  0
SECTION
  2
BLOCKS
  0
ENDSEC
  0
SECTION
  2
ENTITIES
  0
LINE
  8
0
  6
CENTER
 10
177.872498
 20
313.251251
 11
177.872498
 21
176.751251
  0
LINE
  8
0
  6
CENTER
 10
-4.644375
 20
244.751251
 11
231.612503
 21
244.751251
  0
LINE
  8
0
  6
CONTINUOUS
 10
137.878998
 20
275.751251
 11
217.865997
 21
275.751251
  0
LINE
  8
0
  6
CONTINUOUS
 10
219.603561
 20
288.803619
 11
220.372498
 21
244.751251
  0
LINE
  8
0
  6
CONTINUOUS
 10
53.372501
 20
282.751251
 11
62.872501
 21
282.751251
  0
LINE
  8
0
  6
CONTINUOUS
 10
53.372501
 20
206.751251
 11
62.872501
 21
206.751251
  0
LINE
  8
0
  6
CONTINUOUS
 10
53.372501
 20
267.751251
 11
53.872501
 21
267.751251
  0
LINE
  8
0
  6
CONTINUOUS
 10
62.872501
 20
206.751251
 11
62.872501
 21
219.751251
  0
LINE
  8
0
  6
CONTINUOUS
 10
53.372501
 20
221.751251
 11
53.872501
 21
221.751251
  0
LINE
  8
0
  6
CONTINUOUS
 10
139.140869
 20
291.751251
 11
170.372498
 21
291.751251
  0
ARC
  8
0
  6
CONTINUOUS
 10
216.604019
 20
288.751251
 40
3.000000
 50
1.000000
 51
90.000000
  0
LINE
  8
0
  6
CONTINUOUS
 10
136.141327
 20
288.803589
 11
135.916946
 21
275.947144
  0
ARC
  8
0
  6
CONTINUOUS
 10
217.865997
 20
273.751251
 40
2.000000
 50
1.000000
 51
90.000000
  0
ARC
  8
0
  6
CONTINUOUS
 10
137.878998
 20
273.751251
 40
2.000000
 50
90.000000
 51
179.000000
  0
ARC
  8
0
  6
CONTINUOUS
 10
139.140869
 20
288.751251
 40
3.000000
 50
90.000000
 51
179.000153
  0
LINE
  8
0
  6
CONTINUOUS
 10
133.372498
 20
282.751251
 11
62.872501
 21
282.751251
  0
LINE
  8
0
  6
CONTINUOUS
 10
103.872490
 20
267.751251
 11
138.792175
 21
267.751251
  0
LINE
  8
0
  6
CENTER
 10
133.997498
 20
284.751251
 11
151.622498
 21
284.751251
  0
LINE
  8
0
  6
CENTER
 10
211.872498
 20
294.501251
 11
211.872498
 21
276.501251
  0
CIRCLE
  8
0
  6
CONTINUOUS
 10
211.872498
 20
284.751251
 40
3.250000
  0
LINE
  8
0
  6
CENTER
 10
143.872498
 20
294.501251
 11
143.872498
 21
276.501251
  0
CIRCLE
  8
0
  6
CONTINUOUS
 10
143.872498
 20
284.751251
 40
3.250000
  0
LINE
  8
0
  6
CENTER
 10
203.372498
 20
284.751251
 11
222.497498
 21
284.751251
  0
LINE
  8
0
  6
CONTINUOUS
 10
137.878998
 20
213.751251
 11
217.865997
 21
213.751251
  0
LINE
  8
0
  6
CONTINUOUS
 10
219.603561
 20
200.698898
 11
220.372498
 21
244.751251
  0
LINE
  8
0
  6
CONTINUOUS
 10
139.140869
 20
197.751251
 11
170.372498
 21
197.751251
  0
ARC
  8
0
  6
CONTINUOUS
 10
216.604019
 20
200.751251
 40
3.000000
 50
-90.000000
 51
-1.000000
  0
LINE
  8
0
  6
CONTINUOUS
 10
136.141327
 20
200.698898
 11
135.916946
 21
213.555344
  0
ARC
  8
0
  6
CONTINUOUS
 10
217.865997
 20
215.751251
 40
2.000000
 50
-90.000000
 51
-1.000000
  0
ARC
  8
0
  6
CONTINUOUS
 10
137.878998
 20
215.751251
 40
2.000000
 50
-179.000000
 51
-90.000000
  0
ARC
  8
0
  6
CONTINUOUS
 10
139.140869
 20
200.751251
 40
3.000000
 50
-179.000153
 51
-90.000000
  0
LINE
  8
0
  6
CONTINUOUS
 10
62.872501
 20
206.751251
 11
133.372498
 21
206.751251
  0
LINE
  8
0
  6
CONTINUOUS
 10
103.872498
 20
221.751251
 11
138.792175
 21
221.751251
  0
LINE
  8
0
  6
CENTER
 10
133.997498
 20
204.751251
 11
151.622498
 21
204.751251
  0
LINE
  8
0
  6
CENTER
 10
211.872498
 20
195.001251
 11
211.872498
 21
213.001251
  0
CIRCLE
  8
0
  6
CONTINUOUS
 10
211.872498
 20
204.751251
 40
3.250000
  0
LINE
  8
0
  6
CENTER
 10
143.872498
 20
195.001251
 11
143.872498
 21
213.001251
  0
CIRCLE
  8
0
  6
CONTINUOUS
 10
143.872498
 20
204.751251
 40
3.250000
  0
LINE
  8
0
  6
CENTER
 10
203.372498
 20
204.751251
 11
222.497498
 21
204.751251
  0
LINE
  8
0
  6
CONTINUOUS
 10
170.372498
 20
180.751251
 11
170.372498
 21
207.751251
  0
LINE
  8
0
  6
CONTINUOUS
 10
170.372498
 20
180.751251
 11
187.372498
 21
180.751251
  0
LINE
  8
0
  6
CONTINUOUS
 10
169.372498
 20
207.751251
 11
186.372498
 21
207.751251
  0
LINE
  8
0
  6
CONTINUOUS
 10
157.872498
 20
278.751251
 11
157.872498
 21
275.751251
  0
LINE
  8
0
  6
CONTINUOUS
 10
197.872498
 20
278.751251
 11
197.872498
 21
275.751251
  0
LINE
  8
0
  6
CONTINUOUS
 10
196.872498
 20
279.751251
 11
158.872498
 21
279.751251
  0
ARC
  8
0
  6
CONTINUOUS
 10
158.872498
 20
278.751251
 40
1.000000
 50
90.000000
 51
180.000000
  0
ARC
  8
0
  6
CONTINUOUS
 10
196.872498
 20
278.751251
 40
1.000000
 50
0.000000
 51
90.000000
  0
LINE
  8
0
  6
CONTINUOUS
 10
157.872498
 20
210.751251
 11
157.872498
 21
213.751251
  0
LINE
  8
0
  6
CONTINUOUS
 10
197.872498
 20
210.751251
 11
197.872498
 21
213.751251
  0
LINE
  8
0
  6
CONTINUOUS
 10
196.872498
 20
209.751251
 11
158.872498
 21
209.751251
  0
ARC
  8
0
  6
CONTINUOUS
 10
158.872498
 20
210.751251
 40
1.000000
 50
180.000000
 51
270.000000
  0
ARC
  8
0
  6
CONTINUOUS
 10
196.872498
 20
210.751251
 40
1.000000
 50
-90.000000
 51
0.000000
  0
LINE
  8
0
  6
CONTINUOUS
 10
169.372498
 20
207.751251
 11
169.372498
 21
209.751251
  0
LINE
  8
0
  6
CONTINUOUS
 10
186.372498
 20
207.751251
 11
186.372498
 21
209.751251
  0
LINE
  8
0
  6
CONTINUOUS
 10
187.372498
 20
197.751251
 11
216.604019
 21
197.751251
  0
LINE
  8
0
  6
CONTINUOUS
 10
187.372498
 20
291.751251
 11
216.604019
 21
291.751251
  0
LINE
  8
0
  6
CONTINUOUS
 10
187.372498
 20
204.751251
 11
187.372498
 21
180.751251
  0
LINE
  8
0
  6
CONTINUOUS
 10
184.943497
 20
204.751251
 11
184.943497
 21
180.751251
  0
LINE
  8
0
  6
CONTINUOUS
 10
184.943497
 20
204.751251
 11
187.372498
 21
204.751251
  0
LINE
  8
0
  6
CONTINUOUS
 10
185.372498
 20
204.751251
 11
185.372498
 21
207.751251
  0
LINE
  8
0
  6
CONTINUOUS
 10
170.372498
 20
308.751251
 11
170.372498
 21
281.751251
  0
LINE
  8
0
  6
CONTINUOUS
 10
170.372498
 20
308.751251
 11
187.372498
 21
308.751251
  0
LINE
  8
0
  6
CONTINUOUS
 10
169.372498
 20
281.751251
 11
186.372498
 21
281.751251
  0
LINE
  8
0
  6
CONTINUOUS
 10
169.372498
 20
281.751251
 11
169.372498
 21
279.751251
  0
LINE
  8
0
  6
CONTINUOUS
 10
186.372498
 20
281.751251
 11
186.372498
 21
279.751251
  0
LINE
  8
0
  6
CONTINUOUS
 10
187.372498
 20
284.751251
 11
187.372498
 21
308.751251
  0
LINE
  8
0
  6
CONTINUOUS
 10
184.943497
 20
284.751251
 11
184.943497
 21
308.751251
  0
LINE
  8
0
  6
CONTINUOUS
 10
184.943497
 20
284.751251
 11
187.372498
 21
284.751251
  0
LINE
  8
0
  6
CONTINUOUS
 10
185.372498
 20
284.751251
 11
185.372498
 21
281.751251
  0
LINE
  8
0
  6
CONTINUOUS
 10
192.872498
 20
273.786163
 11
192.872498
 21
215.716339
  0
LINE
  8
0
  6
CONTINUOUS
 10
162.872498
 20
273.786163
 11
162.872498
 21
215.716339
  0
LINE
  8
0
  6
CONTINUOUS
 10
135.372498
 20
280.751251
 11
135.372498
 21
277.103394
  0
LINE
  8
0
  6
CONTINUOUS
 10
138.792175
 20
223.751251
 11
138.792175
 21
265.751526
  0
ARC
  8
0
  6
CONTINUOUS
 10
133.372498
 20
280.751251
 40
2.000000
 50
0.000000
 51
90.000000
  0
ARC
  8
0
  6
CONTINUOUS
 10
136.872498
 20
277.103394
 40
1.500000
 50
180.000000
 51
286.712646
  0
LINE
  8
0
  6
CONTINUOUS
 10
135.879227
 20
273.786163
 11
135.773911
 21
267.751251
  0
LINE
  8
0
  6
CONTINUOUS
 10
135.372498
 20
208.751251
 11
135.372498
 21
212.399094
  0
ARC
  8
0
  6
CONTINUOUS
 10
133.372498
 20
208.751251
 40
2.000000
 50
-90.000000
 51
0.000000
  0
ARC
  8
0
  6
CONTINUOUS
 10
136.872498
 20
212.399094
 40
1.500000
 50
-286.712646
 51
-180.000000
  0
LINE
  8
0
  6
CONTINUOUS
 10
135.879227
 20
215.716354
 11
135.773911
 21
221.751251
  0
LINE
  8
0
  6
CONTINUOUS
 10
62.872501
 20
269.751251
 11
62.872501
 21
282.751251
  0
LINE
  8
0
  6
CONTINUOUS
 10
53.372501
 20
204.751251
 11
53.372501
 21
244.751251
  0
LINE
  8
0
  6
CONTINUOUS
 10
9.372500
 20
284.751251
 11
53.372501
 21
284.751251
  0
LINE
  8
0
  6
CONTINUOUS
 10
9.372500
 20
204.751251
 11
53.372501
 21
204.751251
  0
LINE
  8
0
  6
CONTINUOUS
 10
4.372500
 20
209.751251
 11
4.372500
 21
279.751251
  0
ARC
  8
0
  6
CONTINUOUS
 10
9.372520
 20
279.751282
 40
5.000000
 50
90.000000
 51
180.000000
  0
ARC
  8
0
  6
CONTINUOUS
 10
9.372500
 20
209.751251
 40
5.000000
 50
180.000000
 51
270.000000
  0
LINE
  8
0
  6
CONTINUOUS
 10
6.872500
 20
218.751251
 11
53.372501
 21
218.751251
  0
LINE
  8
0
  6
CONTINUOUS
 10
6.872500
 20
268.751251
 11
53.372501
 21
268.751251
  0
LINE
  8
0
  6
CONTINUOUS
 10
53.372501
 20
244.751251
 11
53.372501
 21
284.751251
  0
LINE
  8
0
  6
CONTINUOUS
 10
53.372501
 20
87.122498
 11
62.872501
 21
87.122498
  0
LINE
  8
0
  6
CONTINUOUS
 10
53.372501
 20
11.122500
 11
62.872501
 21
11.122500
  0
LINE
  8
0
  6
CONTINUOUS
 10
53.372501
 20
9.122500
 11
53.372501
 21
89.122498
  0
LINE
  8
0
  6
CONTINUOUS
 10
53.372501
 20
79.371498
 11
62.872501
 21
79.371498
  0
LINE
  8
0
  6
CONTINUOUS
 10
53.372501
 20
18.873501
 11
62.872501
 21
18.873501
  0
LINE
  8
0
  6
CONTINUOUS
 10
9.372500
 20
89.122498
 11
53.372501
 21
89.122498
  0
LINE
  8
0
  6
CONTINUOUS
 10
9.372500
 20
9.122500
 11
53.372501
 21
9.122500
  0
LINE
  8
0
  6
CONTINUOUS
 10
4.372500
 20
14.122500
 11
4.372500
 21
84.122498
  0
ARC
  8
0
  6
CONTINUOUS
 10
9.372520
 20
84.122520
 40
5.000000
 50
90.000000
 51
180.000000
  0
ARC
  8
0
  6
CONTINUOUS
 10
9.372500
 20
14.122500
 40
5.000000
 50
180.000000
 51
270.000000
  0
LINE
  8
0
  6
CONTINUOUS
 10
6.872500
 20
75.122498
 11
53.372501
 21
75.122498
  0
LINE
  8
0
  6
CONTINUOUS
 10
6.872500
 20
25.122499
 11
53.372501
 21
25.122499
  0
LINE
  8
0
  6
CONTINUOUS
 10
62.872501
 20
11.122500
 11
62.872501
 21
87.122498
  0
LINE
  8
0
  6
CENTER
 10
-8.111250
 20
49.122501
 11
157.788757
 21
49.122501
  0
LINE
  8
0
  6
CONTINUOUS
 10
220.372498
 20
82.123077
 11
220.372498
 21
6.422500
  0
LINE
  8
0
  6
CONTINUOUS
 10
135.372498
 20
82.123100
 11
135.372498
 21
6.422500
  0
LINE
  8
0
  6
CONTINUOUS
 10
62.872501
 20
87.122498
 11
138.792206
 21
87.122498
  0
LINE
  8
0
  6
CONTINUOUS
 10
62.872501
 20
11.122500
 11
135.372498
 21
11.122500
  0
LINE
  8
0
  6
CENTER
 10
177.872498
 20
113.309998
 11
177.872498
 21
-0.377500
  0
LINE
  8
0
  6
CENTER
 10
151.221878
 20
71.422501
 11
205.657806
 21
71.422501
  0
LINE
  8
0
  6
CONTINUOUS
 10
135.372498
 20
6.422500
 11
220.372498
 21
6.422500
  0
LINE
  8
0
  6
CONTINUOUS
 10
164.451996
 20
104.022499
 11
191.292999
 21
104.022499
  0
LINE
  8
0
  6
CONTINUOUS
 10
218.244797
 20
86.215759
 11
194.165298
 21
103.115158
  0
LINE
  8
0
  6
CONTINUOUS
 10
137.500198
 20
86.215759
 11
161.579605
 21
103.115150
  0
ARC
  8
0
  6
CONTINUOUS
 10
191.293106
 20
99.022491
 40
5.000000
 50
54.938431
 51
90.000000
  0
ARC
  8
0
  6
CONTINUOUS
 10
164.451996
 20
99.022507
 40
5.000000
 50
90.000000
 51
125.062202
  0
ARC
  8
0
  6
CONTINUOUS
 10
215.372498
 20
82.123077
 40
5.000000
 50
0.000000
 51
54.938370
  0
ARC
  8
0
  6
CONTINUOUS
 10
140.372498
 20
82.123123
 40
5.000000
 50
125.062302
 51
180.000000
  0
LINE
  8
0
  6
CONTINUOUS
 10
137.372498
 20
14.422500
 11
218.372498
 21
14.422500
  0
LINE
  8
0
  6
CENTER
 10
211.872498
 20
17.809999
 11
211.872498
 21
2.060000
  0
LINE
  8
0
  6
CENTER
 10
143.872498
 20
17.809999
 11
143.872498
 21
2.310000
  0
LINE
  8
0
  6
DASHED
 10
147.122498
 20
14.422500
 11
147.122498
 21
6.422500
  0
LINE
  8
0
  6
DASHED
 10
140.622498
 20
14.422500
 11
140.622498
 21
6.422500
  0
LINE
  8
0
  6
DASHED
 10
215.122498
 20
14.422500
 11
215.122498
 21
6.422500
  0
LINE
  8
0
  6
DASHED
 10
208.622498
 20
14.422500
 11
208.622498
 21
6.422500
  0
LINE
  8
0
  6
CONTINUOUS
 10
217.872498
 20
72.783897
 11
217.872498
 21
44.061363
  0
LINE
  8
0
  6
CONTINUOUS
 10
137.872498
 20
72.783768
 11
137.872498
 21
44.060963
  0
ARC
  8
0
  6
CONTINUOUS
 10
177.872498
 20
58.422501
 40
42.500000
 50
199.749893
 51
340.250092
  0
ARC
  8
0
  6
CONTINUOUS
 10
177.872498
 20
58.422501
 40
42.500000
 50
19.749901
 51
160.250107
  0
LINE
  8
0
  6
CONTINUOUS
 10
187.372498
 20
73.922501
 11
187.372498
 21
68.922501
  0
LINE
  8
0
  6
CONTINUOUS
 10
182.372498
 20
68.922501
 11
182.372498
 21
73.922501
  0
LINE
  8
0
  6
CONTINUOUS
 10
182.372498
 20
73.922501
 11
187.372498
 21
73.922501
  0
LINE
  8
0
  6
CONTINUOUS
 10
182.372498
 20
68.922501
 11
187.372498
 21
68.922501
  0
ARC
  8
0
  6
CONTINUOUS
 10
177.872498
 20
71.422501
 40
7.500000
 50
19.471210
 51
340.528809
  0
ARC
  8
0
  6
CONTINUOUS
 10
218.372498
 20
12.422490
 40
2.000000
 50
0.000000
 51
90.000000
  0
ARC
  8
0
  6
CONTINUOUS
 10
137.372498
 20
12.422510
 40
2.000000
 50
90.000000
 51
180.000000
  0
CIRCLE
  8
0
  6
CONTINUOUS
 10
178.122498
 20
71.372498
 40
20.000000
  0
LINE
  8
0
  6
CONTINUOUS
 10
62.872452
 20
79.371498
 11
135.372498
 21
79.371498
  0
LINE
  8
0
  6
CONTINUOUS
 10
62.872452
 20
18.873501
 11
135.372498
 21
18.873501
  0
LINE
  8
0
  6
CONTINUOUS
 10
171.497498
 20
40.975723
 11
171.497498
 21
35.422501
  0
LINE
  8
0
  6
CONTINUOUS
 10
174.684998
 20
42.992813
 11
174.684998
 21
44.985001
  0
LINE
  8
0
  6
CONTINUOUS
 10
181.059998
 20
42.992813
 11
181.059998
 21
44.985001
  0
LINE
  8
0
  6
CONTINUOUS
 10
177.249893
 20
43.814590
 11
177.249893
 21
36.468399
  0
LINE
  8
0
  6
CONTINUOUS
 10
178.445297
 20
43.814590
 11
178.445297
 21
36.468399
  0
LINE
  8
0
  6
CONTINUOUS
 10
184.720596
 20
43.814590
 11
184.720596
 21
36.418591
  0
LINE
  8
0
  6
CONTINUOUS
 10
185.816299
 20
39.892471
 11
185.816299
 21
36.418591
  0
LINE
  8
0
  6
CONTINUOUS
 10
169.985001
 20
43.714981
 11
166.913101
 21
43.714981
  0
LINE
  8
0
  6
CONTINUOUS
 10
166.913101
 20
43.714981
 11
166.193298
 21
42.822479
  0
LINE
  8
0
  6
CONTINUOUS
 10
166.279907
 20
44.985001
 11
165.122498
 21
43.503002
  0
LINE
  8
0
  6
CONTINUOUS
 10
166.193298
 20
37.313419
 11
166.924606
 21
36.543098
  0
LINE
  8
0
  6
CONTINUOUS
 10
165.122498
 20
36.663361
 11
166.352295
 21
35.422501
  0
LINE
  8
0
  6
CONTINUOUS
 10
165.122498
 20
43.503002
 11
165.122498
 21
36.663361
  0
LINE
  8
0
  6
CONTINUOUS
 10
166.193298
 20
42.822479
 11
166.193298
 21
37.313419
  0
LINE
  8
0
  6
CONTINUOUS
 10
170.576096
 20
43.143536
 11
169.972900
 21
43.714981
  0
LINE
  8
0
  6
CONTINUOUS
 10
170.566498
 20
44.985001
 11
171.497498
 21
43.951859
  0
LINE
  8
0
  6
CONTINUOUS
 10
170.576096
 20
42.992813
 11
171.497498
 21
42.992813
  0
LINE
  8
0
  6
CONTINUOUS
 10
166.279907
 20
44.985001
 11
170.566498
 21
44.985001
  0
LINE
  8
0
  6
CONTINUOUS
 10
170.576096
 20
39.929825
 11
168.907700
 21
39.929825
  0
LINE
  8
0
  6
CONTINUOUS
 10
170.576096
 20
38.933731
 11
170.576096
 21
39.730606
  0
LINE
  8
0
  6
CONTINUOUS
 10
168.583893
 20
36.543098
 11
166.924606
 21
36.543098
  0
ARC
  8
0
  6
CONTINUOUS
 10
168.583893
 20
38.535290
 40
1.992187
 50
-89.999786
 51
0.000109
  0
LINE
  8
0
  6
CONTINUOUS
 10
170.576096
 20
36.184761
 11
170.576096
 21
35.422501
  0
LINE
  8
0
  6
CONTINUOUS
 10
171.497498
 20
43.951859
 11
171.497498
 21
42.992813
  0
LINE
  8
0
  6
CONTINUOUS
 10
170.576096
 20
39.929825
 11
170.576096
 21
38.535290
  0
LINE
  8
0
  6
CONTINUOUS
 10
168.907700
 20
40.975723
 11
168.907700
 21
39.929825
  0
LINE
  8
0
  6
CONTINUOUS
 10
170.576096
 20
35.422501
 11
171.497498
 21
35.422501
  0
LINE
  8
0
  6
CONTINUOUS
 10
170.576096
 20
36.184761
 11
169.667603
 21
35.422501
  0
LINE
  8
0
  6
CONTINUOUS
 10
178.445297
 20
36.468399
 11
178.843704
 21
36.468399
  0
LINE
  8
0
  6
CONTINUOUS
 10
176.776794
 20
36.468399
 11
176.776794
 21
35.422501
  0
LINE
  8
0
  6
CONTINUOUS
 10
178.843704
 20
36.468399
 11
178.843704
 21
35.422501
  0
LINE
  8
0
  6
CONTINUOUS
 10
180.395004
 20
42.992813
 11
181.059998
 21
42.992813
  0
LINE
  8
0
  6
CONTINUOUS
 10
174.684998
 20
42.992813
 11
175.392593
 21
42.992813
  0
LINE
  8
0
  6
CONTINUOUS
 10
174.684998
 20
44.985001
 11
181.059998
 21
44.985001
  0
LINE
  8
0
  6
CONTINUOUS
 10
176.776794
 20
35.422501
 11
178.843704
 21
35.422501
  0
LINE
  8
0
  6
CONTINUOUS
 10
176.776794
 20
36.468399
 11
177.249893
 21
36.468399
  0
ARC
  8
0
  6
CONTINUOUS
 10
188.070007
 20
42.432510
 40
2.552490
 50
-73.981873
 51
90.003510
  0
ARC
  8
0
  6
CONTINUOUS
 10
188.070007
 20
42.432510
 40
1.557193
 50
-82.585274
 51
62.411850
  0
LINE
  8
0
  6
CONTINUOUS
 10
184.247498
 20
44.985001
 11
188.070007
 21
44.985001
  0
LINE
  8
0
  6
CONTINUOUS
 10
184.247498
 20
44.985001
 11
184.247498
 21
43.814590
  0
LINE
  8
0
  6
CONTINUOUS
 10
185.816299
 20
43.814590
 11
185.816299
 21
40.888336
  0
LINE
  8
0
  6
CONTINUOUS
 10
188.774307
 20
39.979122
 11
190.354202
 21
36.418591
  0
LINE
  8
0
  6
CONTINUOUS
 10
187.856796
 20
39.892471
 11
189.351807
 21
36.418591
  0
LINE
  8
0
  6
CONTINUOUS
 10
184.247498
 20
36.418591
 11
184.720596
 21
36.418591
  0
LINE
  8
0
  6
CONTINUOUS
 10
185.816299
 20
36.418591
 11
186.252106
 21
36.418591
  0
LINE
  8
0
  6
CONTINUOUS
 10
186.252106
 20
35.422501
 11
184.247498
 21
35.422501
  0
LINE
  8
0
  6
CONTINUOUS
 10
189.153305
 20
36.418591
 11
189.351807
 21
36.418591
  0
LINE
  8
0
  6
CONTINUOUS
 10
190.354202
 20
36.418591
 11
190.622498
 21
36.418591
  0
LINE
  8
0
  6
CONTINUOUS
 10
189.153305
 20
35.422501
 11
190.622498
 21
35.422501
  0
LINE
  8
0
  6
CONTINUOUS
 10
190.622498
 20
36.418591
 11
190.622498
 21
35.422501
  0
LINE
  8
0
  6
CONTINUOUS
 10
189.153305
 20
36.418591
 11
189.153305
 21
35.422501
  0
LINE
  8
0
  6
CONTINUOUS
 10
186.252106
 20
36.418591
 11
186.252106
 21
35.422501
  0
LINE
  8
0
  6
CONTINUOUS
 10
184.247498
 20
36.418591
 11
184.247498
 21
35.422501
  0
LINE
  8
0
  6
CONTINUOUS
 10
175.735001
 20
43.814590
 11
175.392593
 21
42.992813
  0
LINE
  8
0
  6
CONTINUOUS
 10
180.106293
 20
43.814590
 11
180.395004
 21
42.992813
  0
LINE
  8
0
  6
CONTINUOUS
 10
178.445297
 20
43.814590
 11
180.106293
 21
43.814590
  0
LINE
  8
0
  6
CONTINUOUS
 10
177.249893
 20
43.814590
 11
175.735001
 21
43.814590
  0
LINE
  8
0
  6
CONTINUOUS
 10
184.247498
 20
43.814590
 11
184.720596
 21
43.814590
  0
LINE
  8
0
  6
CONTINUOUS
 10
185.816299
 20
43.814590
 11
188.791199
 21
43.812653
  0
LINE
  8
0
  6
CONTINUOUS
 10
170.576096
 20
43.143536
 11
170.576096
 21
42.992813
  0
LINE
  8
0
  6
CONTINUOUS
 10
166.352295
 20
35.422501
 11
169.667603
 21
35.422501
  0
LINE
  8
0
  6
CONTINUOUS
 10
185.816299
 20
40.888336
 11
188.270996
 21
40.888336
  0
LINE
  8
0
  6
CONTINUOUS
 10
185.816299
 20
39.892471
 11
187.856796
 21
39.892471
  0
LINE
  8
0
  6
CONTINUOUS
 10
168.907700
 20
40.975723
 11
171.497498
 21
40.975723
  0
LINE
  8
0
  6
CENTER
 10
347.872498
 20
0.060000
 11
347.872498
 21
139.638123
  0
LINE
  8
0
  6
CENTER
 10
274.778809
 20
71.422501
 11
418.221100
 21
71.422501
  0
LINE
  8
0
  6
CONTINUOUS
 10
300.872498
 20
6.422500
 11
394.872498
 21
6.422500
  0
LINE
  8
0
  6
CONTINUOUS
 10
381.872498
 20
14.422500
 11
392.872498
 21
14.422500
  0
LINE
  8
0
  6
CONTINUOUS
 10
394.872498
 20
12.422500
 11
394.872498
 21
6.422500
  0
LINE
  8
0
  6
CENTER
 10
387.872498
 20
17.309999
 11
387.872498
 21
0.310000
  0
LINE
  8
0
  6
CONTINUOUS
 10
283.872498
 20
78.922501
 11
310.872498
 21
78.922501
  0
LINE
  8
0
  6
CONTINUOUS
 10
283.872498
 20
63.922501
 11
310.872498
 21
63.922501
  0
LINE
  8
0
  6
CONTINUOUS
 10
283.872498
 20
78.922501
 11
283.872498
 21
63.922501
  0
LINE
  8
0
  6
CONTINUOUS
 10
283.872498
 20
73.922501
 11
305.372498
 21
73.922501
  0
LINE
  8
0
  6
CONTINUOUS
 10
283.872498
 20
68.922501
 11
305.372498
 21
68.922501
  0
LINE
  8
0
  6
CONTINUOUS
 10
310.872498
 20
79.922501
 11
310.872498
 21
62.922501
  0
ARC
  8
0
  6
CONTINUOUS
 10
305.372498
 20
71.422493
 40
2.500000
 50
0.000000
 51
90.000000
  0
ARC
  8
0
  6
CONTINUOUS
 10
305.372498
 20
71.422501
 40
2.500000
 50
-90.000000
 51
0.000000
  0
LINE
  8
0
  6
CONTINUOUS
 10
316.872498
 20
17.422501
 11
316.872498
 21
101.515900
  0
LINE
  8
0
  6
CONTINUOUS
 10
378.872498
 20
17.422501
 11
378.872498
 21
101.516006
  0
LINE
  8
0
  6
CONTINUOUS
 10
376.907410
 20
103.515709
 11
347.872498
 21
104.022507
  0
LINE
  8
0
  6
CONTINUOUS
 10
318.837585
 20
103.515602
 11
347.872498
 21
104.022507
  0
ARC
  8
0
  6
CONTINUOUS
 10
376.872498
 20
101.516006
 40
2.000000
 50
0.000000
 51
89.000137
  0
ARC
  8
0
  6
CONTINUOUS
 10
318.872498
 20
101.515907
 40
2.000000
 50
91.000641
 51
180.000000
  0
LINE
  8
0
  6
CONTINUOUS
 10
381.872498
 20
91.422501
 11
378.872498
 21
91.422501
  0
LINE
  8
0
  6
CONTINUOUS
 10
381.872498
 20
51.422501
 11
378.872498
 21
51.422501
  0
LINE
  8
0
  6
CONTINUOUS
 10
382.872498
 20
52.422501
 11
382.872498
 21
90.422501
  0
ARC
  8
0
  6
CONTINUOUS
 10
381.872498
 20
90.422501
 40
1.000000
 50
0.000000
 51
90.000000
  0
ARC
  8
0
  6
CONTINUOUS
 10
381.872498
 20
52.422497
 40
1.000000
 50
-90.000000
 51
0.000000
  0
LINE
  8
0
  6
CONTINUOUS
 10
313.872498
 20
14.422500
 11
302.872498
 21
14.422500
  0
LINE
  8
0
  6
CONTINUOUS
 10
300.872498
 20
12.422500
 11
300.872498
 21
6.422500
  0
LINE
  8
0
  6
CENTER
 10
307.872498
 20
17.059999
 11
307.872498
 21
2.810000
  0
LINE
  8
0
  6
DASHED
 10
391.122498
 20
14.422500
 11
391.122498
 21
6.422500
  0
LINE
  8
0
  6
DASHED
 10
384.622498
 20
14.422500
 11
384.622498
 21
6.422500
  0
LINE
  8
0
  6
DASHED
 10
311.122498
 20
14.422500
 11
311.122498
 21
6.422500
  0
LINE
  8
0
  6
DASHED
 10
304.622498
 20
14.422500
 11
304.622498
 21
6.422500
  0
ARC
  8
0
  6
CONTINUOUS
 10
392.872498
 20
12.422490
 40
2.000000
 50
0.000000
 51
90.000000
  0
ARC
  8
0
  6
CONTINUOUS
 10
302.872498
 20
12.422510
 40
2.000000
 50
90.000000
 51
180.000000
  0
LINE
  8
0
  6
CONTINUOUS
 10
318.378601
 20
84.722511
 11
377.331512
 21
84.722511
  0
LINE
  8
0
  6
CONTINUOUS
 10
313.872498
 20
91.422501
 11
316.872498
 21
91.422501
  0
LINE
  8
0
  6
CONTINUOUS
 10
313.872498
 20
51.422501
 11
316.872498
 21
51.422501
  0
LINE
  8
0
  6
CONTINUOUS
 10
312.872498
 20
52.422501
 11
312.872498
 21
90.422501
  0
ARC
  8
0
  6
CONTINUOUS
 10
313.872498
 20
90.422501
 40
1.000000
 50
90.000000
 51
180.000000
  0
ARC
  8
0
  6
CONTINUOUS
 10
313.872498
 20
52.422497
 40
1.000000
 50
180.000000
 51
270.000000
  0
LINE
  8
0
  6
CONTINUOUS
 10
411.872498
 20
78.922501
 11
384.872498
 21
78.922501
  0
LINE
  8
0
  6
CONTINUOUS
 10
411.872498
 20
63.922501
 11
384.872498
 21
63.922501
  0
LINE
  8
0
  6
CONTINUOUS
 10
411.872498
 20
78.922501
 11
411.872498
 21
63.922501
  0
LINE
  8
0
  6
CONTINUOUS
 10
411.872498
 20
73.922501
 11
390.372498
 21
73.922501
  0
LINE
  8
0
  6
CONTINUOUS
 10
411.872498
 20
68.922501
 11
390.372498
 21
68.922501
  0
LINE
  8
0
  6
CONTINUOUS
 10
384.872498
 20
79.922501
 11
384.872498
 21
62.922501
  0
ARC
  8
0
  6
CONTINUOUS
 10
390.372498
 20
71.422493
 40
2.500000
 50
90.000000
 51
180.000000
  0
ARC
  8
0
  6
CONTINUOUS
 10
390.372498
 20
71.422501
 40
2.500000
 50
180.000000
 51
270.000000
  0
ARC
  8
0
  6
CONTINUOUS
 10
347.872498
 20
49.122501
 40
38.000000
 50
-35.334469
 51
21.294241
  0
ARC
  8
0
  6
CONTINUOUS
 10
347.872498
 20
49.122501
 40
38.000000
 50
158.705795
 51
215.334503
  0
LINE
  8
0
  6
CENTER
 10
298.872498
 20
49.122501
 11
397.122498
 21
49.122501
  0
LINE
  8
0
  6
CONTINUOUS
 10
310.872498
 20
79.922501
 11
312.872498
 21
79.922501
  0
LINE
  8
0
  6
CONTINUOUS
 10
310.872498
 20
62.922501
 11
312.872498
 21
62.922501
  0
LINE
  8
0
  6
CONTINUOUS
 10
382.872498
 20
79.922501
 11
384.872498
 21
79.922501
  0
LINE
  8
0
  6
CONTINUOUS
 10
382.872498
 20
62.922501
 11
384.872498
 21
62.922501
  0
ARC
  8
0
  6
CONTINUOUS
 10
313.872498
 20
17.422489
 40
3.000000
 50
-90.000000
 51
0.000000
  0
ARC
  8
0
  6
CONTINUOUS
 10
381.872498
 20
17.422501
 40
3.000000
 50
180.000000
 51
270.000000
  0
LINE
  8
0
  6
CONTINUOUS
 10
387.872498
 20
26.122499
 11
387.872498
 21
63.922501
  0
LINE
  8
0
  6
CONTINUOUS
 10
307.872498
 20
27.193569
 11
307.872498
 21
63.922501
  0
LINE
  8
0
  6
CONTINUOUS
 10
384.872498
 20
23.122499
 11
381.269501
 21
23.122499
  0
LINE
  8
0
  6
CONTINUOUS
 10
309.337006
 20
23.658030
 11
316.666107
 21
16.328920
  0
LINE
  8
0
  6
CONTINUOUS
 10
378.872498
 20
20.725531
 11
381.269501
 21
23.122499
  0
ARC
  8
0
  6
CONTINUOUS
 10
312.872498
 20
27.193600
 40
5.000000
 50
180.000000
 51
225.000397
  0
ARC
  8
0
  6
CONTINUOUS
 10
384.872498
 20
26.122490
 40
3.000000
 50
-90.000000
 51
0.000000
  0
LINE
  8
0
  6
CONTINUOUS
 10
53.872501
 20
221.751251
 11
53.872501
 21
267.751251
  0
LINE
  8
0
  6
CONTINUOUS
 10
55.872501
 20
269.751251
 11
53.872501
 21
267.751251
  0
LINE
  8
0
  6
CONTINUOUS
 10
55.872501
 20
269.751251
 11
101.872490
 21
269.751251
  0
LINE
  8
0
  6
CONTINUOUS
 10
96.372498
 20
265.251251
 11
96.372498
 21
269.751251
  0
ARC
  8
0
  6
CONTINUOUS
 10
99.372498
 20
265.251251
 40
3.000000
 50
180.000000
 51
270.000000
  0
LINE
  8
0
  6
CONTINUOUS
 10
99.372498
 20
262.251251
 11
103.872490
 21
262.251251
  0
CIRCLE
  8
0
  6
CONTINUOUS
 10
100.372498
 20
266.251251
 40
2.250000
  0
LINE
  8
0
  6
CONTINUOUS
 10
103.872498
 20
221.751251
 11
103.872490
 21
267.751251
  0
LINE
  8
0
  6
CONTINUOUS
 10
101.872490
 20
269.751251
 11
103.872490
 21
267.751251
  0
LINE
  8
0
  6
CONTINUOUS
 10
101.872498
 20
219.751251
 11
103.872498
 21
221.751251
  0
LINE
  8
0
  6
CONTINUOUS
 10
101.872498
 20
219.751251
 11
55.872501
 21
219.751251
  0
LINE
  8
0
  6
CONTINUOUS
 10
53.872501
 20
221.751251
 11
55.872501
 21
219.751251
  0
LINE
  8
0
  6
CONTINUOUS
 10
58.372501
 20
227.251251
 11
53.872509
 21
227.251251
  0
CIRCLE
  8
0
  6
CONTINUOUS
 10
57.372501
 20
223.251251
 40
2.250000
  0
ARC
  8
0
  6
CONTINUOUS
 10
58.372501
 20
224.251251
 40
3.000000
 50
0.000000
 51
90.000000
  0
LINE
  8
0
  6
CONTINUOUS
 10
61.372501
 20
224.251251
 11
61.372501
 21
219.751251
  0
LINE
  8
0
  6
CENTER
 10
78.872498
 20
212.285461
 11
78.872498
 21
276.417511
  0
LINE
  8
0
  6
CONTINUOUS
 10
54.872505
 20
227.251251
 11
54.872505
 21
262.251251
  0
LINE
  8
0
  6
CONTINUOUS
 10
96.372498
 20
268.751251
 11
61.372501
 21
268.751251
  0
LINE
  8
0
  6
CONTINUOUS
 10
102.872498
 20
262.251251
 11
102.872498
 21
227.251251
  0
LINE
  8
0
  6
CONTINUOUS
 10
61.372501
 20
220.751251
 11
96.372498
 21
220.751251
  0
LINE
  8
0
  6
CONTINUOUS
 10
58.372501
 20
262.251251
 11
53.872501
 21
262.251251
  0
ARC
  8
0
  6
CONTINUOUS
 10
58.372501
 20
265.251251
 40
3.000000
 50
-90.000000
 51
0.000000
  0
LINE
  8
0
  6
CONTINUOUS
 10
61.372501
 20
265.251251
 11
61.372501
 21
269.751251
  0
CIRCLE
  8
0
  6
CONTINUOUS
 10
57.372501
 20
266.251251
 40
2.250000
  0
ARC
  8
0
  6
CONTINUOUS
 10
99.372498
 20
224.251251
 40
3.000000
 50
90.000000
 51
180.000000
  0
LINE
  8
0
  6
CONTINUOUS
 10
96.372498
 20
224.251251
 11
96.372498
 21
219.751266
  0
LINE
  8
0
  6
CONTINUOUS
 10
99.372498
 20
227.251251
 11
103.872498
 21
227.251251
  0
CIRCLE
  8
0
  6
CONTINUOUS
 10
100.372498
 20
223.251251
 40
2.250000
  0
LINE
  8
0
  6
CONTINUOUS
 10
372.872467
 20
132.622498
 11
372.872498
 21
103.586143
  0
LINE
  8
0
  6
CONTINUOUS
 10
322.872498
 20
132.622498
 11
322.872498
 21
103.586037
  0
LINE
  8
0
  6
CONTINUOUS
 10
323.872498
 20
133.622498
 11
371.872467
 21
133.622498
  0
LINE
  8
0
  6
CONTINUOUS
 10
371.872467
 20
133.622498
 11
372.872467
 21
132.622498
  0
LINE
  8
0
  6
CONTINUOUS
 10
323.872498
 20
133.622498
 11
322.872498
 21
132.622498
  0
LINE
  8
0
  6
CONTINUOUS
 10
322.872498
 20
132.622498
 11
372.872467
 21
132.622498
  0
LINE
  8
0
  6
CONTINUOUS
 10
55.372501
 20
88.622498
 11
101.872498
 21
88.622498
  0
LINE
  8
0
  6
CONTINUOUS
 10
103.872482
 20
132.622498
 11
103.872498
 21
90.622498
  0
LINE
  8
0
  6
CONTINUOUS
 10
53.872501
 20
132.622498
 11
53.872501
 21
90.622498
  0
LINE
  8
0
  6
CONTINUOUS
 10
53.872501
 20
100.622498
 11
103.872498
 21
100.622498
  0
LINE
  8
0
  6
CONTINUOUS
 10
101.872498
 20
88.622498
 11
103.872498
 21
90.622498
  0
LINE
  8
0
  6
CONTINUOUS
 10
53.872501
 20
90.622498
 11
55.872501
 21
88.622498
  0
LINE
  8
0
  6
CONTINUOUS
 10
53.872501
 20
90.622498
 11
103.872498
 21
90.622498
  0
LINE
  8
0
  6
CONTINUOUS
 10
53.872501
 20
101.622498
 11
103.872482
 21
101.622498
  0
LINE
  8
0
  6
CONTINUOUS
 10
54.872501
 20
133.622498
 11
102.872482
 21
133.622498
  0
LINE
  8
0
  6
CONTINUOUS
 10
102.872482
 20
133.622498
 11
103.872482
 21
132.622498
  0
LINE
  8
0
  6
CONTINUOUS
 10
54.872501
 20
133.622498
 11
53.872501
 21
132.622498
  0
LINE
  8
0
  6
CONTINUOUS
 10
53.872501
 20
132.622498
 11
103.872482
 21
132.622498
  0
LINE
  8
0
  6
CENTER
 10
78.872498
 20
82.232986
 11
78.872498
 21
139.925003
  0
LINE
  8
0
  6
CENTER
 10
51.497501
 20
116.622498
 11
56.122501
 21
116.622498
  0
LINE
  8
0
  6
CONTINUOUS
 10
55.372501
 20
88.622498
 11
55.372501
 21
87.122498
  0
LINE
  8
0
  6
CONTINUOUS
 10
101.372498
 20
88.622498
 11
101.372498
 21
87.122498
  0
LINE
  8
0
  6
CONTINUOUS
 10
52.997501
 20
127.122498
 11
54.997501
 21
127.122498
  0
LINE
  8
0
  6
CONTINUOUS
 10
52.997501
 20
106.122498
 11
54.997501
 21
106.122498
  0
TEXT
  8
0
 10
-8.000000
 20
0.000000
 40
4.000000
 41
1.000000
  1
HLM-15T-10~120-S40WK
 50
0.000000
  0
ENDSEC
  0
EOF
