  0
SECTION
  2
HEADER
  9
$CLAYER
  8
1
  9
$LTSCALE
 40
3.0
  0
ENDSEC
  0
SECTION
  2
TABLES
  0
TABLE
  2
LTYPE
 70
     4
  0
LTYPE
  2
CONTINUOUS
  3
solid line
 70
    64
 72
    65
 73
     0
 40
0.0
  0
LTYPE
  2
DASHED
  3
__ __ __ __ __ __ __ __ __ __ __ __ __ __ __
 70
    64
 72
    65
 73
     2
 40
0.75
 49
0.5
 49
-0.25
  0
LTYPE
  2
CENTER
  3
____ _ ____ _ ____ _ ____ _ ____ _ ____ _ ____
 70
    64
 72
    65
 73
     4
 40
2.0
 49
1.25
 49
-0.25
 49
0.25
 49
-0.25
  0
LTYPE
  2
PHANTOM
  3
_____ _ _ _____ _ _ _____ _ _ _____ _ _ ____
 70
    64
 72
    65
 73
     6
 40
2.5
 49
1.25
 49
-0.25
 49
0.25
 49
-0.25
 49
0.25
 49
-0.25
  0
ENDTAB
  0
TABLE
  2
LAYER
 70
     1
  0
LAYER
  2
0
 70
    64
 62
     7
  6
CONTINUOUS
  0
ENDTAB
  0
TABLE
  2
STYLE
 70
     1
  0
STYLE
  2
STANDARD
 70
     0
 40
0.000000
 41
1.000000
 50
0.000000
 71
     0
 42
3.000000
  3
txt
  4
BIGFONT
  0
ENDTAB
  0
ENDSEC
  0
SECTION
  2
BLOCKS
  0
ENDSEC
  0
SECTION
  2
ENTITIES
  0
LINE
  8
0
  6
CENTER
 10
175.332504
 20
313.251251
 11
175.332504
 21
176.751251
  0
LINE
  8
0
  6
CENTER
 10
-10.118750
 20
244.751251
 11
229.072495
 21
244.751251
  0
LINE
  8
0
  6
CONTINUOUS
 10
135.339005
 20
275.751251
 11
215.326004
 21
275.751251
  0
LINE
  8
0
  6
CONTINUOUS
 10
217.063568
 20
288.803619
 11
217.832504
 21
244.751251
  0
LINE
  8
0
  6
CONTINUOUS
 10
50.832500
 20
282.751251
 11
60.332500
 21
282.751251
  0
LINE
  8
0
  6
CONTINUOUS
 10
50.832500
 20
206.751251
 11
60.332500
 21
206.751251
  0
LINE
  8
0
  6
CONTINUOUS
 10
50.832500
 20
267.751251
 11
51.332500
 21
267.751251
  0
LINE
  8
0
  6
CONTINUOUS
 10
60.332500
 20
206.751251
 11
60.332500
 21
219.751251
  0
LINE
  8
0
  6
CONTINUOUS
 10
50.832500
 20
221.751251
 11
51.332500
 21
221.751251
  0
LINE
  8
0
  6
CONTINUOUS
 10
136.600861
 20
291.751251
 11
167.832504
 21
291.751251
  0
ARC
  8
0
  6
CONTINUOUS
 10
214.064026
 20
288.751251
 40
3.000000
 50
1.000000
 51
90.000000
  0
LINE
  8
0
  6
CONTINUOUS
 10
133.601318
 20
288.803589
 11
133.376938
 21
275.947144
  0
ARC
  8
0
  6
CONTINUOUS
 10
215.326004
 20
273.751251
 40
2.000000
 50
1.000000
 51
90.000000
  0
ARC
  8
0
  6
CONTINUOUS
 10
135.339005
 20
273.751251
 40
2.000000
 50
90.000000
 51
179.000000
  0
ARC
  8
0
  6
CONTINUOUS
 10
136.600861
 20
288.751251
 40
3.000000
 50
90.000000
 51
179.000153
  0
LINE
  8
0
  6
CONTINUOUS
 10
130.832504
 20
282.751251
 11
60.332500
 21
282.751251
  0
LINE
  8
0
  6
CONTINUOUS
 10
101.332489
 20
267.751251
 11
136.252182
 21
267.751251
  0
LINE
  8
0
  6
CENTER
 10
131.457504
 20
284.751251
 11
149.082504
 21
284.751251
  0
LINE
  8
0
  6
CENTER
 10
209.332504
 20
294.501251
 11
209.332504
 21
276.501251
  0
CIRCLE
  8
0
  6
CONTINUOUS
 10
209.332504
 20
284.751251
 40
3.250000
  0
LINE
  8
0
  6
CENTER
 10
141.332504
 20
294.501251
 11
141.332504
 21
276.501251
  0
CIRCLE
  8
0
  6
CONTINUOUS
 10
141.332504
 20
284.751251
 40
3.250000
  0
LINE
  8
0
  6
CENTER
 10
200.832504
 20
284.751251
 11
219.957504
 21
284.751251
  0
LINE
  8
0
  6
CONTINUOUS
 10
135.339005
 20
213.751251
 11
215.326004
 21
213.751251
  0
LINE
  8
0
  6
CONTINUOUS
 10
217.063568
 20
200.698898
 11
217.832504
 21
244.751251
  0
LINE
  8
0
  6
CONTINUOUS
 10
136.600861
 20
197.751251
 11
167.832504
 21
197.751251
  0
ARC
  8
0
  6
CONTINUOUS
 10
214.064026
 20
200.751251
 40
3.000000
 50
-90.000000
 51
-1.000000
  0
LINE
  8
0
  6
CONTINUOUS
 10
133.601318
 20
200.698898
 11
133.376938
 21
213.555344
  0
ARC
  8
0
  6
CONTINUOUS
 10
215.326004
 20
215.751251
 40
2.000000
 50
-90.000000
 51
-1.000000
  0
ARC
  8
0
  6
CONTINUOUS
 10
135.339005
 20
215.751251
 40
2.000000
 50
-179.000000
 51
-90.000000
  0
ARC
  8
0
  6
CONTINUOUS
 10
136.600861
 20
200.751251
 40
3.000000
 50
-179.000153
 51
-90.000000
  0
LINE
  8
0
  6
CONTINUOUS
 10
60.332500
 20
206.751251
 11
130.832504
 21
206.751251
  0
LINE
  8
0
  6
CONTINUOUS
 10
101.332497
 20
221.751251
 11
136.252182
 21
221.751251
  0
LINE
  8
0
  6
CENTER
 10
131.457504
 20
204.751251
 11
149.082504
 21
204.751251
  0
LINE
  8
0
  6
CENTER
 10
209.332504
 20
195.001251
 11
209.332504
 21
213.001251
  0
CIRCLE
  8
0
  6
CONTINUOUS
 10
209.332504
 20
204.751251
 40
3.250000
  0
LINE
  8
0
  6
CENTER
 10
141.332504
 20
195.001251
 11
141.332504
 21
213.001251
  0
CIRCLE
  8
0
  6
CONTINUOUS
 10
141.332504
 20
204.751251
 40
3.250000
  0
LINE
  8
0
  6
CENTER
 10
200.832504
 20
204.751251
 11
219.957504
 21
204.751251
  0
LINE
  8
0
  6
CONTINUOUS
 10
167.832504
 20
180.751251
 11
167.832504
 21
207.751251
  0
LINE
  8
0
  6
CONTINUOUS
 10
167.832504
 20
180.751251
 11
184.832504
 21
180.751251
  0
LINE
  8
0
  6
CONTINUOUS
 10
166.832504
 20
207.751251
 11
183.832504
 21
207.751251
  0
LINE
  8
0
  6
CONTINUOUS
 10
155.332504
 20
278.751251
 11
155.332504
 21
275.751251
  0
LINE
  8
0
  6
CONTINUOUS
 10
195.332504
 20
278.751251
 11
195.332504
 21
275.751251
  0
LINE
  8
0
  6
CONTINUOUS
 10
194.332504
 20
279.751251
 11
156.332504
 21
279.751251
  0
ARC
  8
0
  6
CONTINUOUS
 10
156.332504
 20
278.751251
 40
1.000000
 50
90.000000
 51
180.000000
  0
ARC
  8
0
  6
CONTINUOUS
 10
194.332504
 20
278.751251
 40
1.000000
 50
0.000000
 51
90.000000
  0
LINE
  8
0
  6
CONTINUOUS
 10
155.332504
 20
210.751251
 11
155.332504
 21
213.751251
  0
LINE
  8
0
  6
CONTINUOUS
 10
195.332504
 20
210.751251
 11
195.332504
 21
213.751251
  0
LINE
  8
0
  6
CONTINUOUS
 10
194.332504
 20
209.751251
 11
156.332504
 21
209.751251
  0
ARC
  8
0
  6
CONTINUOUS
 10
156.332504
 20
210.751251
 40
1.000000
 50
180.000000
 51
270.000000
  0
ARC
  8
0
  6
CONTINUOUS
 10
194.332504
 20
210.751251
 40
1.000000
 50
-90.000000
 51
0.000000
  0
LINE
  8
0
  6
CONTINUOUS
 10
166.832504
 20
207.751251
 11
166.832504
 21
209.751251
  0
LINE
  8
0
  6
CONTINUOUS
 10
183.832504
 20
207.751251
 11
183.832504
 21
209.751251
  0
LINE
  8
0
  6
CONTINUOUS
 10
184.832504
 20
197.751251
 11
214.064026
 21
197.751251
  0
LINE
  8
0
  6
CONTINUOUS
 10
184.832504
 20
291.751251
 11
214.064026
 21
291.751251
  0
LINE
  8
0
  6
CONTINUOUS
 10
184.832504
 20
204.751251
 11
184.832504
 21
180.751251
  0
LINE
  8
0
  6
CONTINUOUS
 10
182.403503
 20
204.751251
 11
182.403503
 21
180.751251
  0
LINE
  8
0
  6
CONTINUOUS
 10
182.403503
 20
204.751251
 11
184.832504
 21
204.751251
  0
LINE
  8
0
  6
CONTINUOUS
 10
182.832504
 20
204.751251
 11
182.832504
 21
207.751251
  0
LINE
  8
0
  6
CONTINUOUS
 10
167.832504
 20
308.751251
 11
167.832504
 21
281.751251
  0
LINE
  8
0
  6
CONTINUOUS
 10
167.832504
 20
308.751251
 11
184.832504
 21
308.751251
  0
LINE
  8
0
  6
CONTINUOUS
 10
166.832504
 20
281.751251
 11
183.832504
 21
281.751251
  0
LINE
  8
0
  6
CONTINUOUS
 10
166.832504
 20
281.751251
 11
166.832504
 21
279.751251
  0
LINE
  8
0
  6
CONTINUOUS
 10
183.832504
 20
281.751251
 11
183.832504
 21
279.751251
  0
LINE
  8
0
  6
CONTINUOUS
 10
184.832504
 20
284.751251
 11
184.832504
 21
308.751251
  0
LINE
  8
0
  6
CONTINUOUS
 10
182.403503
 20
284.751251
 11
182.403503
 21
308.751251
  0
LINE
  8
0
  6
CONTINUOUS
 10
182.403503
 20
284.751251
 11
184.832504
 21
284.751251
  0
LINE
  8
0
  6
CONTINUOUS
 10
182.832504
 20
284.751251
 11
182.832504
 21
281.751251
  0
LINE
  8
0
  6
CONTINUOUS
 10
190.332504
 20
273.786163
 11
190.332504
 21
215.716339
  0
LINE
  8
0
  6
CONTINUOUS
 10
160.332504
 20
273.786163
 11
160.332504
 21
215.716339
  0
LINE
  8
0
  6
CONTINUOUS
 10
132.832504
 20
280.751251
 11
132.832504
 21
277.103394
  0
LINE
  8
0
  6
CONTINUOUS
 10
136.252182
 20
223.751251
 11
136.252182
 21
265.751526
  0
ARC
  8
0
  6
CONTINUOUS
 10
130.832504
 20
280.751251
 40
2.000000
 50
0.000000
 51
90.000000
  0
ARC
  8
0
  6
CONTINUOUS
 10
134.332504
 20
277.103394
 40
1.500000
 50
180.000000
 51
286.712646
  0
LINE
  8
0
  6
CONTINUOUS
 10
133.339233
 20
273.786163
 11
133.233902
 21
267.751251
  0
LINE
  8
0
  6
CONTINUOUS
 10
132.832504
 20
208.751251
 11
132.832504
 21
212.399094
  0
ARC
  8
0
  6
CONTINUOUS
 10
130.832504
 20
208.751251
 40
2.000000
 50
-90.000000
 51
0.000000
  0
ARC
  8
0
  6
CONTINUOUS
 10
134.332504
 20
212.399094
 40
1.500000
 50
-286.712646
 51
-180.000000
  0
LINE
  8
0
  6
CONTINUOUS
 10
133.339233
 20
215.716354
 11
133.233902
 21
221.751251
  0
LINE
  8
0
  6
CONTINUOUS
 10
60.332500
 20
269.751251
 11
60.332500
 21
282.751251
  0
LINE
  8
0
  6
CONTINUOUS
 10
50.832500
 20
204.751251
 11
50.832500
 21
237.251251
  0
LINE
  8
0
  6
CONTINUOUS
 10
6.832500
 20
284.751251
 11
50.832500
 21
284.751251
  0
LINE
  8
0
  6
CONTINUOUS
 10
6.832500
 20
204.751251
 11
50.832500
 21
204.751251
  0
LINE
  8
0
  6
CONTINUOUS
 10
1.832500
 20
209.751251
 11
1.832500
 21
279.751251
  0
ARC
  8
0
  6
CONTINUOUS
 10
6.832520
 20
279.751282
 40
5.000000
 50
90.000000
 51
180.000000
  0
ARC
  8
0
  6
CONTINUOUS
 10
6.832500
 20
209.751251
 40
5.000000
 50
180.000000
 51
270.000000
  0
LINE
  8
0
  6
CONTINUOUS
 10
4.332500
 20
218.751251
 11
50.832500
 21
218.751251
  0
LINE
  8
0
  6
CONTINUOUS
 10
4.332500
 20
268.751251
 11
50.832500
 21
268.751251
  0
LINE
  8
0
  6
CONTINUOUS
 10
50.332500
 20
252.251251
 11
51.332500
 21
252.251251
  0
ARC
  8
0
  6
CONTINUOUS
 10
50.332520
 20
251.251251
 40
1.000000
 50
90.000000
 51
180.000000
  0
LINE
  8
0
  6
CONTINUOUS
 10
45.832516
 20
248.751251
 11
45.832516
 21
240.751251
  0
LINE
  8
0
  6
CONTINUOUS
 10
45.832516
 20
248.751251
 11
49.332516
 21
250.251251
  0
LINE
  8
0
  6
CONTINUOUS
 10
45.832500
 20
240.751251
 11
49.332500
 21
239.251251
  0
LINE
  8
0
  6
CONTINUOUS
 10
49.332516
 20
251.251251
 11
49.332516
 21
238.251251
  0
LINE
  8
0
  6
CONTINUOUS
 10
50.332500
 20
237.251251
 11
51.332500
 21
237.251251
  0
ARC
  8
0
  6
CONTINUOUS
 10
50.332520
 20
238.251251
 40
1.000000
 50
-180.000000
 51
-90.000000
  0
LINE
  8
0
  6
CONTINUOUS
 10
51.332500
 20
221.751251
 11
51.332500
 21
267.751251
  0
LINE
  8
0
  6
CONTINUOUS
 10
53.332500
 20
269.751251
 11
51.332500
 21
267.751251
  0
LINE
  8
0
  6
CONTINUOUS
 10
53.332500
 20
269.751251
 11
99.332489
 21
269.751251
  0
LINE
  8
0
  6
CONTINUOUS
 10
93.832497
 20
265.251251
 11
93.832497
 21
269.751251
  0
ARC
  8
0
  6
CONTINUOUS
 10
96.832497
 20
265.251251
 40
3.000000
 50
180.000000
 51
270.000000
  0
LINE
  8
0
  6
CONTINUOUS
 10
96.832497
 20
262.251251
 11
101.332489
 21
262.251251
  0
CIRCLE
  8
0
  6
CONTINUOUS
 10
97.832497
 20
266.251251
 40
2.250000
  0
LINE
  8
0
  6
CONTINUOUS
 10
101.332497
 20
221.751251
 11
101.332489
 21
267.751251
  0
LINE
  8
0
  6
CONTINUOUS
 10
99.332489
 20
269.751251
 11
101.332489
 21
267.751251
  0
LINE
  8
0
  6
CONTINUOUS
 10
99.332497
 20
219.751251
 11
101.332497
 21
221.751251
  0
LINE
  8
0
  6
CONTINUOUS
 10
99.332497
 20
219.751251
 11
53.332500
 21
219.751251
  0
LINE
  8
0
  6
CONTINUOUS
 10
51.332500
 20
221.751251
 11
53.332500
 21
219.751251
  0
LINE
  8
0
  6
CONTINUOUS
 10
55.832500
 20
227.251251
 11
51.332512
 21
227.251251
  0
CIRCLE
  8
0
  6
CONTINUOUS
 10
54.832500
 20
223.251251
 40
2.250000
  0
ARC
  8
0
  6
CONTINUOUS
 10
55.832500
 20
224.251251
 40
3.000000
 50
0.000000
 51
90.000000
  0
LINE
  8
0
  6
CONTINUOUS
 10
58.832500
 20
224.251251
 11
58.832500
 21
219.751251
  0
LINE
  8
0
  6
CENTER
 10
76.332497
 20
212.285461
 11
76.332497
 21
276.417511
  0
LINE
  8
0
  6
CONTINUOUS
 10
53.746719
 20
268.751251
 11
52.332504
 21
267.337036
  0
LINE
  8
0
  6
CONTINUOUS
 10
52.332504
 20
227.251251
 11
52.332504
 21
267.337036
  0
LINE
  8
0
  6
CONTINUOUS
 10
93.832497
 20
268.751251
 11
53.746719
 21
268.751251
  0
LINE
  8
0
  6
CONTINUOUS
 10
100.332497
 20
262.251251
 11
100.332497
 21
222.165466
  0
LINE
  8
0
  6
CONTINUOUS
 10
58.832500
 20
220.751251
 11
98.918282
 21
220.751251
  0
LINE
  8
0
  6
CONTINUOUS
 10
98.918282
 20
220.751251
 11
100.332497
 21
222.165466
  0
LINE
  8
0
  6
CONTINUOUS
 10
50.832500
 20
252.251251
 11
50.832500
 21
284.751251
  0
LINE
  8
0
  6
CONTINUOUS
 10
50.832500
 20
87.122498
 11
60.332500
 21
87.122498
  0
LINE
  8
0
  6
CONTINUOUS
 10
50.832500
 20
11.122500
 11
60.332500
 21
11.122500
  0
LINE
  8
0
  6
CONTINUOUS
 10
50.832500
 20
9.122500
 11
50.832500
 21
89.122498
  0
LINE
  8
0
  6
CONTINUOUS
 10
50.832500
 20
79.371498
 11
60.332500
 21
79.371498
  0
LINE
  8
0
  6
CONTINUOUS
 10
50.832500
 20
18.873501
 11
60.332500
 21
18.873501
  0
LINE
  8
0
  6
CONTINUOUS
 10
6.832500
 20
89.122498
 11
50.832500
 21
89.122498
  0
LINE
  8
0
  6
CONTINUOUS
 10
6.832500
 20
9.122500
 11
50.832500
 21
9.122500
  0
LINE
  8
0
  6
CONTINUOUS
 10
1.832500
 20
14.122500
 11
1.832500
 21
84.122498
  0
ARC
  8
0
  6
CONTINUOUS
 10
6.832520
 20
84.122520
 40
5.000000
 50
90.000000
 51
180.000000
  0
ARC
  8
0
  6
CONTINUOUS
 10
6.832500
 20
14.122500
 40
5.000000
 50
180.000000
 51
270.000000
  0
LINE
  8
0
  6
CONTINUOUS
 10
4.332500
 20
75.122498
 11
50.832500
 21
75.122498
  0
LINE
  8
0
  6
CONTINUOUS
 10
4.332500
 20
25.122499
 11
50.832500
 21
25.122499
  0
LINE
  8
0
  6
CONTINUOUS
 10
60.332500
 20
11.122500
 11
60.332500
 21
87.122498
  0
LINE
  8
0
  6
CENTER
 10
-10.651250
 20
49.122501
 11
155.248749
 21
49.122501
  0
LINE
  8
0
  6
CONTINUOUS
 10
217.832504
 20
82.123077
 11
217.832504
 21
6.422500
  0
LINE
  8
0
  6
CONTINUOUS
 10
132.832504
 20
82.123100
 11
132.832504
 21
6.422500
  0
LINE
  8
0
  6
CONTINUOUS
 10
60.332500
 20
87.122498
 11
136.252197
 21
87.122498
  0
LINE
  8
0
  6
CONTINUOUS
 10
60.332500
 20
11.122500
 11
132.832504
 21
11.122500
  0
LINE
  8
0
  6
CENTER
 10
175.332504
 20
113.309998
 11
175.332504
 21
-0.377500
  0
LINE
  8
0
  6
CENTER
 10
148.681870
 20
71.422501
 11
203.117813
 21
71.422501
  0
LINE
  8
0
  6
CONTINUOUS
 10
132.832504
 20
6.422500
 11
217.832504
 21
6.422500
  0
LINE
  8
0
  6
CONTINUOUS
 10
161.912003
 20
104.022499
 11
188.753006
 21
104.022499
  0
LINE
  8
0
  6
CONTINUOUS
 10
215.704803
 20
86.215759
 11
191.625305
 21
103.115158
  0
LINE
  8
0
  6
CONTINUOUS
 10
134.960205
 20
86.215759
 11
159.039597
 21
103.115150
  0
ARC
  8
0
  6
CONTINUOUS
 10
188.753098
 20
99.022491
 40
5.000000
 50
54.938431
 51
90.000000
  0
ARC
  8
0
  6
CONTINUOUS
 10
161.912003
 20
99.022507
 40
5.000000
 50
90.000000
 51
125.062202
  0
ARC
  8
0
  6
CONTINUOUS
 10
212.832504
 20
82.123077
 40
5.000000
 50
0.000000
 51
54.938370
  0
ARC
  8
0
  6
CONTINUOUS
 10
137.832504
 20
82.123123
 40
5.000000
 50
125.062302
 51
180.000000
  0
LINE
  8
0
  6
CONTINUOUS
 10
134.832504
 20
14.422500
 11
215.832504
 21
14.422500
  0
LINE
  8
0
  6
CENTER
 10
209.332504
 20
17.809999
 11
209.332504
 21
2.060000
  0
LINE
  8
0
  6
CENTER
 10
141.332504
 20
17.809999
 11
141.332504
 21
2.310000
  0
LINE
  8
0
  6
DASHED
 10
144.582504
 20
14.422500
 11
144.582504
 21
6.422500
  0
LINE
  8
0
  6
DASHED
 10
138.082504
 20
14.422500
 11
138.082504
 21
6.422500
  0
LINE
  8
0
  6
DASHED
 10
212.582504
 20
14.422500
 11
212.582504
 21
6.422500
  0
LINE
  8
0
  6
DASHED
 10
206.082504
 20
14.422500
 11
206.082504
 21
6.422500
  0
LINE
  8
0
  6
CONTINUOUS
 10
215.332504
 20
72.783897
 11
215.332504
 21
44.061363
  0
LINE
  8
0
  6
CONTINUOUS
 10
135.332504
 20
72.783768
 11
135.332504
 21
44.060963
  0
ARC
  8
0
  6
CONTINUOUS
 10
175.332504
 20
58.422501
 40
42.500000
 50
199.749893
 51
340.250092
  0
ARC
  8
0
  6
CONTINUOUS
 10
175.332504
 20
58.422501
 40
42.500000
 50
19.749901
 51
160.250107
  0
LINE
  8
0
  6
CONTINUOUS
 10
184.832504
 20
73.922501
 11
184.832504
 21
68.922501
  0
LINE
  8
0
  6
CONTINUOUS
 10
179.832504
 20
68.922501
 11
179.832504
 21
73.922501
  0
LINE
  8
0
  6
CONTINUOUS
 10
179.832504
 20
73.922501
 11
184.832504
 21
73.922501
  0
LINE
  8
0
  6
CONTINUOUS
 10
179.832504
 20
68.922501
 11
184.832504
 21
68.922501
  0
ARC
  8
0
  6
CONTINUOUS
 10
175.332504
 20
71.422501
 40
7.500000
 50
19.471210
 51
340.528809
  0
ARC
  8
0
  6
CONTINUOUS
 10
215.832504
 20
12.422490
 40
2.000000
 50
0.000000
 51
90.000000
  0
ARC
  8
0
  6
CONTINUOUS
 10
134.832504
 20
12.422510
 40
2.000000
 50
90.000000
 51
180.000000
  0
CIRCLE
  8
0
  6
CONTINUOUS
 10
175.582504
 20
71.372498
 40
20.000000
  0
LINE
  8
0
  6
CONTINUOUS
 10
157.145096
 20
79.122498
 11
157.145203
 21
79.122498
  0
LINE
  8
0
  6
CONTINUOUS
 10
60.332451
 20
79.371498
 11
132.832504
 21
79.371498
  0
LINE
  8
0
  6
CONTINUOUS
 10
60.332451
 20
18.873501
 11
132.832504
 21
18.873501
  0
LINE
  8
0
  6
CONTINUOUS
 10
168.957504
 20
40.975723
 11
168.957504
 21
35.422501
  0
LINE
  8
0
  6
CONTINUOUS
 10
172.145004
 20
42.992813
 11
172.145004
 21
44.985001
  0
LINE
  8
0
  6
CONTINUOUS
 10
178.520004
 20
42.992813
 11
178.520004
 21
44.985001
  0
LINE
  8
0
  6
CONTINUOUS
 10
174.709900
 20
43.814590
 11
174.709900
 21
36.468399
  0
LINE
  8
0
  6
CONTINUOUS
 10
175.905304
 20
43.814590
 11
175.905304
 21
36.468399
  0
LINE
  8
0
  6
CONTINUOUS
 10
182.180603
 20
43.814590
 11
182.180603
 21
36.418591
  0
LINE
  8
0
  6
CONTINUOUS
 10
183.276306
 20
39.892471
 11
183.276306
 21
36.418591
  0
LINE
  8
0
  6
CONTINUOUS
 10
167.445007
 20
43.714981
 11
164.373093
 21
43.714981
  0
LINE
  8
0
  6
CONTINUOUS
 10
164.373093
 20
43.714981
 11
163.653305
 21
42.822479
  0
LINE
  8
0
  6
CONTINUOUS
 10
163.739899
 20
44.985001
 11
162.582504
 21
43.503002
  0
LINE
  8
0
  6
CONTINUOUS
 10
163.653305
 20
37.313419
 11
164.384598
 21
36.543098
  0
LINE
  8
0
  6
CONTINUOUS
 10
162.582504
 20
36.663361
 11
163.812302
 21
35.422501
  0
LINE
  8
0
  6
CONTINUOUS
 10
162.582504
 20
43.503002
 11
162.582504
 21
36.663361
  0
LINE
  8
0
  6
CONTINUOUS
 10
163.653305
 20
42.822479
 11
163.653305
 21
37.313419
  0
LINE
  8
0
  6
CONTINUOUS
 10
168.036102
 20
43.143536
 11
167.432907
 21
43.714981
  0
LINE
  8
0
  6
CONTINUOUS
 10
168.026505
 20
44.985001
 11
168.957504
 21
43.951859
  0
LINE
  8
0
  6
CONTINUOUS
 10
168.036102
 20
42.992813
 11
168.957504
 21
42.992813
  0
LINE
  8
0
  6
CONTINUOUS
 10
163.739899
 20
44.985001
 11
168.026505
 21
44.985001
  0
LINE
  8
0
  6
CONTINUOUS
 10
168.036102
 20
39.929825
 11
166.367706
 21
39.929825
  0
LINE
  8
0
  6
CONTINUOUS
 10
168.036102
 20
38.933731
 11
168.036102
 21
39.730606
  0
LINE
  8
0
  6
CONTINUOUS
 10
166.043900
 20
36.543098
 11
164.384598
 21
36.543098
  0
ARC
  8
0
  6
CONTINUOUS
 10
166.043900
 20
38.535290
 40
1.992187
 50
-89.999786
 51
0.000109
  0
LINE
  8
0
  6
CONTINUOUS
 10
168.036102
 20
36.184761
 11
168.036102
 21
35.422501
  0
LINE
  8
0
  6
CONTINUOUS
 10
168.957504
 20
43.951859
 11
168.957504
 21
42.992813
  0
LINE
  8
0
  6
CONTINUOUS
 10
168.036102
 20
39.929825
 11
168.036102
 21
38.535290
  0
LINE
  8
0
  6
CONTINUOUS
 10
166.367706
 20
40.975723
 11
166.367706
 21
39.929825
  0
LINE
  8
0
  6
CONTINUOUS
 10
168.036102
 20
35.422501
 11
168.957504
 21
35.422501
  0
LINE
  8
0
  6
CONTINUOUS
 10
168.036102
 20
36.184761
 11
167.127594
 21
35.422501
  0
LINE
  8
0
  6
CONTINUOUS
 10
175.905304
 20
36.468399
 11
176.303696
 21
36.468399
  0
LINE
  8
0
  6
CONTINUOUS
 10
174.236801
 20
36.468399
 11
174.236801
 21
35.422501
  0
LINE
  8
0
  6
CONTINUOUS
 10
176.303696
 20
36.468399
 11
176.303696
 21
35.422501
  0
LINE
  8
0
  6
CONTINUOUS
 10
177.854996
 20
42.992813
 11
178.520004
 21
42.992813
  0
LINE
  8
0
  6
CONTINUOUS
 10
172.145004
 20
42.992813
 11
172.852600
 21
42.992813
  0
LINE
  8
0
  6
CONTINUOUS
 10
172.145004
 20
44.985001
 11
178.520004
 21
44.985001
  0
LINE
  8
0
  6
CONTINUOUS
 10
174.236801
 20
35.422501
 11
176.303696
 21
35.422501
  0
LINE
  8
0
  6
CONTINUOUS
 10
174.236801
 20
36.468399
 11
174.709900
 21
36.468399
  0
ARC
  8
0
  6
CONTINUOUS
 10
185.529999
 20
42.432510
 40
2.552490
 50
-73.981873
 51
90.003510
  0
ARC
  8
0
  6
CONTINUOUS
 10
185.529999
 20
42.432510
 40
1.557193
 50
-82.585274
 51
62.411850
  0
LINE
  8
0
  6
CONTINUOUS
 10
181.707504
 20
44.985001
 11
185.529999
 21
44.985001
  0
LINE
  8
0
  6
CONTINUOUS
 10
181.707504
 20
44.985001
 11
181.707504
 21
43.814590
  0
LINE
  8
0
  6
CONTINUOUS
 10
183.276306
 20
43.814590
 11
183.276306
 21
40.888336
  0
LINE
  8
0
  6
CONTINUOUS
 10
186.234299
 20
39.979122
 11
187.814194
 21
36.418591
  0
LINE
  8
0
  6
CONTINUOUS
 10
185.316803
 20
39.892471
 11
186.811798
 21
36.418591
  0
LINE
  8
0
  6
CONTINUOUS
 10
181.707504
 20
36.418591
 11
182.180603
 21
36.418591
  0
LINE
  8
0
  6
CONTINUOUS
 10
183.276306
 20
36.418591
 11
183.712097
 21
36.418591
  0
LINE
  8
0
  6
CONTINUOUS
 10
183.712097
 20
35.422501
 11
181.707504
 21
35.422501
  0
LINE
  8
0
  6
CONTINUOUS
 10
186.613297
 20
36.418591
 11
186.811798
 21
36.418591
  0
LINE
  8
0
  6
CONTINUOUS
 10
187.814194
 20
36.418591
 11
188.082504
 21
36.418591
  0
LINE
  8
0
  6
CONTINUOUS
 10
186.613297
 20
35.422501
 11
188.082504
 21
35.422501
  0
LINE
  8
0
  6
CONTINUOUS
 10
188.082504
 20
36.418591
 11
188.082504
 21
35.422501
  0
LINE
  8
0
  6
CONTINUOUS
 10
186.613297
 20
36.418591
 11
186.613297
 21
35.422501
  0
LINE
  8
0
  6
CONTINUOUS
 10
183.712097
 20
36.418591
 11
183.712097
 21
35.422501
  0
LINE
  8
0
  6
CONTINUOUS
 10
181.707504
 20
36.418591
 11
181.707504
 21
35.422501
  0
LINE
  8
0
  6
CONTINUOUS
 10
173.195007
 20
43.814590
 11
172.852600
 21
42.992813
  0
LINE
  8
0
  6
CONTINUOUS
 10
177.566299
 20
43.814590
 11
177.854996
 21
42.992813
  0
LINE
  8
0
  6
CONTINUOUS
 10
175.905304
 20
43.814590
 11
177.566299
 21
43.814590
  0
LINE
  8
0
  6
CONTINUOUS
 10
174.709900
 20
43.814590
 11
173.195007
 21
43.814590
  0
LINE
  8
0
  6
CONTINUOUS
 10
181.707504
 20
43.814590
 11
182.180603
 21
43.814590
  0
LINE
  8
0
  6
CONTINUOUS
 10
183.276306
 20
43.814590
 11
186.251205
 21
43.812653
  0
LINE
  8
0
  6
CONTINUOUS
 10
168.036102
 20
43.143536
 11
168.036102
 21
42.992813
  0
LINE
  8
0
  6
CONTINUOUS
 10
163.812302
 20
35.422501
 11
167.127594
 21
35.422501
  0
LINE
  8
0
  6
CONTINUOUS
 10
183.276306
 20
40.888336
 11
185.731003
 21
40.888336
  0
LINE
  8
0
  6
CONTINUOUS
 10
183.276306
 20
39.892471
 11
185.316803
 21
39.892471
  0
LINE
  8
0
  6
CONTINUOUS
 10
166.367706
 20
40.975723
 11
168.957504
 21
40.975723
  0
LINE
  8
0
  6
CENTER
 10
345.332489
 20
0.060000
 11
345.332489
 21
135.119370
  0
LINE
  8
0
  6
CENTER
 10
272.238800
 20
71.422501
 11
415.681091
 21
71.422501
  0
LINE
  8
0
  6
CONTINUOUS
 10
298.332489
 20
6.422500
 11
392.332489
 21
6.422500
  0
LINE
  8
0
  6
CONTINUOUS
 10
379.332489
 20
14.422500
 11
390.332489
 21
14.422500
  0
LINE
  8
0
  6
CONTINUOUS
 10
392.332489
 20
12.422500
 11
392.332489
 21
6.422500
  0
LINE
  8
0
  6
CENTER
 10
385.332489
 20
17.309999
 11
385.332489
 21
0.310000
  0
LINE
  8
0
  6
CONTINUOUS
 10
281.332489
 20
78.922501
 11
308.332489
 21
78.922501
  0
LINE
  8
0
  6
CONTINUOUS
 10
281.332489
 20
63.922501
 11
308.332489
 21
63.922501
  0
LINE
  8
0
  6
CONTINUOUS
 10
281.332489
 20
78.922501
 11
281.332489
 21
63.922501
  0
LINE
  8
0
  6
CONTINUOUS
 10
281.332489
 20
73.922501
 11
302.832489
 21
73.922501
  0
LINE
  8
0
  6
CONTINUOUS
 10
281.332489
 20
68.922501
 11
302.832489
 21
68.922501
  0
LINE
  8
0
  6
CONTINUOUS
 10
308.332489
 20
79.922501
 11
308.332489
 21
62.922501
  0
ARC
  8
0
  6
CONTINUOUS
 10
302.832489
 20
71.422493
 40
2.500000
 50
0.000000
 51
90.000000
  0
ARC
  8
0
  6
CONTINUOUS
 10
302.832489
 20
71.422501
 40
2.500000
 50
-90.000000
 51
0.000000
  0
LINE
  8
0
  6
CONTINUOUS
 10
314.332489
 20
17.422501
 11
314.332489
 21
101.515900
  0
LINE
  8
0
  6
CONTINUOUS
 10
376.332489
 20
17.422501
 11
376.332489
 21
101.516006
  0
LINE
  8
0
  6
CONTINUOUS
 10
374.367401
 20
103.515709
 11
345.332489
 21
104.022507
  0
LINE
  8
0
  6
CONTINUOUS
 10
316.297607
 20
103.515602
 11
345.332489
 21
104.022507
  0
ARC
  8
0
  6
CONTINUOUS
 10
374.332489
 20
101.516006
 40
2.000000
 50
0.000000
 51
89.000137
  0
ARC
  8
0
  6
CONTINUOUS
 10
316.332489
 20
101.515907
 40
2.000000
 50
91.000641
 51
180.000000
  0
LINE
  8
0
  6
CONTINUOUS
 10
379.332489
 20
91.422501
 11
376.332489
 21
91.422501
  0
LINE
  8
0
  6
CONTINUOUS
 10
379.332489
 20
51.422501
 11
376.332489
 21
51.422501
  0
LINE
  8
0
  6
CONTINUOUS
 10
380.332489
 20
52.422501
 11
380.332489
 21
90.422501
  0
ARC
  8
0
  6
CONTINUOUS
 10
379.332489
 20
90.422501
 40
1.000000
 50
0.000000
 51
90.000000
  0
ARC
  8
0
  6
CONTINUOUS
 10
379.332489
 20
52.422497
 40
1.000000
 50
-90.000000
 51
0.000000
  0
LINE
  8
0
  6
CONTINUOUS
 10
311.332489
 20
14.422500
 11
300.332489
 21
14.422500
  0
LINE
  8
0
  6
CONTINUOUS
 10
298.332489
 20
12.422500
 11
298.332489
 21
6.422500
  0
LINE
  8
0
  6
CENTER
 10
305.332489
 20
17.059999
 11
305.332489
 21
2.810000
  0
LINE
  8
0
  6
DASHED
 10
388.582489
 20
14.422500
 11
388.582489
 21
6.422500
  0
LINE
  8
0
  6
DASHED
 10
382.082489
 20
14.422500
 11
382.082489
 21
6.422500
  0
LINE
  8
0
  6
DASHED
 10
308.582489
 20
14.422500
 11
308.582489
 21
6.422500
  0
LINE
  8
0
  6
DASHED
 10
302.082489
 20
14.422500
 11
302.082489
 21
6.422500
  0
ARC
  8
0
  6
CONTINUOUS
 10
390.332489
 20
12.422490
 40
2.000000
 50
0.000000
 51
90.000000
  0
ARC
  8
0
  6
CONTINUOUS
 10
300.332489
 20
12.422510
 40
2.000000
 50
90.000000
 51
180.000000
  0
LINE
  8
0
  6
CONTINUOUS
 10
315.838593
 20
84.722511
 11
374.791504
 21
84.722511
  0
LINE
  8
0
  6
CONTINUOUS
 10
311.332489
 20
91.422501
 11
314.332489
 21
91.422501
  0
LINE
  8
0
  6
CONTINUOUS
 10
311.332489
 20
51.422501
 11
314.332489
 21
51.422501
  0
LINE
  8
0
  6
CONTINUOUS
 10
310.332489
 20
52.422501
 11
310.332489
 21
90.422501
  0
ARC
  8
0
  6
CONTINUOUS
 10
311.332489
 20
90.422501
 40
1.000000
 50
90.000000
 51
180.000000
  0
ARC
  8
0
  6
CONTINUOUS
 10
311.332489
 20
52.422497
 40
1.000000
 50
180.000000
 51
270.000000
  0
LINE
  8
0
  6
CONTINUOUS
 10
409.332489
 20
78.922501
 11
382.332489
 21
78.922501
  0
LINE
  8
0
  6
CONTINUOUS
 10
409.332489
 20
63.922501
 11
382.332489
 21
63.922501
  0
LINE
  8
0
  6
CONTINUOUS
 10
409.332489
 20
78.922501
 11
409.332489
 21
63.922501
  0
LINE
  8
0
  6
CONTINUOUS
 10
409.332489
 20
73.922501
 11
387.832489
 21
73.922501
  0
LINE
  8
0
  6
CONTINUOUS
 10
409.332489
 20
68.922501
 11
387.832489
 21
68.922501
  0
LINE
  8
0
  6
CONTINUOUS
 10
382.332489
 20
79.922501
 11
382.332489
 21
62.922501
  0
ARC
  8
0
  6
CONTINUOUS
 10
387.832489
 20
71.422493
 40
2.500000
 50
90.000000
 51
180.000000
  0
ARC
  8
0
  6
CONTINUOUS
 10
387.832489
 20
71.422501
 40
2.500000
 50
180.000000
 51
270.000000
  0
ARC
  8
0
  6
CONTINUOUS
 10
345.332489
 20
49.122501
 40
38.000000
 50
-35.334469
 51
21.294241
  0
ARC
  8
0
  6
CONTINUOUS
 10
345.332489
 20
49.122501
 40
38.000000
 50
158.705795
 51
215.334503
  0
LINE
  8
0
  6
CENTER
 10
296.332489
 20
49.122501
 11
394.582489
 21
49.122501
  0
LINE
  8
0
  6
CONTINUOUS
 10
308.332489
 20
79.922501
 11
310.332489
 21
79.922501
  0
LINE
  8
0
  6
CONTINUOUS
 10
308.332489
 20
62.922501
 11
310.332489
 21
62.922501
  0
LINE
  8
0
  6
CONTINUOUS
 10
380.332489
 20
79.922501
 11
382.332489
 21
79.922501
  0
LINE
  8
0
  6
CONTINUOUS
 10
380.332489
 20
62.922501
 11
382.332489
 21
62.922501
  0
ARC
  8
0
  6
CONTINUOUS
 10
311.332489
 20
17.422489
 40
3.000000
 50
-90.000000
 51
0.000000
  0
ARC
  8
0
  6
CONTINUOUS
 10
379.332489
 20
17.422501
 40
3.000000
 50
180.000000
 51
270.000000
  0
LINE
  8
0
  6
CONTINUOUS
 10
385.332489
 20
26.122499
 11
385.332489
 21
63.922501
  0
LINE
  8
0
  6
CONTINUOUS
 10
305.332489
 20
27.193569
 11
305.332489
 21
63.922501
  0
LINE
  8
0
  6
CONTINUOUS
 10
382.332489
 20
23.122499
 11
378.729492
 21
23.122499
  0
LINE
  8
0
  6
CONTINUOUS
 10
306.796997
 20
23.658030
 11
314.126099
 21
16.328920
  0
LINE
  8
0
  6
CONTINUOUS
 10
376.332489
 20
20.725531
 11
378.729492
 21
23.122499
  0
ARC
  8
0
  6
CONTINUOUS
 10
310.332489
 20
27.193600
 40
5.000000
 50
180.000000
 51
225.000397
  0
ARC
  8
0
  6
CONTINUOUS
 10
382.332489
 20
26.122490
 40
3.000000
 50
-90.000000
 51
0.000000
  0
LINE
  8
0
  6
CONTINUOUS
 10
52.832512
 20
88.622498
 11
99.332497
 21
88.622498
  0
LINE
  8
0
  6
CONTINUOUS
 10
101.332497
 20
118.622498
 11
101.332497
 21
90.622498
  0
LINE
  8
0
  6
CONTINUOUS
 10
51.332512
 20
118.622498
 11
51.332512
 21
90.622498
  0
LINE
  8
0
  6
CONTINUOUS
 10
49.332512
 20
100.622498
 11
101.332497
 21
100.622498
  0
LINE
  8
0
  6
CONTINUOUS
 10
99.332497
 20
88.622498
 11
101.332497
 21
90.622498
  0
LINE
  8
0
  6
CONTINUOUS
 10
51.332512
 20
90.622498
 11
53.332512
 21
88.622498
  0
LINE
  8
0
  6
CONTINUOUS
 10
51.332512
 20
90.622498
 11
101.332497
 21
90.622498
  0
LINE
  8
0
  6
CONTINUOUS
 10
52.332512
 20
119.622498
 11
100.332497
 21
119.622498
  0
LINE
  8
0
  6
CONTINUOUS
 10
100.332497
 20
119.622498
 11
101.332497
 21
118.622498
  0
LINE
  8
0
  6
CONTINUOUS
 10
52.332512
 20
119.622498
 11
51.332512
 21
118.622498
  0
LINE
  8
0
  6
CONTINUOUS
 10
51.332512
 20
118.622498
 11
101.332497
 21
118.622498
  0
LINE
  8
0
  6
CENTER
 10
43.388760
 20
110.122498
 11
55.463760
 21
110.122498
  0
LINE
  8
0
  6
CONTINUOUS
 10
49.332520
 20
116.622498
 11
49.332512
 21
100.622498
  0
LINE
  8
0
  6
CONTINUOUS
 10
50.332512
 20
117.622498
 11
51.332512
 21
117.622498
  0
ARC
  8
0
  6
CONTINUOUS
 10
50.332520
 20
116.622498
 40
1.000000
 50
90.000000
 51
180.000000
  0
LINE
  8
0
  6
CONTINUOUS
 10
45.832520
 20
114.122498
 11
45.832520
 21
106.122498
  0
LINE
  8
0
  6
CONTINUOUS
 10
45.832520
 20
114.122498
 11
49.332520
 21
115.622498
  0
LINE
  8
0
  6
CONTINUOUS
 10
45.832500
 20
106.122498
 11
49.332512
 21
104.622498
  0
LINE
  8
0
  6
CENTER
 10
76.332512
 20
83.928749
 11
76.332512
 21
128.898132
  0
LINE
  8
0
  6
CONTINUOUS
 10
52.832512
 20
88.622498
 11
52.832512
 21
87.122498
  0
LINE
  8
0
  6
CONTINUOUS
 10
98.832497
 20
88.622498
 11
98.832497
 21
87.122498
  0
LINE
  8
0
  6
CONTINUOUS
 10
370.332489
 20
118.622520
 11
370.332489
 21
103.586143
  0
LINE
  8
0
  6
CONTINUOUS
 10
320.332489
 20
118.622520
 11
320.332489
 21
103.586037
  0
LINE
  8
0
  6
CONTINUOUS
 10
321.332489
 20
119.622520
 11
369.332489
 21
119.622520
  0
LINE
  8
0
  6
CONTINUOUS
 10
369.332489
 20
119.622520
 11
370.332489
 21
118.622520
  0
LINE
  8
0
  6
CONTINUOUS
 10
321.332489
 20
119.622520
 11
320.332489
 21
118.622520
  0
LINE
  8
0
  6
CONTINUOUS
 10
320.332489
 20
118.622520
 11
370.332489
 21
118.622520
  0
TEXT
  8
0
 10
-10.000000
 20
0.000000
 40
4.000000
 41
1.000000
  1
HLM-15T-10~120-T40WT
 50
0.000000
  0
ENDSEC
  0
EOF
