  0
SECTION
  2
HEADER
  9
$CLAYER
  8
1
  9
$LTSCALE
 40
3.0
  0
ENDSEC
  0
SECTION
  2
TABLES
  0
TABLE
  2
LTYPE
 70
     4
  0
LTYPE
  2
CONTINUOUS
  3
solid line
 70
    64
 72
    65
 73
     0
 40
0.0
  0
LTYPE
  2
DASHED
  3
__ __ __ __ __ __ __ __ __ __ __ __ __ __ __
 70
    64
 72
    65
 73
     2
 40
0.75
 49
0.5
 49
-0.25
  0
LTYPE
  2
CENTER
  3
____ _ ____ _ ____ _ ____ _ ____ _ ____ _ ____
 70
    64
 72
    65
 73
     4
 40
2.0
 49
1.25
 49
-0.25
 49
0.25
 49
-0.25
  0
LTYPE
  2
PHANTOM
  3
_____ _ _ _____ _ _ _____ _ _ _____ _ _ ____
 70
    64
 72
    65
 73
     6
 40
2.5
 49
1.25
 49
-0.25
 49
0.25
 49
-0.25
 49
0.25
 49
-0.25
  0
ENDTAB
  0
TABLE
  2
LAYER
 70
     1
  0
LAYER
  2
0
 70
    64
 62
     7
  6
CONTINUOUS
  0
ENDTAB
  0
TABLE
  2
STYLE
 70
     1
  0
STYLE
  2
STANDARD
 70
     0
 40
0.000000
 41
1.000000
 50
0.000000
 71
     0
 42
3.000000
  3
txt
  4
BIGFONT
  0
ENDTAB
  0
ENDSEC
  0
SECTION
  2
BLOCKS
  0
ENDSEC
  0
SECTION
  2
ENTITIES
  0
LINE
  8
0
  6
CONTINUOUS
 10
56.817501
 20
93.230003
 11
66.317497
 21
93.230003
  0
LINE
  8
0
  6
CONTINUOUS
 10
56.817501
 20
17.230000
 11
66.317497
 21
17.230000
  0
LINE
  8
0
  6
CONTINUOUS
 10
56.817501
 20
15.230000
 11
56.817501
 21
95.230003
  0
LINE
  8
0
  6
CONTINUOUS
 10
66.817497
 20
94.730003
 11
66.817497
 21
93.230003
  0
LINE
  8
0
  6
CONTINUOUS
 10
59.817501
 20
94.730003
 11
59.817501
 21
93.230003
  0
LINE
  8
0
  6
CONTINUOUS
 10
59.817501
 20
94.730003
 11
66.817497
 21
94.730003
  0
LINE
  8
0
  6
CONTINUOUS
 10
64.217506
 20
107.730003
 11
64.217506
 21
94.730003
  0
LINE
  8
0
  6
CONTINUOUS
 10
62.417500
 20
108.355003
 11
62.417500
 21
94.730003
  0
LINE
  8
0
  6
CONTINUOUS
 10
60.617500
 20
106.292503
 11
60.617500
 21
94.730003
  0
LINE
  8
0
  6
CONTINUOUS
 10
66.017502
 20
107.105003
 11
66.017502
 21
94.730003
  0
LINE
  8
0
  6
CONTINUOUS
 10
62.417500
 20
108.355003
 11
64.217506
 21
107.730003
  0
LINE
  8
0
  6
CONTINUOUS
 10
60.617500
 20
106.292503
 11
62.417500
 21
106.917503
  0
LINE
  8
0
  6
CONTINUOUS
 10
66.017502
 20
107.105003
 11
64.218513
 21
106.657288
  0
LINE
  8
0
  6
CONTINUOUS
 10
56.817501
 20
85.478996
 11
66.317497
 21
85.478996
  0
LINE
  8
0
  6
CONTINUOUS
 10
56.817501
 20
24.981001
 11
66.317497
 21
24.981001
  0
LINE
  8
0
  6
CONTINUOUS
 10
12.817500
 20
95.230003
 11
56.817501
 21
95.230003
  0
LINE
  8
0
  6
CONTINUOUS
 10
12.817500
 20
15.230000
 11
56.817501
 21
15.230000
  0
LINE
  8
0
  6
CONTINUOUS
 10
7.817500
 20
20.230000
 11
7.817500
 21
90.230003
  0
ARC
  8
0
  6
CONTINUOUS
 10
12.817520
 20
90.230019
 40
5.000000
 50
90.000000
 51
180.000000
  0
ARC
  8
0
  6
CONTINUOUS
 10
12.817500
 20
20.230000
 40
5.000000
 50
180.000000
 51
270.000000
  0
LINE
  8
0
  6
CONTINUOUS
 10
10.317500
 20
81.230003
 11
56.817501
 21
81.230003
  0
LINE
  8
0
  6
CONTINUOUS
 10
10.317500
 20
31.230000
 11
56.817501
 21
31.230000
  0
LINE
  8
0
  6
CONTINUOUS
 10
66.317497
 20
17.230000
 11
66.317497
 21
93.230003
  0
LINE
  8
0
  6
CENTER
 10
-2.768125
 20
55.230000
 11
158.067505
 21
55.230000
  0
LINE
  8
0
  6
CONTINUOUS
 10
223.817505
 20
88.230583
 11
223.817505
 21
12.530000
  0
LINE
  8
0
  6
CONTINUOUS
 10
138.817505
 20
88.230598
 11
138.817505
 21
12.530000
  0
LINE
  8
0
  6
CONTINUOUS
 10
66.317497
 20
93.230003
 11
142.237198
 21
93.230003
  0
LINE
  8
0
  6
CONTINUOUS
 10
66.317497
 20
17.230000
 11
138.817505
 21
17.230000
  0
LINE
  8
0
  6
CENTER
 10
181.317505
 20
119.417503
 11
181.317505
 21
5.730000
  0
LINE
  8
0
  6
CENTER
 10
150.817505
 20
77.529999
 11
211.532501
 21
77.529999
  0
LINE
  8
0
  6
CONTINUOUS
 10
138.817505
 20
12.530000
 11
223.817505
 21
12.530000
  0
LINE
  8
0
  6
CONTINUOUS
 10
167.897003
 20
110.129997
 11
194.738007
 21
110.129997
  0
LINE
  8
0
  6
CONTINUOUS
 10
221.689804
 20
92.323257
 11
197.610306
 21
109.222656
  0
LINE
  8
0
  6
CONTINUOUS
 10
140.945206
 20
92.323257
 11
165.024597
 21
109.222649
  0
ARC
  8
0
  6
CONTINUOUS
 10
194.738098
 20
105.129990
 40
5.000000
 50
54.938431
 51
90.000000
  0
ARC
  8
0
  6
CONTINUOUS
 10
167.897003
 20
105.130013
 40
5.000000
 50
90.000000
 51
125.062202
  0
ARC
  8
0
  6
CONTINUOUS
 10
218.817505
 20
88.230583
 40
5.000000
 50
0.000000
 51
54.938370
  0
ARC
  8
0
  6
CONTINUOUS
 10
143.817505
 20
88.230621
 40
5.000000
 50
125.062302
 51
180.000000
  0
LINE
  8
0
  6
CONTINUOUS
 10
140.817505
 20
20.530001
 11
221.817505
 21
20.530001
  0
LINE
  8
0
  6
CENTER
 10
215.317505
 20
23.917500
 11
215.317505
 21
8.167500
  0
LINE
  8
0
  6
CENTER
 10
147.317505
 20
23.917500
 11
147.317505
 21
8.417500
  0
LINE
  8
0
  6
DASHED
 10
150.567505
 20
20.530001
 11
150.567505
 21
12.530000
  0
LINE
  8
0
  6
DASHED
 10
144.067505
 20
20.530001
 11
144.067505
 21
12.530000
  0
LINE
  8
0
  6
DASHED
 10
218.567505
 20
20.530001
 11
218.567505
 21
12.530000
  0
LINE
  8
0
  6
DASHED
 10
212.067505
 20
20.530001
 11
212.067505
 21
12.530000
  0
LINE
  8
0
  6
CONTINUOUS
 10
221.317505
 20
78.891403
 11
221.317505
 21
50.168861
  0
LINE
  8
0
  6
CONTINUOUS
 10
141.317505
 20
78.891273
 11
141.317505
 21
50.168461
  0
ARC
  8
0
  6
CONTINUOUS
 10
181.317505
 20
64.529999
 40
42.500000
 50
199.749893
 51
340.250092
  0
ARC
  8
0
  6
CONTINUOUS
 10
181.317505
 20
64.529999
 40
42.500000
 50
19.749901
 51
160.250107
  0
LINE
  8
0
  6
CONTINUOUS
 10
190.817505
 20
80.029999
 11
190.817505
 21
75.029999
  0
LINE
  8
0
  6
CONTINUOUS
 10
185.817505
 20
75.029999
 11
185.817505
 21
80.029999
  0
LINE
  8
0
  6
CONTINUOUS
 10
185.817505
 20
80.029999
 11
190.817505
 21
80.029999
  0
LINE
  8
0
  6
CONTINUOUS
 10
185.817505
 20
75.029999
 11
190.817505
 21
75.029999
  0
ARC
  8
0
  6
CONTINUOUS
 10
181.317505
 20
77.529999
 40
7.500000
 50
19.471210
 51
340.528809
  0
ARC
  8
0
  6
CONTINUOUS
 10
221.817505
 20
18.529989
 40
2.000000
 50
0.000000
 51
90.000000
  0
ARC
  8
0
  6
CONTINUOUS
 10
140.817505
 20
18.530010
 40
2.000000
 50
90.000000
 51
180.000000
  0
CIRCLE
  8
0
  6
CONTINUOUS
 10
181.567505
 20
77.480003
 40
20.000000
  0
LINE
  8
0
  6
CONTINUOUS
 10
163.130096
 20
85.230003
 11
163.130203
 21
85.230003
  0
LINE
  8
0
  6
CONTINUOUS
 10
66.317451
 20
85.478996
 11
138.817505
 21
85.478996
  0
LINE
  8
0
  6
CONTINUOUS
 10
66.317451
 20
24.981001
 11
138.817505
 21
24.981001
  0
LINE
  8
0
  6
CONTINUOUS
 10
174.942505
 20
47.083221
 11
174.942505
 21
41.529999
  0
LINE
  8
0
  6
CONTINUOUS
 10
178.130005
 20
49.100311
 11
178.130005
 21
51.092499
  0
LINE
  8
0
  6
CONTINUOUS
 10
184.505005
 20
49.100311
 11
184.505005
 21
51.092499
  0
LINE
  8
0
  6
CONTINUOUS
 10
180.694901
 20
49.922089
 11
180.694901
 21
42.575901
  0
LINE
  8
0
  6
CONTINUOUS
 10
181.890305
 20
49.922089
 11
181.890305
 21
42.575901
  0
LINE
  8
0
  6
CONTINUOUS
 10
188.165604
 20
49.922089
 11
188.165604
 21
42.526089
  0
LINE
  8
0
  6
CONTINUOUS
 10
189.261307
 20
45.999969
 11
189.261307
 21
42.526089
  0
LINE
  8
0
  6
CONTINUOUS
 10
173.429993
 20
49.822479
 11
170.358093
 21
49.822479
  0
LINE
  8
0
  6
CONTINUOUS
 10
170.358093
 20
49.822479
 11
169.638306
 21
48.929977
  0
LINE
  8
0
  6
CONTINUOUS
 10
169.724899
 20
51.092499
 11
168.567505
 21
49.610500
  0
LINE
  8
0
  6
CONTINUOUS
 10
169.638306
 20
43.420921
 11
170.369598
 21
42.650600
  0
LINE
  8
0
  6
CONTINUOUS
 10
168.567505
 20
42.770859
 11
169.797302
 21
41.529999
  0
LINE
  8
0
  6
CONTINUOUS
 10
168.567505
 20
49.610500
 11
168.567505
 21
42.770859
  0
LINE
  8
0
  6
CONTINUOUS
 10
169.638306
 20
48.929977
 11
169.638306
 21
43.420921
  0
LINE
  8
0
  6
CONTINUOUS
 10
174.021103
 20
49.251034
 11
173.417892
 21
49.822479
  0
LINE
  8
0
  6
CONTINUOUS
 10
174.011505
 20
51.092499
 11
174.942505
 21
50.059357
  0
LINE
  8
0
  6
CONTINUOUS
 10
174.021103
 20
49.100311
 11
174.942505
 21
49.100311
  0
LINE
  8
0
  6
CONTINUOUS
 10
169.724899
 20
51.092499
 11
174.011505
 21
51.092499
  0
LINE
  8
0
  6
CONTINUOUS
 10
174.021103
 20
46.037323
 11
172.352707
 21
46.037323
  0
LINE
  8
0
  6
CONTINUOUS
 10
174.021103
 20
45.041229
 11
174.021103
 21
45.838104
  0
LINE
  8
0
  6
CONTINUOUS
 10
172.028900
 20
42.650600
 11
170.369598
 21
42.650600
  0
ARC
  8
0
  6
CONTINUOUS
 10
172.028900
 20
44.642792
 40
1.992187
 50
-89.999786
 51
0.000109
  0
LINE
  8
0
  6
CONTINUOUS
 10
174.021103
 20
42.292259
 11
174.021103
 21
41.529999
  0
LINE
  8
0
  6
CONTINUOUS
 10
174.942505
 20
50.059357
 11
174.942505
 21
49.100311
  0
LINE
  8
0
  6
CONTINUOUS
 10
174.021103
 20
46.037323
 11
174.021103
 21
44.642792
  0
LINE
  8
0
  6
CONTINUOUS
 10
172.352707
 20
47.083221
 11
172.352707
 21
46.037323
  0
LINE
  8
0
  6
CONTINUOUS
 10
174.021103
 20
41.529999
 11
174.942505
 21
41.529999
  0
LINE
  8
0
  6
CONTINUOUS
 10
174.021103
 20
42.292259
 11
173.112595
 21
41.529999
  0
LINE
  8
0
  6
CONTINUOUS
 10
181.890305
 20
42.575901
 11
182.288696
 21
42.575901
  0
LINE
  8
0
  6
CONTINUOUS
 10
180.221802
 20
42.575901
 11
180.221802
 21
41.529999
  0
LINE
  8
0
  6
CONTINUOUS
 10
182.288696
 20
42.575901
 11
182.288696
 21
41.529999
  0
LINE
  8
0
  6
CONTINUOUS
 10
183.839996
 20
49.100311
 11
184.505005
 21
49.100311
  0
LINE
  8
0
  6
CONTINUOUS
 10
178.130005
 20
49.100311
 11
178.837601
 21
49.100311
  0
LINE
  8
0
  6
CONTINUOUS
 10
178.130005
 20
51.092499
 11
184.505005
 21
51.092499
  0
LINE
  8
0
  6
CONTINUOUS
 10
180.221802
 20
41.529999
 11
182.288696
 21
41.529999
  0
LINE
  8
0
  6
CONTINUOUS
 10
180.221802
 20
42.575901
 11
180.694901
 21
42.575901
  0
ARC
  8
0
  6
CONTINUOUS
 10
191.514999
 20
48.540009
 40
2.552490
 50
-73.981873
 51
90.003510
  0
ARC
  8
0
  6
CONTINUOUS
 10
191.514999
 20
48.540009
 40
1.557193
 50
-82.585274
 51
62.411850
  0
LINE
  8
0
  6
CONTINUOUS
 10
187.692505
 20
51.092499
 11
191.514999
 21
51.092499
  0
LINE
  8
0
  6
CONTINUOUS
 10
187.692505
 20
51.092499
 11
187.692505
 21
49.922089
  0
LINE
  8
0
  6
CONTINUOUS
 10
189.261307
 20
49.922089
 11
189.261307
 21
46.995834
  0
LINE
  8
0
  6
CONTINUOUS
 10
192.219299
 20
46.086620
 11
193.799194
 21
42.526089
  0
LINE
  8
0
  6
CONTINUOUS
 10
191.301804
 20
45.999969
 11
192.796799
 21
42.526089
  0
LINE
  8
0
  6
CONTINUOUS
 10
187.692505
 20
42.526089
 11
188.165604
 21
42.526089
  0
LINE
  8
0
  6
CONTINUOUS
 10
189.261307
 20
42.526089
 11
189.697098
 21
42.526089
  0
LINE
  8
0
  6
CONTINUOUS
 10
189.697098
 20
41.529999
 11
187.692505
 21
41.529999
  0
LINE
  8
0
  6
CONTINUOUS
 10
192.598297
 20
42.526089
 11
192.796799
 21
42.526089
  0
LINE
  8
0
  6
CONTINUOUS
 10
193.799194
 20
42.526089
 11
194.067505
 21
42.526089
  0
LINE
  8
0
  6
CONTINUOUS
 10
192.598297
 20
41.529999
 11
194.067505
 21
41.529999
  0
LINE
  8
0
  6
CONTINUOUS
 10
194.067505
 20
42.526089
 11
194.067505
 21
41.529999
  0
LINE
  8
0
  6
CONTINUOUS
 10
192.598297
 20
42.526089
 11
192.598297
 21
41.529999
  0
LINE
  8
0
  6
CONTINUOUS
 10
189.697098
 20
42.526089
 11
189.697098
 21
41.529999
  0
LINE
  8
0
  6
CONTINUOUS
 10
187.692505
 20
42.526089
 11
187.692505
 21
41.529999
  0
LINE
  8
0
  6
CONTINUOUS
 10
179.179993
 20
49.922089
 11
178.837601
 21
49.100311
  0
LINE
  8
0
  6
CONTINUOUS
 10
183.551300
 20
49.922089
 11
183.839996
 21
49.100311
  0
LINE
  8
0
  6
CONTINUOUS
 10
181.890305
 20
49.922089
 11
183.551300
 21
49.922089
  0
LINE
  8
0
  6
CONTINUOUS
 10
180.694901
 20
49.922089
 11
179.179993
 21
49.922089
  0
LINE
  8
0
  6
CONTINUOUS
 10
187.692505
 20
49.922089
 11
188.165604
 21
49.922089
  0
LINE
  8
0
  6
CONTINUOUS
 10
189.261307
 20
49.922089
 11
192.236206
 21
49.920151
  0
LINE
  8
0
  6
CONTINUOUS
 10
174.021103
 20
49.251034
 11
174.021103
 21
49.100311
  0
LINE
  8
0
  6
CONTINUOUS
 10
169.797302
 20
41.529999
 11
173.112595
 21
41.529999
  0
LINE
  8
0
  6
CONTINUOUS
 10
189.261307
 20
46.995834
 11
191.716003
 21
46.995834
  0
LINE
  8
0
  6
CONTINUOUS
 10
189.261307
 20
45.999969
 11
191.301804
 21
45.999969
  0
LINE
  8
0
  6
CONTINUOUS
 10
172.352707
 20
47.083221
 11
174.942505
 21
47.083221
  0
LINE
  8
0
  6
CENTER
 10
345.343689
 20
6.167500
 11
345.343689
 21
117.167503
  0
LINE
  8
0
  6
CENTER
 10
272.250000
 20
77.529999
 11
415.692291
 21
77.529999
  0
LINE
  8
0
  6
CONTINUOUS
 10
298.343689
 20
12.530000
 11
392.343689
 21
12.530000
  0
LINE
  8
0
  6
CONTINUOUS
 10
379.343689
 20
20.530001
 11
390.343689
 21
20.530001
  0
LINE
  8
0
  6
CONTINUOUS
 10
392.343689
 20
18.530001
 11
392.343689
 21
12.530000
  0
LINE
  8
0
  6
CENTER
 10
385.343689
 20
23.417500
 11
385.343689
 21
6.417500
  0
LINE
  8
0
  6
CONTINUOUS
 10
281.343689
 20
85.029999
 11
308.343689
 21
85.029999
  0
LINE
  8
0
  6
CONTINUOUS
 10
281.343689
 20
70.029999
 11
308.343689
 21
70.029999
  0
LINE
  8
0
  6
CONTINUOUS
 10
281.343689
 20
85.029999
 11
281.343689
 21
70.029999
  0
LINE
  8
0
  6
CONTINUOUS
 10
281.343689
 20
80.029999
 11
302.843689
 21
80.029999
  0
LINE
  8
0
  6
CONTINUOUS
 10
281.343689
 20
75.029999
 11
302.843689
 21
75.029999
  0
LINE
  8
0
  6
CONTINUOUS
 10
308.343689
 20
86.029999
 11
308.343689
 21
69.029999
  0
ARC
  8
0
  6
CONTINUOUS
 10
302.843689
 20
77.529991
 40
2.500000
 50
0.000000
 51
90.000000
  0
ARC
  8
0
  6
CONTINUOUS
 10
302.843689
 20
77.529999
 40
2.500000
 50
-90.000000
 51
0.000000
  0
LINE
  8
0
  6
CONTINUOUS
 10
314.343689
 20
23.530001
 11
314.343689
 21
107.623398
  0
LINE
  8
0
  6
CONTINUOUS
 10
376.343689
 20
23.530001
 11
376.343689
 21
107.623512
  0
LINE
  8
0
  6
CONTINUOUS
 10
374.378601
 20
109.623207
 11
345.343689
 21
110.130013
  0
LINE
  8
0
  6
CONTINUOUS
 10
316.308807
 20
109.623100
 11
345.343689
 21
110.130013
  0
ARC
  8
0
  6
CONTINUOUS
 10
374.343689
 20
107.623512
 40
2.000000
 50
0.000000
 51
89.000137
  0
ARC
  8
0
  6
CONTINUOUS
 10
316.343689
 20
107.623413
 40
2.000000
 50
91.000641
 51
180.000000
  0
LINE
  8
0
  6
CONTINUOUS
 10
379.343689
 20
97.529999
 11
376.343689
 21
97.529999
  0
LINE
  8
0
  6
CONTINUOUS
 10
379.343689
 20
57.529999
 11
376.343689
 21
57.529999
  0
LINE
  8
0
  6
CONTINUOUS
 10
380.343689
 20
58.529999
 11
380.343689
 21
96.529999
  0
ARC
  8
0
  6
CONTINUOUS
 10
379.343689
 20
96.529999
 40
1.000000
 50
0.000000
 51
90.000000
  0
ARC
  8
0
  6
CONTINUOUS
 10
379.343689
 20
58.529999
 40
1.000000
 50
-90.000000
 51
0.000000
  0
LINE
  8
0
  6
CONTINUOUS
 10
311.343689
 20
20.530001
 11
300.343689
 21
20.530001
  0
LINE
  8
0
  6
CONTINUOUS
 10
298.343689
 20
18.530001
 11
298.343689
 21
12.530000
  0
LINE
  8
0
  6
CENTER
 10
305.343689
 20
23.167500
 11
305.343689
 21
8.917500
  0
LINE
  8
0
  6
DASHED
 10
388.593689
 20
20.530001
 11
388.593689
 21
12.530000
  0
LINE
  8
0
  6
DASHED
 10
382.093689
 20
20.530001
 11
382.093689
 21
12.530000
  0
LINE
  8
0
  6
DASHED
 10
308.593689
 20
20.530001
 11
308.593689
 21
12.530000
  0
LINE
  8
0
  6
DASHED
 10
302.093689
 20
20.530001
 11
302.093689
 21
12.530000
  0
ARC
  8
0
  6
CONTINUOUS
 10
390.343689
 20
18.529989
 40
2.000000
 50
0.000000
 51
90.000000
  0
ARC
  8
0
  6
CONTINUOUS
 10
300.343689
 20
18.530010
 40
2.000000
 50
90.000000
 51
180.000000
  0
LINE
  8
0
  6
CONTINUOUS
 10
315.849792
 20
90.830009
 11
374.802704
 21
90.830009
  0
LINE
  8
0
  6
CONTINUOUS
 10
311.343689
 20
97.529999
 11
314.343689
 21
97.529999
  0
LINE
  8
0
  6
CONTINUOUS
 10
311.343689
 20
57.529999
 11
314.343689
 21
57.529999
  0
LINE
  8
0
  6
CONTINUOUS
 10
310.343689
 20
58.529999
 11
310.343689
 21
96.529999
  0
ARC
  8
0
  6
CONTINUOUS
 10
311.343689
 20
96.529999
 40
1.000000
 50
90.000000
 51
180.000000
  0
ARC
  8
0
  6
CONTINUOUS
 10
311.343689
 20
58.529999
 40
1.000000
 50
180.000000
 51
270.000000
  0
LINE
  8
0
  6
CONTINUOUS
 10
409.343689
 20
85.029999
 11
382.343689
 21
85.029999
  0
LINE
  8
0
  6
CONTINUOUS
 10
409.343689
 20
70.029999
 11
382.343689
 21
70.029999
  0
LINE
  8
0
  6
CONTINUOUS
 10
409.343689
 20
85.029999
 11
409.343689
 21
70.029999
  0
LINE
  8
0
  6
CONTINUOUS
 10
409.343689
 20
80.029999
 11
387.843689
 21
80.029999
  0
LINE
  8
0
  6
CONTINUOUS
 10
409.343689
 20
75.029999
 11
387.843689
 21
75.029999
  0
LINE
  8
0
  6
CONTINUOUS
 10
382.343689
 20
86.029999
 11
382.343689
 21
69.029999
  0
ARC
  8
0
  6
CONTINUOUS
 10
387.843689
 20
77.529991
 40
2.500000
 50
90.000000
 51
180.000000
  0
ARC
  8
0
  6
CONTINUOUS
 10
387.843689
 20
77.529999
 40
2.500000
 50
180.000000
 51
270.000000
  0
ARC
  8
0
  6
CONTINUOUS
 10
345.343689
 20
55.230000
 40
38.000000
 50
-35.334469
 51
21.294241
  0
ARC
  8
0
  6
CONTINUOUS
 10
345.343689
 20
55.230000
 40
38.000000
 50
158.705795
 51
215.334503
  0
LINE
  8
0
  6
CENTER
 10
296.343689
 20
55.230000
 11
394.593689
 21
55.230000
  0
LINE
  8
0
  6
CONTINUOUS
 10
308.343689
 20
86.029999
 11
310.343689
 21
86.029999
  0
LINE
  8
0
  6
CONTINUOUS
 10
308.343689
 20
69.029999
 11
310.343689
 21
69.029999
  0
LINE
  8
0
  6
CONTINUOUS
 10
380.343689
 20
86.029999
 11
382.343689
 21
86.029999
  0
LINE
  8
0
  6
CONTINUOUS
 10
380.343689
 20
69.029999
 11
382.343689
 21
69.029999
  0
ARC
  8
0
  6
CONTINUOUS
 10
311.343689
 20
23.529989
 40
3.000000
 50
-90.000000
 51
0.000000
  0
ARC
  8
0
  6
CONTINUOUS
 10
379.343689
 20
23.530001
 40
3.000000
 50
180.000000
 51
270.000000
  0
LINE
  8
0
  6
CONTINUOUS
 10
385.343689
 20
32.230000
 11
385.343689
 21
70.029999
  0
LINE
  8
0
  6
CONTINUOUS
 10
305.343689
 20
33.301071
 11
305.343689
 21
70.029999
  0
LINE
  8
0
  6
CONTINUOUS
 10
382.343689
 20
29.230000
 11
378.740692
 21
29.230000
  0
LINE
  8
0
  6
CONTINUOUS
 10
306.808197
 20
29.765530
 11
314.137299
 21
22.436420
  0
LINE
  8
0
  6
CONTINUOUS
 10
376.343689
 20
26.833031
 11
378.740692
 21
29.230000
  0
ARC
  8
0
  6
CONTINUOUS
 10
310.343689
 20
33.301102
 40
5.000000
 50
180.000000
 51
225.000397
  0
ARC
  8
0
  6
CONTINUOUS
 10
382.343689
 20
32.229988
 40
3.000000
 50
-90.000000
 51
0.000000
  0
LINE
  8
0
  6
CENTER
 10
181.317505
 20
313.086243
 11
181.317505
 21
176.586243
  0
LINE
  8
0
  6
CENTER
 10
-4.133750
 20
244.586243
 11
235.057495
 21
244.586243
  0
LINE
  8
0
  6
CONTINUOUS
 10
141.324005
 20
275.586243
 11
221.311005
 21
275.586243
  0
LINE
  8
0
  6
CONTINUOUS
 10
223.048569
 20
288.638611
 11
223.817505
 21
244.586243
  0
LINE
  8
0
  6
CONTINUOUS
 10
56.817501
 20
282.586243
 11
66.317497
 21
282.586243
  0
LINE
  8
0
  6
CONTINUOUS
 10
56.817501
 20
206.586243
 11
66.317497
 21
206.586243
  0
LINE
  8
0
  6
CONTINUOUS
 10
56.817501
 20
267.586243
 11
66.317497
 21
267.586243
  0
LINE
  8
0
  6
CONTINUOUS
 10
66.317497
 20
206.586243
 11
66.317497
 21
237.720230
  0
LINE
  8
0
  6
CONTINUOUS
 10
56.817501
 20
221.586243
 11
66.317497
 21
221.586243
  0
LINE
  8
0
  6
CONTINUOUS
 10
142.585861
 20
291.586243
 11
173.817505
 21
291.586243
  0
ARC
  8
0
  6
CONTINUOUS
 10
220.049026
 20
288.586243
 40
3.000000
 50
1.000000
 51
90.000000
  0
LINE
  8
0
  6
CONTINUOUS
 10
139.586319
 20
288.638611
 11
139.361938
 21
275.782166
  0
ARC
  8
0
  6
CONTINUOUS
 10
221.311005
 20
273.586243
 40
2.000000
 50
1.000000
 51
90.000000
  0
ARC
  8
0
  6
CONTINUOUS
 10
141.324005
 20
273.586243
 40
2.000000
 50
90.000000
 51
179.000000
  0
ARC
  8
0
  6
CONTINUOUS
 10
142.585861
 20
288.586243
 40
3.000000
 50
90.000000
 51
179.000153
  0
LINE
  8
0
  6
CONTINUOUS
 10
136.817505
 20
282.586243
 11
66.317497
 21
282.586243
  0
LINE
  8
0
  6
CONTINUOUS
 10
66.317497
 20
267.586243
 11
142.237183
 21
267.586243
  0
LINE
  8
0
  6
CENTER
 10
137.442505
 20
284.586243
 11
155.067505
 21
284.586243
  0
LINE
  8
0
  6
CENTER
 10
215.317505
 20
294.336243
 11
215.317505
 21
276.336243
  0
CIRCLE
  8
0
  6
CONTINUOUS
 10
215.317505
 20
284.586243
 40
3.250000
  0
LINE
  8
0
  6
CENTER
 10
147.317505
 20
294.336243
 11
147.317505
 21
276.336243
  0
CIRCLE
  8
0
  6
CONTINUOUS
 10
147.317505
 20
284.586243
 40
3.250000
  0
LINE
  8
0
  6
CENTER
 10
206.817505
 20
284.586243
 11
225.942505
 21
284.586243
  0
LINE
  8
0
  6
CONTINUOUS
 10
141.324005
 20
213.586243
 11
221.311005
 21
213.586243
  0
LINE
  8
0
  6
CONTINUOUS
 10
223.048569
 20
200.533890
 11
223.817505
 21
244.586243
  0
LINE
  8
0
  6
CONTINUOUS
 10
142.585861
 20
197.586243
 11
173.817505
 21
197.586243
  0
ARC
  8
0
  6
CONTINUOUS
 10
220.049026
 20
200.586243
 40
3.000000
 50
-90.000000
 51
-1.000000
  0
LINE
  8
0
  6
CONTINUOUS
 10
139.586319
 20
200.533905
 11
139.361938
 21
213.390350
  0
ARC
  8
0
  6
CONTINUOUS
 10
221.311005
 20
215.586243
 40
2.000000
 50
-90.000000
 51
-1.000000
  0
ARC
  8
0
  6
CONTINUOUS
 10
141.324005
 20
215.586243
 40
2.000000
 50
-179.000000
 51
-90.000000
  0
ARC
  8
0
  6
CONTINUOUS
 10
142.585861
 20
200.586243
 40
3.000000
 50
-179.000153
 51
-90.000000
  0
LINE
  8
0
  6
CONTINUOUS
 10
66.317497
 20
206.586243
 11
136.817505
 21
206.586243
  0
LINE
  8
0
  6
CONTINUOUS
 10
66.317497
 20
221.586243
 11
142.237183
 21
221.586243
  0
LINE
  8
0
  6
CENTER
 10
137.442505
 20
204.586243
 11
155.067505
 21
204.586243
  0
LINE
  8
0
  6
CENTER
 10
215.317505
 20
194.836243
 11
215.317505
 21
212.836243
  0
CIRCLE
  8
0
  6
CONTINUOUS
 10
215.317505
 20
204.586243
 40
3.250000
  0
LINE
  8
0
  6
CENTER
 10
147.317505
 20
194.836243
 11
147.317505
 21
212.836243
  0
CIRCLE
  8
0
  6
CONTINUOUS
 10
147.317505
 20
204.586243
 40
3.250000
  0
LINE
  8
0
  6
CENTER
 10
206.817505
 20
204.586243
 11
225.942505
 21
204.586243
  0
LINE
  8
0
  6
CONTINUOUS
 10
173.817505
 20
180.586243
 11
173.817505
 21
207.586243
  0
LINE
  8
0
  6
CONTINUOUS
 10
173.817505
 20
180.586243
 11
190.817505
 21
180.586243
  0
LINE
  8
0
  6
CONTINUOUS
 10
172.817505
 20
207.586243
 11
189.817505
 21
207.586243
  0
LINE
  8
0
  6
CONTINUOUS
 10
161.317505
 20
278.586243
 11
161.317505
 21
275.586243
  0
LINE
  8
0
  6
CONTINUOUS
 10
201.317505
 20
278.586243
 11
201.317505
 21
275.586243
  0
LINE
  8
0
  6
CONTINUOUS
 10
200.317505
 20
279.586243
 11
162.317505
 21
279.586243
  0
ARC
  8
0
  6
CONTINUOUS
 10
162.317505
 20
278.586243
 40
1.000000
 50
90.000000
 51
180.000000
  0
ARC
  8
0
  6
CONTINUOUS
 10
200.317505
 20
278.586243
 40
1.000000
 50
0.000000
 51
90.000000
  0
LINE
  8
0
  6
CONTINUOUS
 10
161.317505
 20
210.586243
 11
161.317505
 21
213.586243
  0
LINE
  8
0
  6
CONTINUOUS
 10
201.317505
 20
210.586243
 11
201.317505
 21
213.586243
  0
LINE
  8
0
  6
CONTINUOUS
 10
200.317505
 20
209.586243
 11
162.317505
 21
209.586243
  0
ARC
  8
0
  6
CONTINUOUS
 10
162.317505
 20
210.586243
 40
1.000000
 50
180.000000
 51
270.000000
  0
ARC
  8
0
  6
CONTINUOUS
 10
200.317505
 20
210.586243
 40
1.000000
 50
-90.000000
 51
0.000000
  0
LINE
  8
0
  6
CONTINUOUS
 10
172.817505
 20
207.586243
 11
172.817505
 21
209.586243
  0
LINE
  8
0
  6
CONTINUOUS
 10
189.817505
 20
207.586243
 11
189.817505
 21
209.586243
  0
LINE
  8
0
  6
CONTINUOUS
 10
190.817505
 20
197.586243
 11
220.049026
 21
197.586243
  0
LINE
  8
0
  6
CONTINUOUS
 10
190.817505
 20
291.586243
 11
220.049026
 21
291.586243
  0
LINE
  8
0
  6
CONTINUOUS
 10
190.817505
 20
204.586243
 11
190.817505
 21
180.586243
  0
LINE
  8
0
  6
CONTINUOUS
 10
188.388504
 20
204.586243
 11
188.388504
 21
180.586243
  0
LINE
  8
0
  6
CONTINUOUS
 10
188.388504
 20
204.586243
 11
190.817505
 21
204.586243
  0
LINE
  8
0
  6
CONTINUOUS
 10
188.817505
 20
204.586243
 11
188.817505
 21
207.586243
  0
LINE
  8
0
  6
CONTINUOUS
 10
173.817505
 20
308.586243
 11
173.817505
 21
281.586243
  0
LINE
  8
0
  6
CONTINUOUS
 10
173.817505
 20
308.586243
 11
190.817505
 21
308.586243
  0
LINE
  8
0
  6
CONTINUOUS
 10
172.817505
 20
281.586243
 11
189.817505
 21
281.586243
  0
LINE
  8
0
  6
CONTINUOUS
 10
172.817505
 20
281.586243
 11
172.817505
 21
279.586243
  0
LINE
  8
0
  6
CONTINUOUS
 10
189.817505
 20
281.586243
 11
189.817505
 21
279.586243
  0
LINE
  8
0
  6
CONTINUOUS
 10
190.817505
 20
284.586243
 11
190.817505
 21
308.586243
  0
LINE
  8
0
  6
CONTINUOUS
 10
188.388504
 20
284.586243
 11
188.388504
 21
308.586243
  0
LINE
  8
0
  6
CONTINUOUS
 10
188.388504
 20
284.586243
 11
190.817505
 21
284.586243
  0
LINE
  8
0
  6
CONTINUOUS
 10
188.817505
 20
284.586243
 11
188.817505
 21
281.586243
  0
LINE
  8
0
  6
CONTINUOUS
 10
196.317505
 20
273.621155
 11
196.317505
 21
215.551346
  0
LINE
  8
0
  6
CONTINUOUS
 10
166.317505
 20
273.621155
 11
166.317505
 21
215.551346
  0
LINE
  8
0
  6
CONTINUOUS
 10
138.817505
 20
280.586243
 11
138.817505
 21
276.938416
  0
LINE
  8
0
  6
CONTINUOUS
 10
142.237183
 20
223.586243
 11
142.237183
 21
265.586517
  0
ARC
  8
0
  6
CONTINUOUS
 10
136.817505
 20
280.586243
 40
2.000000
 50
0.000000
 51
90.000000
  0
ARC
  8
0
  6
CONTINUOUS
 10
140.317505
 20
276.938416
 40
1.500000
 50
180.000000
 51
286.712646
  0
LINE
  8
0
  6
CONTINUOUS
 10
139.324234
 20
273.621155
 11
139.218903
 21
267.586243
  0
LINE
  8
0
  6
CONTINUOUS
 10
138.817505
 20
208.586243
 11
138.817505
 21
212.234100
  0
ARC
  8
0
  6
CONTINUOUS
 10
136.817505
 20
208.586243
 40
2.000000
 50
-90.000000
 51
0.000000
  0
ARC
  8
0
  6
CONTINUOUS
 10
140.317505
 20
212.234100
 40
1.500000
 50
-286.712646
 51
-180.000000
  0
LINE
  8
0
  6
CONTINUOUS
 10
139.324234
 20
215.551346
 11
139.218903
 21
221.586243
  0
LINE
  8
0
  6
CONTINUOUS
 10
66.317497
 20
251.452271
 11
66.317497
 21
282.586243
  0
LINE
  8
0
  6
CONTINUOUS
 10
59.817501
 20
238.586243
 11
59.817501
 21
250.586243
  0
LINE
  8
0
  6
CONTINUOUS
 10
66.817497
 20
238.586243
 11
66.817497
 21
250.586243
  0
LINE
  8
0
  6
CONTINUOUS
 10
60.817501
 20
251.586243
 11
65.817497
 21
251.586243
  0
LINE
  8
0
  6
CONTINUOUS
 10
65.817497
 20
237.586243
 11
60.817501
 21
237.586243
  0
ARC
  8
0
  6
CONTINUOUS
 10
65.817497
 20
250.586243
 40
1.000000
 50
0.000000
 51
90.000000
  0
ARC
  8
0
  6
CONTINUOUS
 10
60.817501
 20
250.586243
 40
1.000000
 50
90.000000
 51
180.000000
  0
ARC
  8
0
  6
CONTINUOUS
 10
60.817501
 20
238.586243
 40
1.000000
 50
180.000000
 51
270.000000
  0
ARC
  8
0
  6
CONTINUOUS
 10
65.817497
 20
238.586243
 40
1.000000
 50
-90.000000
 51
0.000000
  0
LINE
  8
0
  6
CONTINUOUS
 10
64.317497
 20
241.086243
 11
64.317497
 21
248.086243
  0
LINE
  8
0
  6
CONTINUOUS
 10
62.317501
 20
241.086243
 11
62.317501
 21
248.086243
  0
ARC
  8
0
  6
CONTINUOUS
 10
63.317501
 20
248.086243
 40
1.000000
 50
90.000000
 51
180.000000
  0
ARC
  8
0
  6
CONTINUOUS
 10
63.317501
 20
248.086243
 40
1.000000
 50
0.000000
 51
90.000000
  0
ARC
  8
0
  6
CONTINUOUS
 10
63.317501
 20
241.086243
 40
1.000000
 50
180.000000
 51
270.000000
  0
ARC
  8
0
  6
CONTINUOUS
 10
63.317501
 20
241.086243
 40
1.000000
 50
-90.000000
 51
0.000000
  0
LINE
  8
0
  6
CONTINUOUS
 10
56.817501
 20
204.586243
 11
56.817501
 21
284.586243
  0
LINE
  8
0
  6
CONTINUOUS
 10
12.817500
 20
284.586243
 11
56.817501
 21
284.586243
  0
LINE
  8
0
  6
CONTINUOUS
 10
12.817500
 20
204.586243
 11
56.817501
 21
204.586243
  0
LINE
  8
0
  6
CONTINUOUS
 10
7.817500
 20
209.586243
 11
7.817500
 21
279.586243
  0
ARC
  8
0
  6
CONTINUOUS
 10
12.817520
 20
279.586273
 40
5.000000
 50
90.000000
 51
180.000000
  0
ARC
  8
0
  6
CONTINUOUS
 10
12.817500
 20
209.586243
 40
5.000000
 50
180.000000
 51
270.000000
  0
LINE
  8
0
  6
CONTINUOUS
 10
10.317500
 20
218.586243
 11
56.817501
 21
218.586243
  0
LINE
  8
0
  6
CONTINUOUS
 10
10.317500
 20
268.586243
 11
56.817501
 21
268.586243
  0
TEXT
  8
0
 10
-4.000000
 20
5.000000
 40
4.000000
 41
1.000000
  1
HLM-15T-10~60-T60
 50
0.000000
  0
ENDSEC
  0
EOF
