  0
SECTION
  2
HEADER
  9
$CLAYER
  8
1
  9
$LTSCALE
 40
3.0
  0
ENDSEC
  0
SECTION
  2
TABLES
  0
TABLE
  2
LTYPE
 70
     4
  0
LTYPE
  2
CONTINUOUS
  3
solid line
 70
    64
 72
    65
 73
     0
 40
0.0
  0
LTYPE
  2
DASHED
  3
__ __ __ __ __ __ __ __ __ __ __ __ __ __ __
 70
    64
 72
    65
 73
     2
 40
0.75
 49
0.5
 49
-0.25
  0
LTYPE
  2
CENTER
  3
____ _ ____ _ ____ _ ____ _ ____ _ ____ _ ____
 70
    64
 72
    65
 73
     4
 40
2.0
 49
1.25
 49
-0.25
 49
0.25
 49
-0.25
  0
LTYPE
  2
PHANTOM
  3
_____ _ _ _____ _ _ _____ _ _ _____ _ _ ____
 70
    64
 72
    65
 73
     6
 40
2.5
 49
1.25
 49
-0.25
 49
0.25
 49
-0.25
 49
0.25
 49
-0.25
  0
ENDTAB
  0
TABLE
  2
LAYER
 70
     1
  0
LAYER
  2
0
 70
    64
 62
     7
  6
CONTINUOUS
  0
ENDTAB
  0
TABLE
  2
STYLE
 70
     1
  0
STYLE
  2
STANDARD
 70
     0
 40
0.000000
 41
1.000000
 50
0.000000
 71
     0
 42
3.000000
  3
txt
  4
BIGFONT
  0
ENDTAB
  0
ENDSEC
  0
SECTION
  2
BLOCKS
  0
ENDSEC
  0
SECTION
  2
ENTITIES
  0
LINE
  8
0
  6
CENTER
 10
63.067501
 20
2.666760
 11
63.067501
 21
157.378754
  0
LINE
  8
0
  6
CENTER
 10
11.524279
 20
59.872501
 11
115.067497
 21
59.872501
  0
LINE
  8
0
  6
CONTINUOUS
 10
121.067497
 20
17.572500
 11
121.067497
 21
10.572500
  0
LINE
  8
0
  6
CONTINUOUS
 10
5.067500
 20
17.572500
 11
5.067500
 21
10.572500
  0
LINE
  8
0
  6
CONTINUOUS
 10
5.067500
 20
10.572500
 11
121.067497
 21
10.572500
  0
LINE
  8
0
  6
CONTINUOUS
 10
103.067497
 20
19.572500
 11
119.067497
 21
19.572500
  0
LINE
  8
0
  6
CONTINUOUS
 10
26.067511
 20
22.572500
 11
26.067499
 21
120.961128
  0
LINE
  8
0
  6
CONTINUOUS
 10
100.067482
 20
22.572500
 11
100.067497
 21
120.961258
  0
LINE
  8
0
  6
CONTINUOUS
 10
105.067497
 20
63.072498
 11
105.067497
 21
108.072502
  0
LINE
  8
0
  6
CONTINUOUS
 10
104.067497
 20
109.072502
 11
102.067520
 21
109.072502
  0
LINE
  8
0
  6
CONTINUOUS
 10
104.067497
 20
62.072498
 11
102.067520
 21
62.072498
  0
LINE
  8
0
  6
CONTINUOUS
 10
63.067501
 20
123.572502
 11
98.102402
 21
122.960968
  0
LINE
  8
0
  6
CONTINUOUS
 10
28.032593
 20
122.960831
 11
63.067501
 21
123.572502
  0
ARC
  8
0
  6
CONTINUOUS
 10
102.067497
 20
111.072502
 40
2.000000
 50
180.000000
 51
270.000000
  0
ARC
  8
0
  6
CONTINUOUS
 10
98.067520
 20
120.961258
 40
2.000000
 50
0.000000
 51
89.000137
  0
ARC
  8
0
  6
CONTINUOUS
 10
28.067511
 20
120.961143
 40
2.000000
 50
91.000641
 51
180.000000
  0
ARC
  8
0
  6
CONTINUOUS
 10
102.067520
 20
60.072506
 40
2.000000
 50
90.000000
 51
180.000000
  0
ARC
  8
0
  6
CONTINUOUS
 10
104.067497
 20
108.072487
 40
1.000000
 50
0.000000
 51
90.000000
  0
ARC
  8
0
  6
CONTINUOUS
 10
104.067497
 20
63.072495
 40
1.000000
 50
-90.000000
 51
0.000000
  0
LINE
  8
0
  6
CONTINUOUS
 10
28.141649
 20
100.072502
 11
98.302116
 21
100.072502
  0
ARC
  8
0
  6
CONTINUOUS
 10
119.067497
 20
17.572491
 40
2.000000
 50
0.000000
 51
90.000000
  0
ARC
  8
0
  6
CONTINUOUS
 10
7.067510
 20
17.572510
 40
2.000000
 50
90.000000
 51
180.000000
  0
LINE
  8
0
  6
CENTER
 10
111.067497
 20
23.528749
 11
111.067497
 21
6.278750
  0
LINE
  8
0
  6
CENTER
 10
15.067500
 20
23.528749
 11
15.067500
 21
5.528750
  0
LINE
  8
0
  6
DASHED
 10
19.317499
 20
19.572500
 11
19.317499
 21
10.572500
  0
LINE
  8
0
  6
DASHED
 10
10.817500
 20
19.572500
 11
10.817500
 21
10.572500
  0
LINE
  8
0
  6
DASHED
 10
115.317497
 20
19.572500
 11
115.317497
 21
10.572500
  0
LINE
  8
0
  6
DASHED
 10
106.817497
 20
19.572500
 11
106.817497
 21
10.572500
  0
ARC
  8
0
  6
CONTINUOUS
 10
63.067501
 20
59.872501
 40
45.000000
 50
158.960526
 51
214.692093
  0
ARC
  8
0
  6
CONTINUOUS
 10
63.067501
 20
59.872501
 40
45.000000
 50
-34.692108
 51
20.437799
  0
LINE
  8
0
  6
CONTINUOUS
 10
21.067499
 20
63.072498
 11
21.067499
 21
108.072502
  0
LINE
  8
0
  6
CONTINUOUS
 10
22.067499
 20
109.072502
 11
24.067490
 21
109.072502
  0
LINE
  8
0
  6
CONTINUOUS
 10
22.067499
 20
62.072498
 11
24.067490
 21
62.072498
  0
ARC
  8
0
  6
CONTINUOUS
 10
24.067499
 20
111.072502
 40
2.000000
 50
-90.000000
 51
0.000000
  0
ARC
  8
0
  6
CONTINUOUS
 10
24.067490
 20
60.072506
 40
2.000000
 50
0.000000
 51
90.000000
  0
ARC
  8
0
  6
CONTINUOUS
 10
22.067499
 20
108.072487
 40
1.000000
 50
90.000000
 51
180.000000
  0
ARC
  8
0
  6
CONTINUOUS
 10
22.067499
 20
63.072495
 40
1.000000
 50
180.000000
 51
270.000000
  0
LINE
  8
0
  6
CENTER
 10
16.067560
 20
85.572502
 11
148.817505
 21
85.572502
  0
LINE
  8
0
  6
CONTINUOUS
 10
23.067511
 20
19.572500
 11
7.067500
 21
19.572500
  0
ARC
  8
0
  6
CONTINUOUS
 10
23.067499
 20
22.572500
 40
3.000000
 50
-90.000000
 51
0.000000
  0
ARC
  8
0
  6
CONTINUOUS
 10
103.067497
 20
22.572500
 40
3.000000
 50
180.000000
 51
270.000000
  0
LINE
  8
0
  6
CONTINUOUS
 10
381.067505
 20
14.872500
 11
381.067505
 21
104.872498
  0
LINE
  8
0
  6
CENTER
 10
410.297180
 20
59.872501
 11
281.132202
 21
59.872501
  0
LINE
  8
0
  6
CONTINUOUS
 10
207.567505
 20
17.572500
 11
207.567505
 21
10.572500
  0
LINE
  8
0
  6
CONTINUOUS
 10
308.567505
 20
17.572491
 11
308.567505
 21
10.572500
  0
LINE
  8
0
  6
CONTINUOUS
 10
381.067505
 20
14.872500
 11
308.567505
 21
14.872500
  0
LINE
  8
0
  6
CONTINUOUS
 10
381.067505
 20
104.872498
 11
301.724915
 21
104.872498
  0
LINE
  8
0
  6
CENTER
 10
258.067505
 20
133.559998
 11
258.067505
 21
2.666750
  0
LINE
  8
0
  6
CENTER
 10
288.242188
 20
85.572502
 11
222.672195
 21
85.572502
  0
LINE
  8
0
  6
CONTINUOUS
 10
308.567505
 20
10.572500
 11
207.567505
 21
10.572500
  0
LINE
  8
0
  6
CONTINUOUS
 10
273.488586
 20
123.572502
 11
242.646393
 21
123.572502
  0
LINE
  8
0
  6
CONTINUOUS
 10
306.567505
 20
19.572500
 11
209.567505
 21
19.572500
  0
LINE
  8
0
  6
CENTER
 10
220.067505
 20
25.059999
 11
220.067505
 21
3.810000
  0
LINE
  8
0
  6
CENTER
 10
296.067505
 20
25.309999
 11
296.067505
 21
3.310000
  0
LINE
  8
0
  6
CONTINUOUS
 10
209.696106
 20
101.565681
 11
239.774994
 21
122.665787
  0
LINE
  8
0
  6
CONTINUOUS
 10
306.438904
 20
101.565681
 11
276.359985
 21
122.665779
  0
ARC
  8
0
  6
CONTINUOUS
 10
242.646301
 20
118.572487
 40
5.000000
 50
90.000000
 51
125.049103
  0
ARC
  8
0
  6
CONTINUOUS
 10
273.488586
 20
118.572502
 40
5.000000
 50
54.950329
 51
90.000000
  0
ARC
  8
0
  6
CONTINUOUS
 10
303.567505
 20
97.472427
 40
5.000000
 50
0.000000
 51
54.950199
  0
ARC
  8
0
  6
CONTINUOUS
 10
212.567505
 20
97.472382
 40
5.000000
 50
125.049103
 51
180.000000
  0
LINE
  8
0
  6
CONTINUOUS
 10
207.567505
 20
17.572500
 11
207.567505
 21
97.472397
  0
ARC
  8
0
  6
CONTINUOUS
 10
209.567505
 20
17.572491
 40
2.000000
 50
90.000000
 51
180.000000
  0
LINE
  8
0
  6
CONTINUOUS
 10
308.567505
 20
17.572491
 11
308.567505
 21
97.472397
  0
ARC
  8
0
  6
CONTINUOUS
 10
306.567505
 20
17.572500
 40
2.000000
 50
0.000000
 51
90.000000
  0
LINE
  8
0
  6
DASHED
 10
215.817505
 20
19.572500
 11
215.817505
 21
10.572500
  0
LINE
  8
0
  6
DASHED
 10
224.317505
 20
19.572500
 11
224.317505
 21
10.572500
  0
LINE
  8
0
  6
DASHED
 10
291.817505
 20
19.572500
 11
291.817505
 21
10.572500
  0
LINE
  8
0
  6
DASHED
 10
300.317505
 20
19.572500
 11
300.317505
 21
10.572500
  0
CIRCLE
  8
0
  6
CONTINUOUS
 10
258.067505
 20
85.572502
 40
23.500000
  0
CIRCLE
  8
0
  6
CONTINUOUS
 10
258.067505
 20
85.572502
 40
23.500000
  0
LINE
  8
0
  6
CONTINUOUS
 10
251.693497
 20
48.126598
 11
251.693497
 21
42.572498
  0
LINE
  8
0
  6
CONTINUOUS
 10
254.881500
 20
50.144001
 11
254.881500
 21
52.136509
  0
LINE
  8
0
  6
CONTINUOUS
 10
261.257507
 20
50.144001
 11
261.257507
 21
52.136509
  0
LINE
  8
0
  6
CONTINUOUS
 10
257.446808
 20
50.965916
 11
257.446808
 21
43.618561
  0
LINE
  8
0
  6
CONTINUOUS
 10
258.642303
 20
50.965916
 11
258.642303
 21
43.618561
  0
LINE
  8
0
  6
CONTINUOUS
 10
264.918701
 20
50.965916
 11
264.918701
 21
43.568760
  0
LINE
  8
0
  6
CONTINUOUS
 10
266.014587
 20
47.043171
 11
266.014587
 21
43.568760
  0
LINE
  8
0
  6
CONTINUOUS
 10
250.180801
 20
50.866291
 11
247.108307
 21
50.866291
  0
LINE
  8
0
  6
CONTINUOUS
 10
247.108307
 20
50.866291
 11
246.388504
 21
49.973652
  0
LINE
  8
0
  6
CONTINUOUS
 10
246.475006
 20
52.136509
 11
245.317505
 21
50.654285
  0
LINE
  8
0
  6
CONTINUOUS
 10
246.388504
 20
44.463718
 11
247.119904
 21
43.693291
  0
LINE
  8
0
  6
CONTINUOUS
 10
245.317505
 20
43.813541
 11
246.547501
 21
42.572498
  0
LINE
  8
0
  6
CONTINUOUS
 10
245.317505
 20
50.654285
 11
245.317505
 21
43.813541
  0
LINE
  8
0
  6
CONTINUOUS
 10
246.388504
 20
49.973652
 11
246.388504
 21
44.463718
  0
LINE
  8
0
  6
CONTINUOUS
 10
250.772003
 20
50.294758
 11
250.168701
 21
50.866291
  0
LINE
  8
0
  6
CONTINUOUS
 10
250.762405
 20
52.136509
 11
251.693497
 21
51.103199
  0
LINE
  8
0
  6
CONTINUOUS
 10
250.772003
 20
50.144001
 11
251.693497
 21
50.144001
  0
LINE
  8
0
  6
CONTINUOUS
 10
246.475006
 20
52.136509
 11
250.762405
 21
52.136509
  0
LINE
  8
0
  6
CONTINUOUS
 10
250.772003
 20
47.080540
 11
249.103302
 21
47.080540
  0
LINE
  8
0
  6
CONTINUOUS
 10
250.772003
 20
46.084290
 11
250.772003
 21
46.881290
  0
LINE
  8
0
  6
CONTINUOUS
 10
248.779495
 20
43.693291
 11
247.119904
 21
43.693291
  0
ARC
  8
0
  6
CONTINUOUS
 10
248.779495
 20
45.685780
 40
1.992500
 50
-89.999786
 51
0.000109
  0
LINE
  8
0
  6
CONTINUOUS
 10
250.772003
 20
43.334888
 11
250.772003
 21
42.572498
  0
LINE
  8
0
  6
CONTINUOUS
 10
251.693497
 20
51.103199
 11
251.693497
 21
50.144001
  0
LINE
  8
0
  6
CONTINUOUS
 10
250.772003
 20
47.080540
 11
250.772003
 21
45.685780
  0
LINE
  8
0
  6
CONTINUOUS
 10
249.103302
 20
48.126598
 11
249.103302
 21
47.080540
  0
LINE
  8
0
  6
CONTINUOUS
 10
250.772003
 20
42.572498
 11
251.693497
 21
42.572498
  0
LINE
  8
0
  6
CONTINUOUS
 10
250.772003
 20
43.334888
 11
249.863297
 21
42.572498
  0
LINE
  8
0
  6
CONTINUOUS
 10
258.642303
 20
43.618561
 11
259.040802
 21
43.618561
  0
LINE
  8
0
  6
CONTINUOUS
 10
256.973602
 20
43.618561
 11
256.973602
 21
42.572498
  0
LINE
  8
0
  6
CONTINUOUS
 10
259.040802
 20
43.618561
 11
259.040802
 21
42.572498
  0
LINE
  8
0
  6
CONTINUOUS
 10
260.592407
 20
50.144001
 11
261.257507
 21
50.144001
  0
LINE
  8
0
  6
CONTINUOUS
 10
254.881500
 20
50.144001
 11
255.589203
 21
50.144001
  0
LINE
  8
0
  6
CONTINUOUS
 10
254.881500
 20
52.136509
 11
261.257507
 21
52.136509
  0
LINE
  8
0
  6
CONTINUOUS
 10
256.973602
 20
42.572498
 11
259.040802
 21
42.572498
  0
LINE
  8
0
  6
CONTINUOUS
 10
256.973602
 20
43.618561
 11
257.446808
 21
43.618561
  0
ARC
  8
0
  6
CONTINUOUS
 10
268.268585
 20
49.583611
 40
2.552891
 50
-73.981873
 51
90.003510
  0
ARC
  8
0
  6
CONTINUOUS
 10
268.268585
 20
49.583611
 40
1.557438
 50
-82.585274
 51
62.411850
  0
LINE
  8
0
  6
CONTINUOUS
 10
264.445496
 20
52.136509
 11
268.268585
 21
52.136509
  0
LINE
  8
0
  6
CONTINUOUS
 10
264.445496
 20
52.136509
 11
264.445496
 21
50.965916
  0
LINE
  8
0
  6
CONTINUOUS
 10
266.014587
 20
50.965916
 11
266.014587
 21
48.039188
  0
LINE
  8
0
  6
CONTINUOUS
 10
268.973114
 20
47.129841
 11
270.553101
 21
43.568760
  0
LINE
  8
0
  6
CONTINUOUS
 10
268.055298
 20
47.043171
 11
269.550690
 21
43.568760
  0
LINE
  8
0
  6
CONTINUOUS
 10
264.445496
 20
43.568760
 11
264.918701
 21
43.568760
  0
LINE
  8
0
  6
CONTINUOUS
 10
266.014587
 20
43.568760
 11
266.450409
 21
43.568760
  0
LINE
  8
0
  6
CONTINUOUS
 10
266.450409
 20
42.572498
 11
264.445496
 21
42.572498
  0
LINE
  8
0
  6
CONTINUOUS
 10
269.351990
 20
43.568760
 11
269.550690
 21
43.568760
  0
LINE
  8
0
  6
CONTINUOUS
 10
270.553101
 20
43.568760
 11
270.821503
 21
43.568760
  0
LINE
  8
0
  6
CONTINUOUS
 10
269.351990
 20
42.572498
 11
270.821503
 21
42.572498
  0
LINE
  8
0
  6
CONTINUOUS
 10
270.821503
 20
43.568760
 11
270.821503
 21
42.572498
  0
LINE
  8
0
  6
CONTINUOUS
 10
269.351990
 20
43.568760
 11
269.351990
 21
42.572498
  0
LINE
  8
0
  6
CONTINUOUS
 10
266.450409
 20
43.568760
 11
266.450409
 21
42.572498
  0
LINE
  8
0
  6
CONTINUOUS
 10
264.445496
 20
43.568760
 11
264.445496
 21
42.572498
  0
LINE
  8
0
  6
CONTINUOUS
 10
255.931702
 20
50.965916
 11
255.589203
 21
50.144001
  0
LINE
  8
0
  6
CONTINUOUS
 10
260.303589
 20
50.965916
 11
260.592407
 21
50.144001
  0
LINE
  8
0
  6
CONTINUOUS
 10
258.642303
 20
50.965916
 11
260.303589
 21
50.965916
  0
LINE
  8
0
  6
CONTINUOUS
 10
257.446808
 20
50.965916
 11
255.931702
 21
50.965916
  0
LINE
  8
0
  6
CONTINUOUS
 10
264.445496
 20
50.965916
 11
264.918701
 21
50.965916
  0
LINE
  8
0
  6
CONTINUOUS
 10
266.014587
 20
50.965916
 11
268.989899
 21
50.963978
  0
LINE
  8
0
  6
CONTINUOUS
 10
250.772003
 20
50.294758
 11
250.772003
 21
50.144001
  0
LINE
  8
0
  6
CONTINUOUS
 10
246.547501
 20
42.572498
 11
249.863297
 21
42.572498
  0
LINE
  8
0
  6
CONTINUOUS
 10
266.014587
 20
48.039188
 11
268.469604
 21
48.039188
  0
LINE
  8
0
  6
CONTINUOUS
 10
266.014587
 20
47.043171
 11
268.055298
 21
47.043171
  0
LINE
  8
0
  6
CONTINUOUS
 10
249.103302
 20
48.126598
 11
251.693497
 21
48.126598
  0
LINE
  8
0
  6
CONTINUOUS
 10
310.485413
 20
94.281799
 11
381.067505
 21
94.281799
  0
LINE
  8
0
  6
CONTINUOUS
 10
310.485413
 20
25.463200
 11
381.067505
 21
25.463200
  0
LINE
  8
0
  6
CONTINUOUS
 10
401.567505
 20
24.872499
 11
401.567505
 21
94.872498
  0
LINE
  8
0
  6
CONTINUOUS
 10
397.026093
 20
104.872498
 11
381.067505
 21
104.872498
  0
LINE
  8
0
  6
CONTINUOUS
 10
401.067505
 20
101.872498
 11
401.067505
 21
17.872499
  0
LINE
  8
0
  6
CONTINUOUS
 10
381.067505
 20
94.281799
 11
399.317505
 21
94.281799
  0
ARC
  8
0
  6
CONTINUOUS
 10
401.567505
 20
95.372498
 40
0.500000
 50
180.000000
 51
270.000000
  0
LINE
  8
0
  6
CONTINUOUS
 10
400.490112
 20
102.872490
 11
401.067505
 21
101.872498
  0
ARC
  8
0
  6
CONTINUOUS
 10
397.026001
 20
100.872513
 40
4.000000
 50
29.999599
 51
90.000000
  0
LINE
  8
0
  6
CONTINUOUS
 10
397.026093
 20
14.872500
 11
381.067505
 21
14.872500
  0
LINE
  8
0
  6
CONTINUOUS
 10
381.067505
 20
25.463200
 11
399.317505
 21
25.463200
  0
ARC
  8
0
  6
CONTINUOUS
 10
401.567505
 20
24.372499
 40
0.500000
 50
90.000000
 51
180.000000
  0
LINE
  8
0
  6
CONTINUOUS
 10
400.490112
 20
16.872511
 11
401.067505
 21
17.872499
  0
ARC
  8
0
  6
CONTINUOUS
 10
397.026001
 20
18.872490
 40
4.000000
 50
270.000000
 51
330.000397
  0
LINE
  8
0
  6
CONTINUOUS
 10
137.067505
 20
76.572502
 11
137.067505
 21
94.572502
  0
LINE
  8
0
  6
CONTINUOUS
 10
107.067497
 20
94.572502
 11
137.067505
 21
94.572502
  0
LINE
  8
0
  6
CONTINUOUS
 10
107.067497
 20
76.572502
 11
137.067505
 21
76.572502
  0
LINE
  8
0
  6
CONTINUOUS
 10
107.067497
 20
95.572502
 11
107.067497
 21
75.572502
  0
LINE
  8
0
  6
CONTINUOUS
 10
105.067497
 20
95.572502
 11
107.067497
 21
95.572502
  0
LINE
  8
0
  6
CONTINUOUS
 10
105.067497
 20
75.572502
 11
107.067497
 21
75.572502
  0
ARC
  8
0
  6
CONTINUOUS
 10
113.067497
 20
85.572502
 40
3.000000
 50
90.000000
 51
270.000000
  0
LINE
  8
0
  6
CONTINUOUS
 10
113.067497
 20
88.572502
 11
137.067505
 21
88.572502
  0
LINE
  8
0
  6
CONTINUOUS
 10
113.067520
 20
82.572502
 11
137.067505
 21
82.572502
  0
LINE
  8
0
  6
CONTINUOUS
 10
252.567505
 20
88.572502
 11
252.567505
 21
82.572502
  0
LINE
  8
0
  6
CONTINUOUS
 10
246.567505
 20
88.572502
 11
246.567505
 21
82.572502
  0
LINE
  8
0
  6
CONTINUOUS
 10
246.567505
 20
88.572502
 11
252.567505
 21
88.572502
  0
LINE
  8
0
  6
CONTINUOUS
 10
246.567505
 20
82.572502
 11
252.567505
 21
82.572502
  0
ARC
  8
0
  6
CONTINUOUS
 10
258.067505
 20
85.572502
 40
9.000000
 50
-160.528793
 51
160.528793
  0
LINE
  8
0
  6
CENTER
 10
258.067505
 20
179.363754
 11
258.067505
 21
327.218140
  0
LINE
  8
0
  6
CENTER
 10
220.067505
 20
201.015625
 11
220.067505
 21
222.345627
  0
LINE
  8
0
  6
CENTER
 10
415.053741
 20
260.241241
 11
193.926254
 21
260.241241
  0
LINE
  8
0
  6
CONTINUOUS
 10
208.408386
 20
212.066727
 11
207.567505
 21
260.241241
  0
LINE
  8
0
  6
CONTINUOUS
 10
218.406860
 20
202.241257
 11
246.567505
 21
202.241257
  0
LINE
  8
0
  6
CONTINUOUS
 10
306.567505
 20
223.241257
 11
210.178726
 21
223.241257
  0
ARC
  8
0
  6
CONTINUOUS
 10
218.406860
 20
212.241257
 40
10.000000
 50
-179.000000
 51
-90.000000
  0
ARC
  8
0
  6
CONTINUOUS
 10
210.178726
 20
225.241257
 40
2.000000
 50
-179.000000
 51
-90.000000
  0
LINE
  8
0
  6
CENTER
 10
231.559692
 20
212.241257
 11
210.427185
 21
212.241257
  0
CIRCLE
  8
0
  6
CONTINUOUS
 10
220.067505
 20
212.241257
 40
4.250000
  0
LINE
  8
0
  6
CONTINUOUS
 10
401.567505
 20
295.241241
 11
401.567505
 21
225.241257
  0
LINE
  8
0
  6
CONTINUOUS
 10
397.026062
 20
215.241257
 11
381.067505
 21
215.241257
  0
LINE
  8
0
  6
CONTINUOUS
 10
401.067505
 20
218.241257
 11
401.067505
 21
302.241241
  0
LINE
  8
0
  6
CONTINUOUS
 10
381.067505
 20
231.241257
 11
399.317505
 21
231.241257
  0
ARC
  8
0
  6
CONTINUOUS
 10
401.567505
 20
224.741257
 40
0.500000
 50
-270.000000
 51
-180.000000
  0
LINE
  8
0
  6
CONTINUOUS
 10
400.490143
 20
217.241257
 11
401.067505
 21
218.241257
  0
ARC
  8
0
  6
CONTINUOUS
 10
397.026031
 20
219.241241
 40
4.000000
 50
-90.000000
 51
-29.999599
  0
LINE
  8
0
  6
CONTINUOUS
 10
397.026062
 20
305.241241
 11
381.067505
 21
305.241241
  0
ARC
  8
0
  6
CONTINUOUS
 10
401.567505
 20
295.741241
 40
0.500000
 50
-180.000000
 51
-90.000000
  0
LINE
  8
0
  6
CONTINUOUS
 10
400.490143
 20
303.241241
 11
401.067505
 21
302.241241
  0
ARC
  8
0
  6
CONTINUOUS
 10
397.026031
 20
301.241272
 40
4.000000
 50
-330.000397
 51
-270.000000
  0
LINE
  8
0
  6
CONTINUOUS
 10
381.067505
 20
305.241241
 11
381.067505
 21
285.241272
  0
LINE
  8
0
  6
CENTER
 10
296.067505
 20
200.818130
 11
296.067505
 21
222.148132
  0
LINE
  8
0
  6
CONTINUOUS
 10
307.726624
 20
212.066727
 11
307.912598
 21
222.721359
  0
ARC
  8
0
  6
CONTINUOUS
 10
297.728119
 20
212.241257
 40
10.000000
 50
-90.000000
 51
-1.000000
  0
ARC
  8
0
  6
CONTINUOUS
 10
305.956268
 20
225.241257
 40
2.000000
 50
-90.000000
 51
-1.000000
  0
LINE
  8
0
  6
CENTER
 10
285.378448
 20
212.241257
 11
306.017181
 21
212.241257
  0
CIRCLE
  8
0
  6
CONTINUOUS
 10
296.067505
 20
212.241257
 40
4.250000
  0
LINE
  8
0
  6
CONTINUOUS
 10
308.567505
 20
221.241257
 11
308.567505
 21
217.241257
  0
LINE
  8
0
  6
CONTINUOUS
 10
310.567505
 20
215.241257
 11
381.067505
 21
215.241257
  0
ARC
  8
0
  6
CONTINUOUS
 10
310.567505
 20
217.241257
 40
2.000000
 50
-180.000000
 51
-90.000000
  0
ARC
  8
0
  6
CONTINUOUS
 10
306.567505
 20
221.241257
 40
2.000000
 50
0.000000
 51
90.000000
  0
LINE
  8
0
  6
CONTINUOUS
 10
307.955963
 20
225.206345
 11
308.061310
 21
231.241257
  0
LINE
  8
0
  6
CONTINUOUS
 10
381.067505
 20
231.241257
 11
301.724945
 21
231.241257
  0
LINE
  8
0
  6
CONTINUOUS
 10
381.067505
 20
289.241241
 11
399.317505
 21
289.241241
  0
LINE
  8
0
  6
CONTINUOUS
 10
381.067505
 20
289.241241
 11
301.724945
 21
289.241241
  0
LINE
  8
0
  6
CONTINUOUS
 10
310.567505
 20
305.241241
 11
381.067505
 21
305.241241
  0
ARC
  8
0
  6
CONTINUOUS
 10
310.567505
 20
303.241241
 40
2.000000
 50
-270.000000
 51
-180.000000
  0
LINE
  8
0
  6
CENTER
 10
220.067505
 20
322.083130
 11
220.067505
 21
297.988129
  0
LINE
  8
0
  6
CONTINUOUS
 10
208.408386
 20
308.415771
 11
207.567505
 21
260.241241
  0
LINE
  8
0
  6
CONTINUOUS
 10
218.406860
 20
318.241241
 11
258.067505
 21
318.241241
  0
LINE
  8
0
  6
CONTINUOUS
 10
306.567505
 20
297.241241
 11
210.178726
 21
297.241241
  0
ARC
  8
0
  6
CONTINUOUS
 10
218.406860
 20
308.241241
 40
10.000000
 50
-270.000000
 51
-181.000000
  0
ARC
  8
0
  6
CONTINUOUS
 10
210.178726
 20
295.241241
 40
2.000000
 50
-270.000000
 51
-181.000000
  0
LINE
  8
0
  6
CENTER
 10
230.572189
 20
308.241241
 11
210.032181
 21
308.241241
  0
CIRCLE
  8
0
  6
CONTINUOUS
 10
220.067505
 20
308.241241
 40
4.250000
  0
LINE
  8
0
  6
CENTER
 10
296.067505
 20
322.478119
 11
296.067505
 21
297.790619
  0
LINE
  8
0
  6
CONTINUOUS
 10
307.726624
 20
308.415771
 11
307.912598
 21
297.761139
  0
ARC
  8
0
  6
CONTINUOUS
 10
297.728119
 20
308.241241
 40
10.000000
 50
-359.000000
 51
-270.000000
  0
ARC
  8
0
  6
CONTINUOUS
 10
305.956268
 20
295.241241
 40
2.000000
 50
-359.000000
 51
-270.000000
  0
LINE
  8
0
  6
CENTER
 10
286.662201
 20
308.241241
 11
306.214691
 21
308.241241
  0
CIRCLE
  8
0
  6
CONTINUOUS
 10
296.067505
 20
308.241241
 40
4.250000
  0
LINE
  8
0
  6
CONTINUOUS
 10
308.567505
 20
299.241241
 11
308.567505
 21
303.241241
  0
ARC
  8
0
  6
CONTINUOUS
 10
306.567505
 20
299.241241
 40
2.000000
 50
-90.000000
 51
0.000000
  0
LINE
  8
0
  6
CONTINUOUS
 10
307.955963
 20
295.276154
 11
308.061310
 21
289.241241
  0
LINE
  8
0
  6
CONTINUOUS
 10
275.067505
 20
228.241257
 11
275.067505
 21
292.241241
  0
LINE
  8
0
  6
CONTINUOUS
 10
241.067505
 20
228.241257
 11
241.067505
 21
292.241241
  0
LINE
  8
0
  6
CONTINUOUS
 10
301.724945
 20
233.241257
 11
301.724945
 21
287.241241
  0
LINE
  8
0
  6
CONTINUOUS
 10
235.567490
 20
218.241257
 11
280.567505
 21
218.241257
  0
LINE
  8
0
  6
CONTINUOUS
 10
281.567505
 20
219.241257
 11
281.567505
 21
221.241257
  0
LINE
  8
0
  6
CONTINUOUS
 10
234.567490
 20
219.241257
 11
234.567490
 21
221.241257
  0
ARC
  8
0
  6
CONTINUOUS
 10
283.567505
 20
221.241257
 40
2.000000
 50
-270.000000
 51
-180.000000
  0
ARC
  8
0
  6
CONTINUOUS
 10
232.567505
 20
221.241257
 40
2.000000
 50
0.000000
 51
90.000000
  0
ARC
  8
0
  6
CONTINUOUS
 10
280.567505
 20
219.241257
 40
1.000000
 50
-90.000000
 51
0.000000
  0
ARC
  8
0
  6
CONTINUOUS
 10
235.567490
 20
219.241257
 40
1.000000
 50
-180.000000
 51
-90.000000
  0
LINE
  8
0
  6
CONTINUOUS
 10
246.567505
 20
186.241257
 11
267.067505
 21
186.241257
  0
LINE
  8
0
  6
CONTINUOUS
 10
267.067505
 20
216.241257
 11
267.067505
 21
186.241257
  0
LINE
  8
0
  6
CONTINUOUS
 10
249.067505
 20
216.241257
 11
249.067505
 21
213.241257
  0
LINE
  8
0
  6
CONTINUOUS
 10
268.067505
 20
216.241257
 11
248.067505
 21
216.241257
  0
LINE
  8
0
  6
CONTINUOUS
 10
268.067505
 20
218.241257
 11
268.067505
 21
216.241257
  0
LINE
  8
0
  6
CONTINUOUS
 10
248.067505
 20
218.241257
 11
248.067505
 21
216.241257
  0
LINE
  8
0
  6
CONTINUOUS
 10
246.567505
 20
186.241257
 11
246.567505
 21
213.241257
  0
LINE
  8
0
  6
CONTINUOUS
 10
246.567505
 20
213.241257
 11
249.582504
 21
213.241257
  0
LINE
  8
0
  6
CONTINUOUS
 10
249.582504
 20
186.241257
 11
249.582504
 21
213.241257
  0
LINE
  8
0
  6
CONTINUOUS
 10
267.067505
 20
202.241257
 11
297.728119
 21
202.241257
  0
LINE
  8
0
  6
CONTINUOUS
 10
235.567490
 20
302.241241
 11
280.567505
 21
302.241241
  0
LINE
  8
0
  6
CONTINUOUS
 10
281.567505
 20
301.241241
 11
281.567505
 21
299.241241
  0
LINE
  8
0
  6
CONTINUOUS
 10
234.567490
 20
301.241241
 11
234.567490
 21
299.241241
  0
ARC
  8
0
  6
CONTINUOUS
 10
283.567505
 20
299.241241
 40
2.000000
 50
-180.000000
 51
-90.000000
  0
ARC
  8
0
  6
CONTINUOUS
 10
232.567505
 20
299.241241
 40
2.000000
 50
-90.000000
 51
0.000000
  0
ARC
  8
0
  6
CONTINUOUS
 10
280.567505
 20
301.241241
 40
1.000000
 50
0.000000
 51
90.000000
  0
ARC
  8
0
  6
CONTINUOUS
 10
235.567490
 20
301.241241
 40
1.000000
 50
-270.000000
 51
-180.000000
  0
LINE
  8
0
  6
CONTINUOUS
 10
258.067505
 20
318.241241
 11
297.728119
 21
318.241241
  0
LINE
  8
0
  6
CONTINUOUS
 10
381.067505
 20
235.241272
 11
381.067505
 21
215.241257
  0
LINE
  8
0
  6
CONTINUOUS
 10
390.067505
 20
283.241272
 11
390.067505
 21
237.241272
  0
LINE
  8
0
  6
CONTINUOUS
 10
388.067505
 20
235.241272
 11
390.067505
 21
237.241272
  0
LINE
  8
0
  6
CONTINUOUS
 10
388.067505
 20
235.241272
 11
342.067505
 21
235.241272
  0
LINE
  8
0
  6
CONTINUOUS
 10
347.567505
 20
239.741272
 11
347.567505
 21
235.241272
  0
ARC
  8
0
  6
CONTINUOUS
 10
344.567505
 20
239.741272
 40
3.000000
 50
0.000000
 51
90.000000
  0
LINE
  8
0
  6
CONTINUOUS
 10
344.567505
 20
242.741272
 11
340.067505
 21
242.741272
  0
CIRCLE
  8
0
  6
CONTINUOUS
 10
343.567505
 20
238.741272
 40
2.250000
  0
LINE
  8
0
  6
CONTINUOUS
 10
340.067505
 20
283.241272
 11
340.067505
 21
237.241272
  0
LINE
  8
0
  6
CONTINUOUS
 10
342.067505
 20
235.241272
 11
340.067505
 21
237.241272
  0
LINE
  8
0
  6
CONTINUOUS
 10
342.067505
 20
285.241272
 11
340.067505
 21
283.241272
  0
LINE
  8
0
  6
CONTINUOUS
 10
342.067505
 20
285.241272
 11
388.067505
 21
285.241272
  0
LINE
  8
0
  6
CONTINUOUS
 10
390.067505
 20
283.241272
 11
388.067505
 21
285.241272
  0
LINE
  8
0
  6
CONTINUOUS
 10
385.567505
 20
277.741272
 11
390.067505
 21
277.741272
  0
CIRCLE
  8
0
  6
CONTINUOUS
 10
386.567505
 20
281.741272
 40
2.250000
  0
ARC
  8
0
  6
CONTINUOUS
 10
385.567505
 20
280.741272
 40
3.000000
 50
180.000000
 51
270.000000
  0
LINE
  8
0
  6
CONTINUOUS
 10
382.567505
 20
280.741272
 11
382.567505
 21
285.241272
  0
LINE
  8
0
  6
CENTER
 10
365.067505
 20
292.707062
 11
365.067505
 21
228.575027
  0
LINE
  8
0
  6
CONTINUOUS
 10
389.067505
 20
277.741241
 11
389.067505
 21
242.741257
  0
LINE
  8
0
  6
CONTINUOUS
 10
347.567505
 20
236.241257
 11
382.567474
 21
236.241257
  0
LINE
  8
0
  6
CONTINUOUS
 10
341.067505
 20
242.741257
 11
341.067505
 21
277.741241
  0
LINE
  8
0
  6
CONTINUOUS
 10
382.567505
 20
284.241241
 11
347.567505
 21
284.241241
  0
LINE
  8
0
  6
CONTINUOUS
 10
385.567474
 20
242.741257
 11
390.067474
 21
242.741257
  0
ARC
  8
0
  6
CONTINUOUS
 10
385.567474
 20
239.741257
 40
3.000000
 50
90.000000
 51
180.000000
  0
LINE
  8
0
  6
CONTINUOUS
 10
382.567474
 20
239.741257
 11
382.567474
 21
235.241257
  0
CIRCLE
  8
0
  6
CONTINUOUS
 10
386.567474
 20
238.741257
 40
2.250000
  0
LINE
  8
0
  6
CONTINUOUS
 10
344.567505
 20
277.741241
 11
340.067505
 21
277.741241
  0
ARC
  8
0
  6
CONTINUOUS
 10
344.567505
 20
280.741241
 40
3.000000
 50
-90.000000
 51
0.000000
  0
LINE
  8
0
  6
CONTINUOUS
 10
347.567505
 20
280.741241
 11
347.567505
 21
285.241241
  0
CIRCLE
  8
0
  6
CONTINUOUS
 10
343.567505
 20
281.741241
 40
2.250000
  0
LINE
  8
0
  6
CONTINUOUS
 10
388.567505
 20
106.372498
 11
342.067505
 21
106.372498
  0
LINE
  8
0
  6
CONTINUOUS
 10
340.067505
 20
150.372498
 11
340.067505
 21
108.372498
  0
LINE
  8
0
  6
CONTINUOUS
 10
390.067505
 20
150.372498
 11
390.067505
 21
108.372498
  0
LINE
  8
0
  6
CONTINUOUS
 10
390.067505
 20
118.372498
 11
340.067505
 21
118.372498
  0
LINE
  8
0
  6
CONTINUOUS
 10
342.067505
 20
106.372498
 11
340.067505
 21
108.372498
  0
LINE
  8
0
  6
CONTINUOUS
 10
390.067505
 20
108.372498
 11
388.067505
 21
106.372498
  0
LINE
  8
0
  6
CONTINUOUS
 10
390.067505
 20
108.372498
 11
340.067505
 21
108.372498
  0
LINE
  8
0
  6
CONTINUOUS
 10
390.067505
 20
119.372498
 11
340.067505
 21
119.372498
  0
LINE
  8
0
  6
CONTINUOUS
 10
389.067505
 20
151.372498
 11
341.067505
 21
151.372498
  0
LINE
  8
0
  6
CONTINUOUS
 10
341.067505
 20
151.372498
 11
340.067505
 21
150.372498
  0
LINE
  8
0
  6
CONTINUOUS
 10
389.067505
 20
151.372498
 11
390.067505
 21
150.372498
  0
LINE
  8
0
  6
CONTINUOUS
 10
390.067505
 20
150.372498
 11
340.067505
 21
150.372498
  0
LINE
  8
0
  6
CENTER
 10
365.067505
 20
99.982986
 11
365.067505
 21
156.682983
  0
LINE
  8
0
  6
CENTER
 10
392.442505
 20
134.372498
 11
387.817505
 21
134.372498
  0
LINE
  8
0
  6
CONTINUOUS
 10
388.567505
 20
106.372498
 11
388.567505
 21
104.872498
  0
LINE
  8
0
  6
CONTINUOUS
 10
342.567505
 20
106.372498
 11
342.567505
 21
104.872498
  0
LINE
  8
0
  6
CONTINUOUS
 10
390.942505
 20
144.872498
 11
388.942505
 21
144.872498
  0
LINE
  8
0
  6
CONTINUOUS
 10
390.942505
 20
123.872498
 11
388.942505
 21
123.872498
  0
LINE
  8
0
  6
CONTINUOUS
 10
88.067482
 20
150.372498
 11
88.067497
 21
123.136131
  0
LINE
  8
0
  6
CONTINUOUS
 10
38.067501
 20
150.372498
 11
38.067501
 21
123.136032
  0
LINE
  8
0
  6
CONTINUOUS
 10
39.067501
 20
151.372498
 11
87.067482
 21
151.372498
  0
LINE
  8
0
  6
CONTINUOUS
 10
87.067482
 20
151.372498
 11
88.067482
 21
150.372498
  0
LINE
  8
0
  6
CONTINUOUS
 10
39.067501
 20
151.372498
 11
38.067501
 21
150.372498
  0
LINE
  8
0
  6
CONTINUOUS
 10
38.067501
 20
150.372498
 11
88.067482
 21
150.372498
  0
TEXT
  8
0
 10
-40.000000
 20
2.000000
 40
4.000000
 41
1.000000
  1
HLM-18L-160~240-S40WK
 50
0.000000
  0
ENDSEC
  0
EOF
