  0
SECTION
  2
HEADER
  9
$CLAYER
  8
1
  9
$LTSCALE
 40
3.0
  0
ENDSEC
  0
SECTION
  2
TABLES
  0
TABLE
  2
LTYPE
 70
     4
  0
LTYPE
  2
CONTINUOUS
  3
solid line
 70
    64
 72
    65
 73
     0
 40
0.0
  0
LTYPE
  2
DASHED
  3
__ __ __ __ __ __ __ __ __ __ __ __ __ __ __
 70
    64
 72
    65
 73
     2
 40
0.75
 49
0.5
 49
-0.25
  0
LTYPE
  2
CENTER
  3
____ _ ____ _ ____ _ ____ _ ____ _ ____ _ ____
 70
    64
 72
    65
 73
     4
 40
2.0
 49
1.25
 49
-0.25
 49
0.25
 49
-0.25
  0
LTYPE
  2
PHANTOM
  3
_____ _ _ _____ _ _ _____ _ _ _____ _ _ ____
 70
    64
 72
    65
 73
     6
 40
2.5
 49
1.25
 49
-0.25
 49
0.25
 49
-0.25
 49
0.25
 49
-0.25
  0
ENDTAB
  0
TABLE
  2
LAYER
 70
     1
  0
LAYER
  2
0
 70
    64
 62
     7
  6
CONTINUOUS
  0
ENDTAB
  0
TABLE
  2
STYLE
 70
     1
  0
STYLE
  2
STANDARD
 70
     0
 40
0.000000
 41
1.000000
 50
0.000000
 71
     0
 42
3.000000
  3
txt
  4
BIGFONT
  0
ENDTAB
  0
ENDSEC
  0
SECTION
  2
BLOCKS
  0
ENDSEC
  0
SECTION
  2
ENTITIES
  0
LINE
  8
0
  6
CENTER
 10
62.477501
 20
1.155510
 11
62.477501
 21
131.017502
  0
LINE
  8
0
  6
CENTER
 10
9.352500
 20
58.361252
 11
116.727501
 21
58.361252
  0
LINE
  8
0
  6
CONTINUOUS
 10
120.477501
 20
16.061251
 11
120.477501
 21
9.061250
  0
LINE
  8
0
  6
CONTINUOUS
 10
4.477500
 20
16.061251
 11
4.477500
 21
9.061250
  0
LINE
  8
0
  6
CONTINUOUS
 10
4.477500
 20
9.061250
 11
120.477501
 21
9.061250
  0
LINE
  8
0
  6
CONTINUOUS
 10
102.477501
 20
18.061251
 11
118.477501
 21
18.061251
  0
LINE
  8
0
  6
CONTINUOUS
 10
25.477501
 20
21.061251
 11
25.477501
 21
119.449883
  0
LINE
  8
0
  6
CONTINUOUS
 10
99.477478
 20
21.061251
 11
99.477501
 21
119.450012
  0
LINE
  8
0
  6
CONTINUOUS
 10
104.477501
 20
61.561249
 11
104.477501
 21
106.561249
  0
LINE
  8
0
  6
CONTINUOUS
 10
103.477501
 20
107.561249
 11
101.477524
 21
107.561249
  0
LINE
  8
0
  6
CONTINUOUS
 10
103.477501
 20
60.561249
 11
101.477524
 21
60.561249
  0
LINE
  8
0
  6
CONTINUOUS
 10
62.477501
 20
122.061249
 11
97.512398
 21
121.449722
  0
LINE
  8
0
  6
CONTINUOUS
 10
27.442591
 20
121.449577
 11
62.477501
 21
122.061249
  0
ARC
  8
0
  6
CONTINUOUS
 10
101.477501
 20
109.561249
 40
2.000000
 50
180.000000
 51
270.000000
  0
ARC
  8
0
  6
CONTINUOUS
 10
97.477524
 20
119.450012
 40
2.000000
 50
0.000000
 51
89.000137
  0
ARC
  8
0
  6
CONTINUOUS
 10
27.477510
 20
119.449890
 40
2.000000
 50
91.000641
 51
180.000000
  0
ARC
  8
0
  6
CONTINUOUS
 10
101.477524
 20
58.561256
 40
2.000000
 50
90.000000
 51
180.000000
  0
ARC
  8
0
  6
CONTINUOUS
 10
103.477501
 20
106.561241
 40
1.000000
 50
0.000000
 51
90.000000
  0
ARC
  8
0
  6
CONTINUOUS
 10
103.477501
 20
61.561245
 40
1.000000
 50
-90.000000
 51
0.000000
  0
LINE
  8
0
  6
CONTINUOUS
 10
27.498070
 20
98.561249
 11
97.635048
 21
98.561249
  0
ARC
  8
0
  6
CONTINUOUS
 10
118.477501
 20
16.061239
 40
2.000000
 50
0.000000
 51
90.000000
  0
ARC
  8
0
  6
CONTINUOUS
 10
6.477511
 20
16.061260
 40
2.000000
 50
90.000000
 51
180.000000
  0
LINE
  8
0
  6
CENTER
 10
110.477501
 20
22.017500
 11
110.477501
 21
4.767500
  0
LINE
  8
0
  6
CENTER
 10
14.477500
 20
22.017500
 11
14.477500
 21
4.017500
  0
LINE
  8
0
  6
DASHED
 10
18.727501
 20
18.061251
 11
18.727501
 21
9.061250
  0
LINE
  8
0
  6
DASHED
 10
10.227500
 20
18.061251
 11
10.227500
 21
9.061250
  0
LINE
  8
0
  6
DASHED
 10
114.727501
 20
18.061251
 11
114.727501
 21
9.061250
  0
LINE
  8
0
  6
DASHED
 10
106.227501
 20
18.061251
 11
106.227501
 21
9.061250
  0
ARC
  8
0
  6
CONTINUOUS
 10
62.477501
 20
58.361252
 40
45.000000
 50
158.960602
 51
214.692093
  0
ARC
  8
0
  6
CONTINUOUS
 10
62.477501
 20
58.361252
 40
45.000000
 50
-34.692108
 51
20.437799
  0
LINE
  8
0
  6
CONTINUOUS
 10
20.477501
 20
61.561249
 11
20.477501
 21
106.561249
  0
LINE
  8
0
  6
CONTINUOUS
 10
21.477501
 20
107.561249
 11
23.477489
 21
107.561249
  0
LINE
  8
0
  6
CONTINUOUS
 10
21.477501
 20
60.561249
 11
23.477489
 21
60.561249
  0
ARC
  8
0
  6
CONTINUOUS
 10
23.477501
 20
109.561249
 40
2.000000
 50
-90.000000
 51
0.000000
  0
ARC
  8
0
  6
CONTINUOUS
 10
23.477489
 20
58.561256
 40
2.000000
 50
0.000000
 51
90.000000
  0
ARC
  8
0
  6
CONTINUOUS
 10
21.477501
 20
106.561241
 40
1.000000
 50
90.000000
 51
180.000000
  0
ARC
  8
0
  6
CONTINUOUS
 10
21.477501
 20
61.561245
 40
1.000000
 50
180.000000
 51
270.000000
  0
LINE
  8
0
  6
CENTER
 10
12.727500
 20
84.061249
 11
148.227493
 21
84.061249
  0
LINE
  8
0
  6
CONTINUOUS
 10
22.477501
 20
18.061260
 11
6.477500
 21
18.061251
  0
ARC
  8
0
  6
CONTINUOUS
 10
22.477501
 20
21.061251
 40
3.000000
 50
-90.000000
 51
0.000000
  0
ARC
  8
0
  6
CONTINUOUS
 10
102.477501
 20
21.061251
 40
3.000000
 50
180.000000
 51
270.000000
  0
LINE
  8
0
  6
CONTINUOUS
 10
109.477501
 20
32.260731
 11
109.477501
 21
75.061249
  0
LINE
  8
0
  6
CONTINUOUS
 10
15.477500
 20
84.461761
 11
15.477500
 21
32.260738
  0
LINE
  8
0
  6
CONTINUOUS
 10
107.427261
 20
27.311001
 11
99.808243
 21
19.691919
  0
LINE
  8
0
  6
CONTINUOUS
 10
17.527752
 20
27.311001
 11
25.146782
 21
19.691971
  0
LINE
  8
0
  6
CONTINUOUS
 10
17.527752
 20
89.411499
 11
20.477501
 21
92.361252
  0
ARC
  8
0
  6
CONTINUOUS
 10
102.477501
 20
32.260719
 40
7.000000
 50
-44.999630
 51
0.000000
  0
ARC
  8
0
  6
CONTINUOUS
 10
22.477482
 20
32.260799
 40
7.000000
 50
180.000000
 51
225.000397
  0
ARC
  8
0
  6
CONTINUOUS
 10
22.477518
 20
84.461792
 40
7.000000
 50
135.000305
 51
180.000000
  0
LINE
  8
0
  6
CONTINUOUS
 10
136.477493
 20
75.061249
 11
136.477493
 21
93.061249
  0
LINE
  8
0
  6
CONTINUOUS
 10
106.477501
 20
93.061249
 11
136.477493
 21
93.061249
  0
LINE
  8
0
  6
CONTINUOUS
 10
106.477501
 20
75.061249
 11
136.477493
 21
75.061249
  0
LINE
  8
0
  6
CONTINUOUS
 10
106.477501
 20
94.061249
 11
106.477501
 21
74.061249
  0
LINE
  8
0
  6
CONTINUOUS
 10
104.477501
 20
94.061249
 11
106.477501
 21
94.061249
  0
LINE
  8
0
  6
CONTINUOUS
 10
104.477501
 20
74.061249
 11
106.477501
 21
74.061249
  0
ARC
  8
0
  6
CONTINUOUS
 10
112.477501
 20
84.061249
 40
3.000000
 50
90.000000
 51
270.000000
  0
LINE
  8
0
  6
CONTINUOUS
 10
112.477501
 20
87.061249
 11
136.477493
 21
87.061249
  0
LINE
  8
0
  6
CONTINUOUS
 10
112.477524
 20
81.061249
 11
136.477493
 21
81.061249
  0
LINE
  8
0
  6
CONTINUOUS
 10
388.477509
 20
13.361250
 11
388.477509
 21
103.361252
  0
LINE
  8
0
  6
CENTER
 10
458.866882
 20
58.361252
 11
294.258759
 21
58.361252
  0
LINE
  8
0
  6
CONTINUOUS
 10
214.977493
 20
16.061251
 11
214.977493
 21
9.061250
  0
LINE
  8
0
  6
CONTINUOUS
 10
315.977509
 20
16.061239
 11
315.977509
 21
9.061250
  0
LINE
  8
0
  6
CONTINUOUS
 10
388.477509
 20
13.361250
 11
315.977509
 21
13.361250
  0
LINE
  8
0
  6
CONTINUOUS
 10
388.477509
 20
103.361252
 11
309.134888
 21
103.361252
  0
LINE
  8
0
  6
CENTER
 10
265.477509
 20
132.048752
 11
265.477509
 21
1.155500
  0
LINE
  8
0
  6
CENTER
 10
300.765015
 20
84.061249
 11
230.172195
 21
84.061249
  0
LINE
  8
0
  6
CONTINUOUS
 10
315.977509
 20
9.061250
 11
214.977493
 21
9.061250
  0
LINE
  8
0
  6
CONTINUOUS
 10
280.898590
 20
122.061249
 11
250.056396
 21
122.061249
  0
LINE
  8
0
  6
CONTINUOUS
 10
313.977509
 20
18.061251
 11
216.977493
 21
18.061251
  0
LINE
  8
0
  6
CENTER
 10
227.477493
 20
23.548750
 11
227.477493
 21
2.298750
  0
LINE
  8
0
  6
CENTER
 10
303.477509
 20
23.798750
 11
303.477509
 21
1.798750
  0
LINE
  8
0
  6
CONTINUOUS
 10
217.106094
 20
100.054428
 11
247.184998
 21
121.154541
  0
LINE
  8
0
  6
CONTINUOUS
 10
313.848907
 20
100.054428
 11
283.769989
 21
121.154533
  0
ARC
  8
0
  6
CONTINUOUS
 10
250.056305
 20
117.061241
 40
5.000000
 50
90.000000
 51
125.049103
  0
ARC
  8
0
  6
CONTINUOUS
 10
280.898590
 20
117.061249
 40
5.000000
 50
54.950329
 51
90.000000
  0
ARC
  8
0
  6
CONTINUOUS
 10
310.977509
 20
95.961182
 40
5.000000
 50
0.000000
 51
54.950199
  0
ARC
  8
0
  6
CONTINUOUS
 10
219.977493
 20
95.961128
 40
5.000000
 50
125.049103
 51
180.000000
  0
LINE
  8
0
  6
CONTINUOUS
 10
214.977493
 20
16.061251
 11
214.977493
 21
95.961151
  0
ARC
  8
0
  6
CONTINUOUS
 10
216.977493
 20
16.061239
 40
2.000000
 50
90.000000
 51
180.000000
  0
LINE
  8
0
  6
CONTINUOUS
 10
315.977509
 20
16.061239
 11
315.977509
 21
95.961151
  0
ARC
  8
0
  6
CONTINUOUS
 10
313.977509
 20
16.061251
 40
2.000000
 50
0.000000
 51
90.000000
  0
LINE
  8
0
  6
DASHED
 10
223.227493
 20
18.061251
 11
223.227493
 21
9.061250
  0
LINE
  8
0
  6
DASHED
 10
231.727493
 20
18.061251
 11
231.727493
 21
9.061250
  0
LINE
  8
0
  6
DASHED
 10
299.227509
 20
18.061251
 11
299.227509
 21
9.061250
  0
LINE
  8
0
  6
DASHED
 10
307.727509
 20
18.061251
 11
307.727509
 21
9.061250
  0
CIRCLE
  8
0
  6
CONTINUOUS
 10
265.477509
 20
84.061249
 40
23.500000
  0
CIRCLE
  8
0
  6
CONTINUOUS
 10
265.477509
 20
84.061249
 40
23.500000
  0
LINE
  8
0
  6
CONTINUOUS
 10
259.103485
 20
46.615349
 11
259.103485
 21
41.061249
  0
LINE
  8
0
  6
CONTINUOUS
 10
262.291504
 20
48.632751
 11
262.291504
 21
50.625259
  0
LINE
  8
0
  6
CONTINUOUS
 10
268.667511
 20
48.632751
 11
268.667511
 21
50.625259
  0
LINE
  8
0
  6
CONTINUOUS
 10
264.856812
 20
49.454662
 11
264.856812
 21
42.107311
  0
LINE
  8
0
  6
CONTINUOUS
 10
266.052307
 20
49.454662
 11
266.052307
 21
42.107311
  0
LINE
  8
0
  6
CONTINUOUS
 10
272.328705
 20
49.454662
 11
272.328705
 21
42.057510
  0
LINE
  8
0
  6
CONTINUOUS
 10
273.424591
 20
45.531921
 11
273.424591
 21
42.057510
  0
LINE
  8
0
  6
CONTINUOUS
 10
257.590790
 20
49.355042
 11
254.518295
 21
49.355042
  0
LINE
  8
0
  6
CONTINUOUS
 10
254.518295
 20
49.355042
 11
253.798492
 21
48.462402
  0
LINE
  8
0
  6
CONTINUOUS
 10
253.884995
 20
50.625259
 11
252.727493
 21
49.143036
  0
LINE
  8
0
  6
CONTINUOUS
 10
253.798492
 20
42.952469
 11
254.529907
 21
42.182041
  0
LINE
  8
0
  6
CONTINUOUS
 10
252.727493
 20
42.302292
 11
253.957504
 21
41.061249
  0
LINE
  8
0
  6
CONTINUOUS
 10
252.727493
 20
49.143036
 11
252.727493
 21
42.302292
  0
LINE
  8
0
  6
CONTINUOUS
 10
253.798492
 20
48.462402
 11
253.798492
 21
42.952469
  0
LINE
  8
0
  6
CONTINUOUS
 10
258.182007
 20
48.783504
 11
257.578705
 21
49.355042
  0
LINE
  8
0
  6
CONTINUOUS
 10
258.172394
 20
50.625259
 11
259.103485
 21
49.591949
  0
LINE
  8
0
  6
CONTINUOUS
 10
258.182007
 20
48.632751
 11
259.103485
 21
48.632751
  0
LINE
  8
0
  6
CONTINUOUS
 10
253.884995
 20
50.625259
 11
258.172394
 21
50.625259
  0
LINE
  8
0
  6
CONTINUOUS
 10
258.182007
 20
45.569290
 11
256.513306
 21
45.569290
  0
LINE
  8
0
  6
CONTINUOUS
 10
258.182007
 20
44.573040
 11
258.182007
 21
45.370041
  0
LINE
  8
0
  6
CONTINUOUS
 10
256.189514
 20
42.182041
 11
254.529907
 21
42.182041
  0
ARC
  8
0
  6
CONTINUOUS
 10
256.189514
 20
44.174530
 40
1.992500
 50
-89.999786
 51
0.000109
  0
LINE
  8
0
  6
CONTINUOUS
 10
258.182007
 20
41.823639
 11
258.182007
 21
41.061249
  0
LINE
  8
0
  6
CONTINUOUS
 10
259.103485
 20
49.591949
 11
259.103485
 21
48.632751
  0
LINE
  8
0
  6
CONTINUOUS
 10
258.182007
 20
45.569290
 11
258.182007
 21
44.174530
  0
LINE
  8
0
  6
CONTINUOUS
 10
256.513306
 20
46.615349
 11
256.513306
 21
45.569290
  0
LINE
  8
0
  6
CONTINUOUS
 10
258.182007
 20
41.061249
 11
259.103485
 21
41.061249
  0
LINE
  8
0
  6
CONTINUOUS
 10
258.182007
 20
41.823639
 11
257.273285
 21
41.061249
  0
LINE
  8
0
  6
CONTINUOUS
 10
266.052307
 20
42.107311
 11
266.450806
 21
42.107311
  0
LINE
  8
0
  6
CONTINUOUS
 10
264.383606
 20
42.107311
 11
264.383606
 21
41.061249
  0
LINE
  8
0
  6
CONTINUOUS
 10
266.450806
 20
42.107311
 11
266.450806
 21
41.061249
  0
LINE
  8
0
  6
CONTINUOUS
 10
268.002411
 20
48.632751
 11
268.667511
 21
48.632751
  0
LINE
  8
0
  6
CONTINUOUS
 10
262.291504
 20
48.632751
 11
262.999207
 21
48.632751
  0
LINE
  8
0
  6
CONTINUOUS
 10
262.291504
 20
50.625259
 11
268.667511
 21
50.625259
  0
LINE
  8
0
  6
CONTINUOUS
 10
264.383606
 20
41.061249
 11
266.450806
 21
41.061249
  0
LINE
  8
0
  6
CONTINUOUS
 10
264.383606
 20
42.107311
 11
264.856812
 21
42.107311
  0
ARC
  8
0
  6
CONTINUOUS
 10
275.678589
 20
48.072361
 40
2.552891
 50
-73.981873
 51
90.003510
  0
ARC
  8
0
  6
CONTINUOUS
 10
275.678589
 20
48.072361
 40
1.557438
 50
-82.585274
 51
62.411850
  0
LINE
  8
0
  6
CONTINUOUS
 10
271.855499
 20
50.625259
 11
275.678589
 21
50.625259
  0
LINE
  8
0
  6
CONTINUOUS
 10
271.855499
 20
50.625259
 11
271.855499
 21
49.454662
  0
LINE
  8
0
  6
CONTINUOUS
 10
273.424591
 20
49.454662
 11
273.424591
 21
46.527939
  0
LINE
  8
0
  6
CONTINUOUS
 10
276.383087
 20
45.618591
 11
277.963104
 21
42.057510
  0
LINE
  8
0
  6
CONTINUOUS
 10
275.465302
 20
45.531921
 11
276.960693
 21
42.057510
  0
LINE
  8
0
  6
CONTINUOUS
 10
271.855499
 20
42.057510
 11
272.328705
 21
42.057510
  0
LINE
  8
0
  6
CONTINUOUS
 10
273.424591
 20
42.057510
 11
273.860413
 21
42.057510
  0
LINE
  8
0
  6
CONTINUOUS
 10
273.860413
 20
41.061249
 11
271.855499
 21
41.061249
  0
LINE
  8
0
  6
CONTINUOUS
 10
276.761993
 20
42.057510
 11
276.960693
 21
42.057510
  0
LINE
  8
0
  6
CONTINUOUS
 10
277.963104
 20
42.057510
 11
278.231506
 21
42.057510
  0
LINE
  8
0
  6
CONTINUOUS
 10
276.761993
 20
41.061249
 11
278.231506
 21
41.061249
  0
LINE
  8
0
  6
CONTINUOUS
 10
278.231506
 20
42.057510
 11
278.231506
 21
41.061249
  0
LINE
  8
0
  6
CONTINUOUS
 10
276.761993
 20
42.057510
 11
276.761993
 21
41.061249
  0
LINE
  8
0
  6
CONTINUOUS
 10
273.860413
 20
42.057510
 11
273.860413
 21
41.061249
  0
LINE
  8
0
  6
CONTINUOUS
 10
271.855499
 20
42.057510
 11
271.855499
 21
41.061249
  0
LINE
  8
0
  6
CONTINUOUS
 10
263.341705
 20
49.454662
 11
262.999207
 21
48.632751
  0
LINE
  8
0
  6
CONTINUOUS
 10
267.713593
 20
49.454662
 11
268.002411
 21
48.632751
  0
LINE
  8
0
  6
CONTINUOUS
 10
266.052307
 20
49.454662
 11
267.713593
 21
49.454662
  0
LINE
  8
0
  6
CONTINUOUS
 10
264.856812
 20
49.454662
 11
263.341705
 21
49.454662
  0
LINE
  8
0
  6
CONTINUOUS
 10
271.855499
 20
49.454662
 11
272.328705
 21
49.454662
  0
LINE
  8
0
  6
CONTINUOUS
 10
273.424591
 20
49.454662
 11
276.399902
 21
49.452724
  0
LINE
  8
0
  6
CONTINUOUS
 10
258.182007
 20
48.783504
 11
258.182007
 21
48.632751
  0
LINE
  8
0
  6
CONTINUOUS
 10
253.957504
 20
41.061249
 11
257.273285
 21
41.061249
  0
LINE
  8
0
  6
CONTINUOUS
 10
273.424591
 20
46.527939
 11
275.879608
 21
46.527939
  0
LINE
  8
0
  6
CONTINUOUS
 10
273.424591
 20
45.531921
 11
275.465302
 21
45.531921
  0
LINE
  8
0
  6
CONTINUOUS
 10
256.513306
 20
46.615349
 11
259.103485
 21
46.615349
  0
LINE
  8
0
  6
CONTINUOUS
 10
317.895386
 20
92.770554
 11
388.477509
 21
92.770554
  0
LINE
  8
0
  6
CONTINUOUS
 10
317.895386
 20
23.951950
 11
388.477509
 21
23.951950
  0
LINE
  8
0
  6
CONTINUOUS
 10
397.977509
 20
103.361252
 11
388.477509
 21
103.361252
  0
LINE
  8
0
  6
CONTINUOUS
 10
388.477509
 20
92.770554
 11
397.977509
 21
92.770554
  0
LINE
  8
0
  6
CONTINUOUS
 10
397.977509
 20
13.361250
 11
388.477509
 21
13.361250
  0
LINE
  8
0
  6
CONTINUOUS
 10
388.477509
 20
23.951950
 11
397.977509
 21
23.951950
  0
LINE
  8
0
  6
CONTINUOUS
 10
397.977509
 20
105.361252
 11
397.977509
 21
11.361250
  0
LINE
  8
0
  6
CONTINUOUS
 10
397.977509
 20
87.361252
 11
441.952515
 21
87.361252
  0
LINE
  8
0
  6
CONTINUOUS
 10
397.977509
 20
29.361250
 11
441.952515
 21
29.361250
  0
LINE
  8
0
  6
CONTINUOUS
 10
387.977509
 20
104.861252
 11
387.977509
 21
103.361252
  0
LINE
  8
0
  6
CONTINUOUS
 10
394.977509
 20
104.861252
 11
394.977509
 21
103.361252
  0
LINE
  8
0
  6
CONTINUOUS
 10
394.977509
 20
104.861252
 11
387.977509
 21
104.861252
  0
LINE
  8
0
  6
CONTINUOUS
 10
390.577515
 20
117.861252
 11
390.577515
 21
104.861252
  0
LINE
  8
0
  6
CONTINUOUS
 10
392.377502
 20
118.486252
 11
392.377502
 21
104.861252
  0
LINE
  8
0
  6
CONTINUOUS
 10
394.177490
 20
116.423752
 11
394.177490
 21
104.861252
  0
LINE
  8
0
  6
CONTINUOUS
 10
388.777496
 20
117.236252
 11
388.777496
 21
104.861252
  0
LINE
  8
0
  6
CONTINUOUS
 10
392.377502
 20
118.486252
 11
390.577515
 21
117.861252
  0
LINE
  8
0
  6
CONTINUOUS
 10
394.177490
 20
116.423752
 11
392.377502
 21
117.048752
  0
LINE
  8
0
  6
CONTINUOUS
 10
388.777496
 20
117.236252
 11
390.576508
 21
116.788544
  0
LINE
  8
0
  6
CONTINUOUS
 10
440.477509
 20
105.361252
 11
397.977509
 21
105.361252
  0
LINE
  8
0
  6
CONTINUOUS
 10
440.477509
 20
11.361250
 11
397.977509
 21
11.361250
  0
ARC
  8
0
  6
CONTINUOUS
 10
440.477509
 20
100.361282
 40
5.000000
 50
0.000000
 51
90.000000
  0
ARC
  8
0
  6
CONTINUOUS
 10
440.477509
 20
16.361250
 40
5.000000
 50
-90.000000
 51
0.000000
  0
LINE
  8
0
  6
CONTINUOUS
 10
445.477509
 20
100.361259
 11
445.477509
 21
16.361240
  0
LINE
  8
0
  6
CONTINUOUS
 10
259.977509
 20
87.061249
 11
259.977509
 21
81.061249
  0
LINE
  8
0
  6
CONTINUOUS
 10
253.977493
 20
87.061249
 11
253.977493
 21
81.061249
  0
LINE
  8
0
  6
CONTINUOUS
 10
253.977493
 20
87.061249
 11
259.977509
 21
87.061249
  0
LINE
  8
0
  6
CONTINUOUS
 10
253.977493
 20
81.061249
 11
259.977509
 21
81.061249
  0
ARC
  8
0
  6
CONTINUOUS
 10
265.477509
 20
84.061249
 40
9.000000
 50
-160.528793
 51
160.528793
  0
LINE
  8
0
  6
CENTER
 10
265.477509
 20
176.988129
 11
265.477509
 21
324.842499
  0
LINE
  8
0
  6
CENTER
 10
227.477493
 20
198.639999
 11
227.477493
 21
219.970001
  0
LINE
  8
0
  6
CENTER
 10
457.463745
 20
257.865631
 11
201.336243
 21
257.865631
  0
LINE
  8
0
  6
CONTINUOUS
 10
215.818390
 20
209.691101
 11
214.977493
 21
257.865631
  0
LINE
  8
0
  6
CONTINUOUS
 10
225.816864
 20
199.865631
 11
253.977493
 21
199.865631
  0
LINE
  8
0
  6
CONTINUOUS
 10
313.977509
 20
220.865631
 11
217.588730
 21
220.865631
  0
ARC
  8
0
  6
CONTINUOUS
 10
225.816864
 20
209.865631
 40
10.000000
 50
-179.000000
 51
-90.000000
  0
ARC
  8
0
  6
CONTINUOUS
 10
217.588730
 20
222.865631
 40
2.000000
 50
-179.000000
 51
-90.000000
  0
LINE
  8
0
  6
CENTER
 10
238.969681
 20
209.865631
 11
217.837189
 21
209.865631
  0
CIRCLE
  8
0
  6
CONTINUOUS
 10
227.477493
 20
209.865631
 40
4.250000
  0
LINE
  8
0
  6
CENTER
 10
303.477509
 20
198.442505
 11
303.477509
 21
219.772507
  0
LINE
  8
0
  6
CONTINUOUS
 10
315.136597
 20
209.691101
 11
315.322601
 21
220.345734
  0
ARC
  8
0
  6
CONTINUOUS
 10
305.138123
 20
209.865631
 40
10.000000
 50
-90.000000
 51
-1.000000
  0
ARC
  8
0
  6
CONTINUOUS
 10
313.366272
 20
222.865631
 40
2.000000
 50
-90.000000
 51
-1.000000
  0
LINE
  8
0
  6
CENTER
 10
292.788452
 20
209.865631
 11
313.427185
 21
209.865631
  0
CIRCLE
  8
0
  6
CONTINUOUS
 10
303.477509
 20
209.865631
 40
4.250000
  0
LINE
  8
0
  6
CONTINUOUS
 10
315.977509
 20
218.865631
 11
315.977509
 21
214.865631
  0
LINE
  8
0
  6
CONTINUOUS
 10
317.977509
 20
212.865631
 11
388.477509
 21
212.865631
  0
ARC
  8
0
  6
CONTINUOUS
 10
317.977509
 20
214.865631
 40
2.000000
 50
-180.000000
 51
-90.000000
  0
ARC
  8
0
  6
CONTINUOUS
 10
313.977509
 20
218.865631
 40
2.000000
 50
0.000000
 51
90.000000
  0
LINE
  8
0
  6
CONTINUOUS
 10
315.365967
 20
222.830719
 11
315.471313
 21
228.865631
  0
LINE
  8
0
  6
CONTINUOUS
 10
388.477509
 20
228.865631
 11
309.134949
 21
228.865631
  0
LINE
  8
0
  6
CONTINUOUS
 10
388.477509
 20
286.865631
 11
309.134949
 21
286.865631
  0
LINE
  8
0
  6
CONTINUOUS
 10
317.977509
 20
302.865631
 11
388.477509
 21
302.865631
  0
ARC
  8
0
  6
CONTINUOUS
 10
317.977509
 20
300.865631
 40
2.000000
 50
-270.000000
 51
-180.000000
  0
LINE
  8
0
  6
CENTER
 10
227.477493
 20
319.707489
 11
227.477493
 21
295.612488
  0
LINE
  8
0
  6
CONTINUOUS
 10
215.818390
 20
306.040161
 11
214.977493
 21
257.865631
  0
LINE
  8
0
  6
CONTINUOUS
 10
225.816864
 20
315.865631
 11
265.477509
 21
315.865631
  0
LINE
  8
0
  6
CONTINUOUS
 10
313.977509
 20
294.865631
 11
217.588730
 21
294.865631
  0
ARC
  8
0
  6
CONTINUOUS
 10
225.816864
 20
305.865631
 40
10.000000
 50
-270.000000
 51
-181.000000
  0
ARC
  8
0
  6
CONTINUOUS
 10
217.588730
 20
292.865631
 40
2.000000
 50
-270.000000
 51
-181.000000
  0
LINE
  8
0
  6
CENTER
 10
237.982193
 20
305.865631
 11
217.442184
 21
305.865631
  0
CIRCLE
  8
0
  6
CONTINUOUS
 10
227.477493
 20
305.865631
 40
4.250000
  0
LINE
  8
0
  6
CENTER
 10
303.477509
 20
320.102509
 11
303.477509
 21
295.415009
  0
LINE
  8
0
  6
CONTINUOUS
 10
315.136597
 20
306.040161
 11
315.322601
 21
295.385498
  0
ARC
  8
0
  6
CONTINUOUS
 10
305.138123
 20
305.865631
 40
10.000000
 50
-359.000000
 51
-270.000000
  0
ARC
  8
0
  6
CONTINUOUS
 10
313.366272
 20
292.865631
 40
2.000000
 50
-359.000000
 51
-270.000000
  0
LINE
  8
0
  6
CENTER
 10
294.072174
 20
305.865631
 11
313.624695
 21
305.865631
  0
CIRCLE
  8
0
  6
CONTINUOUS
 10
303.477509
 20
305.865631
 40
4.250000
  0
LINE
  8
0
  6
CONTINUOUS
 10
315.977509
 20
296.865631
 11
315.977509
 21
300.865631
  0
ARC
  8
0
  6
CONTINUOUS
 10
313.977509
 20
296.865631
 40
2.000000
 50
-90.000000
 51
0.000000
  0
LINE
  8
0
  6
CONTINUOUS
 10
315.365967
 20
292.900543
 11
315.471313
 21
286.865631
  0
LINE
  8
0
  6
CONTINUOUS
 10
282.477509
 20
225.865631
 11
282.477509
 21
289.865631
  0
LINE
  8
0
  6
CONTINUOUS
 10
248.477493
 20
225.865631
 11
248.477493
 21
289.865631
  0
LINE
  8
0
  6
CONTINUOUS
 10
309.134949
 20
230.865631
 11
309.134949
 21
284.865631
  0
LINE
  8
0
  6
CONTINUOUS
 10
242.977493
 20
215.865631
 11
287.977509
 21
215.865631
  0
LINE
  8
0
  6
CONTINUOUS
 10
288.977509
 20
216.865631
 11
288.977509
 21
218.865631
  0
LINE
  8
0
  6
CONTINUOUS
 10
241.977493
 20
216.865631
 11
241.977493
 21
218.865631
  0
ARC
  8
0
  6
CONTINUOUS
 10
290.977509
 20
218.865631
 40
2.000000
 50
-270.000000
 51
-180.000000
  0
ARC
  8
0
  6
CONTINUOUS
 10
239.977509
 20
218.865631
 40
2.000000
 50
0.000000
 51
90.000000
  0
ARC
  8
0
  6
CONTINUOUS
 10
287.977478
 20
216.865631
 40
1.000000
 50
-90.000000
 51
0.000000
  0
ARC
  8
0
  6
CONTINUOUS
 10
242.977493
 20
216.865631
 40
1.000000
 50
-180.000000
 51
-90.000000
  0
LINE
  8
0
  6
CONTINUOUS
 10
253.977493
 20
183.865631
 11
274.477509
 21
183.865631
  0
LINE
  8
0
  6
CONTINUOUS
 10
274.477509
 20
213.865631
 11
274.477509
 21
183.865631
  0
LINE
  8
0
  6
CONTINUOUS
 10
256.477509
 20
213.865631
 11
256.477509
 21
210.865631
  0
LINE
  8
0
  6
CONTINUOUS
 10
275.477509
 20
213.865631
 11
255.477493
 21
213.865631
  0
LINE
  8
0
  6
CONTINUOUS
 10
275.477509
 20
215.865631
 11
275.477509
 21
213.865631
  0
LINE
  8
0
  6
CONTINUOUS
 10
255.477493
 20
215.865631
 11
255.477493
 21
213.865631
  0
LINE
  8
0
  6
CONTINUOUS
 10
253.977493
 20
183.865631
 11
253.977493
 21
210.865631
  0
LINE
  8
0
  6
CONTINUOUS
 10
253.977493
 20
210.865631
 11
256.992493
 21
210.865631
  0
LINE
  8
0
  6
CONTINUOUS
 10
256.992493
 20
183.865631
 11
256.992493
 21
210.865631
  0
LINE
  8
0
  6
CONTINUOUS
 10
274.477509
 20
199.865631
 11
305.138123
 21
199.865631
  0
LINE
  8
0
  6
CONTINUOUS
 10
242.977493
 20
299.865631
 11
287.977509
 21
299.865631
  0
LINE
  8
0
  6
CONTINUOUS
 10
288.977509
 20
298.865631
 11
288.977509
 21
296.865631
  0
LINE
  8
0
  6
CONTINUOUS
 10
241.977493
 20
298.865631
 11
241.977493
 21
296.865631
  0
ARC
  8
0
  6
CONTINUOUS
 10
290.977509
 20
296.865631
 40
2.000000
 50
-180.000000
 51
-90.000000
  0
ARC
  8
0
  6
CONTINUOUS
 10
239.977509
 20
296.865631
 40
2.000000
 50
-90.000000
 51
0.000000
  0
ARC
  8
0
  6
CONTINUOUS
 10
287.977478
 20
298.865631
 40
1.000000
 50
0.000000
 51
90.000000
  0
ARC
  8
0
  6
CONTINUOUS
 10
242.977493
 20
298.865631
 40
1.000000
 50
-270.000000
 51
-180.000000
  0
LINE
  8
0
  6
CONTINUOUS
 10
265.477509
 20
315.865631
 11
305.138123
 21
315.865631
  0
LINE
  8
0
  6
CONTINUOUS
 10
397.977509
 20
212.865631
 11
388.477509
 21
212.865631
  0
LINE
  8
0
  6
CONTINUOUS
 10
388.477509
 20
228.865631
 11
397.977509
 21
228.865631
  0
LINE
  8
0
  6
CONTINUOUS
 10
397.977509
 20
302.865631
 11
388.477509
 21
302.865631
  0
LINE
  8
0
  6
CONTINUOUS
 10
388.477509
 20
302.865631
 11
388.477509
 21
264.731659
  0
LINE
  8
0
  6
CONTINUOUS
 10
388.477509
 20
286.865631
 11
397.977509
 21
286.865631
  0
LINE
  8
0
  6
CONTINUOUS
 10
394.977509
 20
263.865631
 11
394.977509
 21
251.865631
  0
LINE
  8
0
  6
CONTINUOUS
 10
387.977509
 20
263.865631
 11
387.977509
 21
251.865631
  0
LINE
  8
0
  6
CONTINUOUS
 10
393.977509
 20
250.865631
 11
388.977509
 21
250.865631
  0
LINE
  8
0
  6
CONTINUOUS
 10
388.977509
 20
264.865631
 11
393.977509
 21
264.865631
  0
ARC
  8
0
  6
CONTINUOUS
 10
388.977509
 20
251.865631
 40
1.000000
 50
180.000000
 51
270.000000
  0
ARC
  8
0
  6
CONTINUOUS
 10
393.977509
 20
251.865631
 40
1.000000
 50
-90.000000
 51
0.000000
  0
ARC
  8
0
  6
CONTINUOUS
 10
393.977509
 20
263.865631
 40
1.000000
 50
0.000000
 51
90.000000
  0
ARC
  8
0
  6
CONTINUOUS
 10
388.977509
 20
263.865631
 40
1.000000
 50
90.000000
 51
180.000000
  0
LINE
  8
0
  6
CONTINUOUS
 10
390.477509
 20
261.365631
 11
390.477509
 21
254.365631
  0
LINE
  8
0
  6
CONTINUOUS
 10
392.477509
 20
261.365631
 11
392.477509
 21
254.365631
  0
ARC
  8
0
  6
CONTINUOUS
 10
391.477509
 20
254.365631
 40
1.000000
 50
-90.000000
 51
0.000000
  0
ARC
  8
0
  6
CONTINUOUS
 10
391.477509
 20
254.365631
 40
1.000000
 50
180.000000
 51
270.000000
  0
ARC
  8
0
  6
CONTINUOUS
 10
391.477509
 20
261.365631
 40
1.000000
 50
0.000000
 51
90.000000
  0
ARC
  8
0
  6
CONTINUOUS
 10
391.477509
 20
261.365631
 40
1.000000
 50
90.000000
 51
180.000000
  0
LINE
  8
0
  6
CONTINUOUS
 10
388.477509
 20
250.999603
 11
388.477509
 21
212.865631
  0
LINE
  8
0
  6
CONTINUOUS
 10
397.977509
 20
210.865631
 11
397.977509
 21
304.865631
  0
LINE
  8
0
  6
CONTINUOUS
 10
397.977509
 20
228.865631
 11
441.952545
 21
228.865631
  0
LINE
  8
0
  6
CONTINUOUS
 10
397.977509
 20
286.865631
 11
441.952545
 21
286.865631
  0
LINE
  8
0
  6
CONTINUOUS
 10
440.477509
 20
210.865631
 11
397.977509
 21
210.865631
  0
LINE
  8
0
  6
CONTINUOUS
 10
440.477509
 20
304.865631
 11
397.977509
 21
304.865631
  0
ARC
  8
0
  6
CONTINUOUS
 10
440.477478
 20
215.865631
 40
5.000000
 50
-90.000000
 51
0.000000
  0
ARC
  8
0
  6
CONTINUOUS
 10
440.477509
 20
299.865631
 40
5.000000
 50
0.000000
 51
90.000000
  0
LINE
  8
0
  6
CONTINUOUS
 10
445.477478
 20
215.865631
 11
445.477509
 21
299.865631
  0
TEXT
  8
0
 10
-19.000000
 20
1.000000
 40
4.000000
 41
1.000000
  1
HLM-18L-10~240-S60W
 50
0.000000
  0
ENDSEC
  0
EOF
