  0
SECTION
  2
HEADER
  9
$CLAYER
  8
1
  9
$LTSCALE
 40
3.0
  0
ENDSEC
  0
SECTION
  2
TABLES
  0
TABLE
  2
LTYPE
 70
     4
  0
LTYPE
  2
CONTINUOUS
  3
solid line
 70
    64
 72
    65
 73
     0
 40
0.0
  0
LTYPE
  2
DASHED
  3
__ __ __ __ __ __ __ __ __ __ __ __ __ __ __
 70
    64
 72
    65
 73
     2
 40
0.75
 49
0.5
 49
-0.25
  0
LTYPE
  2
CENTER
  3
____ _ ____ _ ____ _ ____ _ ____ _ ____ _ ____
 70
    64
 72
    65
 73
     4
 40
2.0
 49
1.25
 49
-0.25
 49
0.25
 49
-0.25
  0
LTYPE
  2
PHANTOM
  3
_____ _ _ _____ _ _ _____ _ _ _____ _ _ ____
 70
    64
 72
    65
 73
     6
 40
2.5
 49
1.25
 49
-0.25
 49
0.25
 49
-0.25
 49
0.25
 49
-0.25
  0
ENDTAB
  0
TABLE
  2
LAYER
 70
     1
  0
LAYER
  2
0
 70
    64
 62
     7
  6
CONTINUOUS
  0
ENDTAB
  0
TABLE
  2
STYLE
 70
     1
  0
STYLE
  2
STANDARD
 70
     0
 40
0.000000
 41
1.000000
 50
0.000000
 71
     0
 42
3.000000
  3
txt
  4
BIGFONT
  0
ENDTAB
  0
ENDSEC
  0
SECTION
  2
BLOCKS
  0
ENDSEC
  0
SECTION
  2
ENTITIES
  0
LINE
  8
0
  6
CENTER
 10
63.108749
 20
2.118010
 11
63.108749
 21
145.891251
  0
LINE
  8
0
  6
CENTER
 10
9.983750
 20
59.323750
 11
117.358749
 21
59.323750
  0
LINE
  8
0
  6
CONTINUOUS
 10
121.108749
 20
17.023750
 11
121.108749
 21
10.023750
  0
LINE
  8
0
  6
CONTINUOUS
 10
5.108750
 20
17.023750
 11
5.108750
 21
10.023750
  0
LINE
  8
0
  6
CONTINUOUS
 10
5.108750
 20
10.023750
 11
121.108749
 21
10.023750
  0
LINE
  8
0
  6
CONTINUOUS
 10
103.108749
 20
19.023750
 11
119.108749
 21
19.023750
  0
LINE
  8
0
  6
CONTINUOUS
 10
26.108749
 20
22.023750
 11
26.108749
 21
120.412376
  0
LINE
  8
0
  6
CONTINUOUS
 10
100.108727
 20
22.023750
 11
100.108749
 21
120.412514
  0
LINE
  8
0
  6
CONTINUOUS
 10
105.108749
 20
62.523746
 11
105.108749
 21
107.523750
  0
LINE
  8
0
  6
CONTINUOUS
 10
104.108749
 20
108.523750
 11
102.108772
 21
108.523750
  0
LINE
  8
0
  6
CONTINUOUS
 10
104.108749
 20
61.523746
 11
102.108772
 21
61.523746
  0
LINE
  8
0
  6
CONTINUOUS
 10
63.108749
 20
123.023750
 11
98.143646
 21
122.412216
  0
LINE
  8
0
  6
CONTINUOUS
 10
28.073839
 20
122.412079
 11
63.108749
 21
123.023750
  0
ARC
  8
0
  6
CONTINUOUS
 10
102.108749
 20
110.523750
 40
2.000000
 50
180.000000
 51
270.000000
  0
ARC
  8
0
  6
CONTINUOUS
 10
98.108772
 20
120.412514
 40
2.000000
 50
0.000000
 51
89.000137
  0
ARC
  8
0
  6
CONTINUOUS
 10
28.108761
 20
120.412392
 40
2.000000
 50
91.000641
 51
180.000000
  0
ARC
  8
0
  6
CONTINUOUS
 10
102.108772
 20
59.523758
 40
2.000000
 50
90.000000
 51
180.000000
  0
ARC
  8
0
  6
CONTINUOUS
 10
104.108749
 20
107.523743
 40
1.000000
 50
0.000000
 51
90.000000
  0
ARC
  8
0
  6
CONTINUOUS
 10
104.108749
 20
62.523746
 40
1.000000
 50
-90.000000
 51
0.000000
  0
LINE
  8
0
  6
CONTINUOUS
 10
28.129320
 20
99.523750
 11
98.266296
 21
99.523750
  0
ARC
  8
0
  6
CONTINUOUS
 10
119.108749
 20
17.023741
 40
2.000000
 50
0.000000
 51
90.000000
  0
ARC
  8
0
  6
CONTINUOUS
 10
7.108761
 20
17.023760
 40
2.000000
 50
90.000000
 51
180.000000
  0
LINE
  8
0
  6
CENTER
 10
111.108749
 20
22.980000
 11
111.108749
 21
5.730000
  0
LINE
  8
0
  6
CENTER
 10
15.108750
 20
22.980000
 11
15.108750
 21
4.980000
  0
LINE
  8
0
  6
DASHED
 10
19.358749
 20
19.023750
 11
19.358749
 21
10.023750
  0
LINE
  8
0
  6
DASHED
 10
10.858750
 20
19.023750
 11
10.858750
 21
10.023750
  0
LINE
  8
0
  6
DASHED
 10
115.358749
 20
19.023750
 11
115.358749
 21
10.023750
  0
LINE
  8
0
  6
DASHED
 10
106.858749
 20
19.023750
 11
106.858749
 21
10.023750
  0
ARC
  8
0
  6
CONTINUOUS
 10
63.108749
 20
59.323750
 40
45.000000
 50
158.960602
 51
214.692093
  0
ARC
  8
0
  6
CONTINUOUS
 10
63.108749
 20
59.323750
 40
45.000000
 50
-34.692108
 51
20.437799
  0
LINE
  8
0
  6
CONTINUOUS
 10
21.108749
 20
62.523746
 11
21.108749
 21
107.523750
  0
LINE
  8
0
  6
CONTINUOUS
 10
22.108749
 20
108.523750
 11
24.108740
 21
108.523750
  0
LINE
  8
0
  6
CONTINUOUS
 10
22.108749
 20
61.523746
 11
24.108740
 21
61.523746
  0
ARC
  8
0
  6
CONTINUOUS
 10
24.108749
 20
110.523750
 40
2.000000
 50
-90.000000
 51
0.000000
  0
ARC
  8
0
  6
CONTINUOUS
 10
24.108740
 20
59.523758
 40
2.000000
 50
0.000000
 51
90.000000
  0
ARC
  8
0
  6
CONTINUOUS
 10
22.108749
 20
107.523743
 40
1.000000
 50
90.000000
 51
180.000000
  0
ARC
  8
0
  6
CONTINUOUS
 10
22.108749
 20
62.523746
 40
1.000000
 50
180.000000
 51
270.000000
  0
LINE
  8
0
  6
CENTER
 10
13.358750
 20
85.023750
 11
148.858749
 21
85.023750
  0
LINE
  8
0
  6
CONTINUOUS
 10
23.108749
 20
19.023760
 11
7.108750
 21
19.023750
  0
ARC
  8
0
  6
CONTINUOUS
 10
23.108749
 20
22.023750
 40
3.000000
 50
-90.000000
 51
0.000000
  0
ARC
  8
0
  6
CONTINUOUS
 10
103.108749
 20
22.023750
 40
3.000000
 50
180.000000
 51
270.000000
  0
LINE
  8
0
  6
CONTINUOUS
 10
110.108749
 20
33.223228
 11
110.108749
 21
76.023750
  0
LINE
  8
0
  6
CONTINUOUS
 10
16.108749
 20
85.424263
 11
16.108749
 21
33.223240
  0
LINE
  8
0
  6
CONTINUOUS
 10
108.058510
 20
28.273500
 11
100.439491
 21
20.654421
  0
LINE
  8
0
  6
CONTINUOUS
 10
18.159000
 20
28.273500
 11
25.778030
 21
20.654470
  0
LINE
  8
0
  6
CONTINUOUS
 10
18.159000
 20
90.374001
 11
21.108749
 21
93.323753
  0
ARC
  8
0
  6
CONTINUOUS
 10
103.108749
 20
33.223221
 40
7.000000
 50
-44.999630
 51
0.000000
  0
ARC
  8
0
  6
CONTINUOUS
 10
23.108730
 20
33.223301
 40
7.000000
 50
180.000000
 51
225.000397
  0
ARC
  8
0
  6
CONTINUOUS
 10
23.108768
 20
85.424294
 40
7.000000
 50
135.000305
 51
180.000000
  0
LINE
  8
0
  6
CONTINUOUS
 10
137.108749
 20
76.023750
 11
137.108749
 21
94.023750
  0
LINE
  8
0
  6
CONTINUOUS
 10
107.108749
 20
94.023750
 11
137.108749
 21
94.023750
  0
LINE
  8
0
  6
CONTINUOUS
 10
107.108749
 20
76.023750
 11
137.108749
 21
76.023750
  0
LINE
  8
0
  6
CONTINUOUS
 10
107.108749
 20
95.023750
 11
107.108749
 21
75.023750
  0
LINE
  8
0
  6
CONTINUOUS
 10
105.108749
 20
95.023750
 11
107.108749
 21
95.023750
  0
LINE
  8
0
  6
CONTINUOUS
 10
105.108749
 20
75.023750
 11
107.108749
 21
75.023750
  0
ARC
  8
0
  6
CONTINUOUS
 10
113.108749
 20
85.023750
 40
3.000000
 50
90.000000
 51
270.000000
  0
LINE
  8
0
  6
CONTINUOUS
 10
113.108749
 20
88.023750
 11
137.108749
 21
88.023750
  0
LINE
  8
0
  6
CONTINUOUS
 10
113.108772
 20
82.023750
 11
137.108749
 21
82.023750
  0
LINE
  8
0
  6
CONTINUOUS
 10
389.108765
 20
14.323750
 11
389.108765
 21
104.323753
  0
LINE
  8
0
  6
CENTER
 10
459.498138
 20
59.323750
 11
294.890015
 21
59.323750
  0
LINE
  8
0
  6
CONTINUOUS
 10
215.608749
 20
17.023750
 11
215.608749
 21
10.023750
  0
LINE
  8
0
  6
CONTINUOUS
 10
316.608765
 20
17.023741
 11
316.608765
 21
10.023750
  0
LINE
  8
0
  6
CONTINUOUS
 10
389.108765
 20
14.323750
 11
316.608765
 21
14.323750
  0
LINE
  8
0
  6
CONTINUOUS
 10
389.108765
 20
104.323753
 11
309.766144
 21
104.323753
  0
LINE
  8
0
  6
CENTER
 10
266.108765
 20
133.011246
 11
266.108765
 21
2.118000
  0
LINE
  8
0
  6
CENTER
 10
299.249390
 20
85.023750
 11
229.175629
 21
85.023750
  0
LINE
  8
0
  6
CONTINUOUS
 10
316.608765
 20
10.023750
 11
215.608749
 21
10.023750
  0
LINE
  8
0
  6
CONTINUOUS
 10
281.529846
 20
123.023750
 11
250.687653
 21
123.023750
  0
LINE
  8
0
  6
CONTINUOUS
 10
314.608765
 20
19.023750
 11
217.608749
 21
19.023750
  0
LINE
  8
0
  6
CENTER
 10
228.108749
 20
24.511250
 11
228.108749
 21
3.261250
  0
LINE
  8
0
  6
CENTER
 10
304.108765
 20
24.761250
 11
304.108765
 21
2.761250
  0
LINE
  8
0
  6
CONTINUOUS
 10
217.737350
 20
101.016930
 11
247.816254
 21
122.117043
  0
LINE
  8
0
  6
CONTINUOUS
 10
314.480164
 20
101.016930
 11
284.401245
 21
122.117027
  0
ARC
  8
0
  6
CONTINUOUS
 10
250.687546
 20
118.023743
 40
5.000000
 50
90.000000
 51
125.049103
  0
ARC
  8
0
  6
CONTINUOUS
 10
281.529846
 20
118.023750
 40
5.000000
 50
54.950329
 51
90.000000
  0
ARC
  8
0
  6
CONTINUOUS
 10
311.608765
 20
96.923683
 40
5.000000
 50
0.000000
 51
54.950199
  0
ARC
  8
0
  6
CONTINUOUS
 10
220.608749
 20
96.923630
 40
5.000000
 50
125.049103
 51
180.000000
  0
LINE
  8
0
  6
CONTINUOUS
 10
215.608749
 20
17.023750
 11
215.608749
 21
96.923653
  0
ARC
  8
0
  6
CONTINUOUS
 10
217.608749
 20
17.023741
 40
2.000000
 50
90.000000
 51
180.000000
  0
LINE
  8
0
  6
CONTINUOUS
 10
316.608765
 20
17.023741
 11
316.608765
 21
96.923653
  0
ARC
  8
0
  6
CONTINUOUS
 10
314.608765
 20
17.023750
 40
2.000000
 50
0.000000
 51
90.000000
  0
LINE
  8
0
  6
DASHED
 10
223.858749
 20
19.023750
 11
223.858749
 21
10.023750
  0
LINE
  8
0
  6
DASHED
 10
232.358749
 20
19.023750
 11
232.358749
 21
10.023750
  0
LINE
  8
0
  6
DASHED
 10
299.858765
 20
19.023750
 11
299.858765
 21
10.023750
  0
LINE
  8
0
  6
DASHED
 10
308.358765
 20
19.023750
 11
308.358765
 21
10.023750
  0
CIRCLE
  8
0
  6
CONTINUOUS
 10
266.108765
 20
85.023750
 40
23.500000
  0
CIRCLE
  8
0
  6
CONTINUOUS
 10
266.108765
 20
85.023750
 40
23.500000
  0
LINE
  8
0
  6
CONTINUOUS
 10
259.734741
 20
47.577850
 11
259.734741
 21
42.023750
  0
LINE
  8
0
  6
CONTINUOUS
 10
262.922760
 20
49.595249
 11
262.922760
 21
51.587757
  0
LINE
  8
0
  6
CONTINUOUS
 10
269.298737
 20
49.595249
 11
269.298737
 21
51.587757
  0
LINE
  8
0
  6
CONTINUOUS
 10
265.488037
 20
50.417164
 11
265.488037
 21
43.069809
  0
LINE
  8
0
  6
CONTINUOUS
 10
266.683563
 20
50.417164
 11
266.683563
 21
43.069809
  0
LINE
  8
0
  6
CONTINUOUS
 10
272.959961
 20
50.417164
 11
272.959961
 21
43.020012
  0
LINE
  8
0
  6
CONTINUOUS
 10
274.055847
 20
46.494419
 11
274.055847
 21
43.020012
  0
LINE
  8
0
  6
CONTINUOUS
 10
258.222046
 20
50.317539
 11
255.149551
 21
50.317539
  0
LINE
  8
0
  6
CONTINUOUS
 10
255.149551
 20
50.317539
 11
254.429749
 21
49.424900
  0
LINE
  8
0
  6
CONTINUOUS
 10
254.516251
 20
51.587757
 11
253.358749
 21
50.105534
  0
LINE
  8
0
  6
CONTINUOUS
 10
254.429749
 20
43.914970
 11
255.161148
 21
43.144539
  0
LINE
  8
0
  6
CONTINUOUS
 10
253.358749
 20
43.264790
 11
254.588745
 21
42.023750
  0
LINE
  8
0
  6
CONTINUOUS
 10
253.358749
 20
50.105534
 11
253.358749
 21
43.264790
  0
LINE
  8
0
  6
CONTINUOUS
 10
254.429749
 20
49.424900
 11
254.429749
 21
43.914970
  0
LINE
  8
0
  6
CONTINUOUS
 10
258.813263
 20
49.746006
 11
258.209961
 21
50.317539
  0
LINE
  8
0
  6
CONTINUOUS
 10
258.803650
 20
51.587757
 11
259.734741
 21
50.554447
  0
LINE
  8
0
  6
CONTINUOUS
 10
258.813263
 20
49.595249
 11
259.734741
 21
49.595249
  0
LINE
  8
0
  6
CONTINUOUS
 10
254.516251
 20
51.587757
 11
258.803650
 21
51.587757
  0
LINE
  8
0
  6
CONTINUOUS
 10
258.813263
 20
46.531792
 11
257.144562
 21
46.531792
  0
LINE
  8
0
  6
CONTINUOUS
 10
258.813263
 20
45.535542
 11
258.813263
 21
46.332539
  0
LINE
  8
0
  6
CONTINUOUS
 10
256.820740
 20
43.144539
 11
255.161148
 21
43.144539
  0
ARC
  8
0
  6
CONTINUOUS
 10
256.820740
 20
45.137032
 40
1.992500
 50
-89.999786
 51
0.000109
  0
LINE
  8
0
  6
CONTINUOUS
 10
258.813263
 20
42.786140
 11
258.813263
 21
42.023750
  0
LINE
  8
0
  6
CONTINUOUS
 10
259.734741
 20
50.554447
 11
259.734741
 21
49.595249
  0
LINE
  8
0
  6
CONTINUOUS
 10
258.813263
 20
46.531792
 11
258.813263
 21
45.137032
  0
LINE
  8
0
  6
CONTINUOUS
 10
257.144562
 20
47.577850
 11
257.144562
 21
46.531792
  0
LINE
  8
0
  6
CONTINUOUS
 10
258.813263
 20
42.023750
 11
259.734741
 21
42.023750
  0
LINE
  8
0
  6
CONTINUOUS
 10
258.813263
 20
42.786140
 11
257.904541
 21
42.023750
  0
LINE
  8
0
  6
CONTINUOUS
 10
266.683563
 20
43.069809
 11
267.082062
 21
43.069809
  0
LINE
  8
0
  6
CONTINUOUS
 10
265.014862
 20
43.069809
 11
265.014862
 21
42.023750
  0
LINE
  8
0
  6
CONTINUOUS
 10
267.082062
 20
43.069809
 11
267.082062
 21
42.023750
  0
LINE
  8
0
  6
CONTINUOUS
 10
268.633636
 20
49.595249
 11
269.298737
 21
49.595249
  0
LINE
  8
0
  6
CONTINUOUS
 10
262.922760
 20
49.595249
 11
263.630463
 21
49.595249
  0
LINE
  8
0
  6
CONTINUOUS
 10
262.922760
 20
51.587757
 11
269.298737
 21
51.587757
  0
LINE
  8
0
  6
CONTINUOUS
 10
265.014862
 20
42.023750
 11
267.082062
 21
42.023750
  0
LINE
  8
0
  6
CONTINUOUS
 10
265.014862
 20
43.069809
 11
265.488037
 21
43.069809
  0
ARC
  8
0
  6
CONTINUOUS
 10
276.309845
 20
49.034859
 40
2.552891
 50
-73.981873
 51
90.003510
  0
ARC
  8
0
  6
CONTINUOUS
 10
276.309845
 20
49.034859
 40
1.557438
 50
-82.585274
 51
62.411850
  0
LINE
  8
0
  6
CONTINUOUS
 10
272.486755
 20
51.587757
 11
276.309845
 21
51.587757
  0
LINE
  8
0
  6
CONTINUOUS
 10
272.486755
 20
51.587757
 11
272.486755
 21
50.417164
  0
LINE
  8
0
  6
CONTINUOUS
 10
274.055847
 20
50.417164
 11
274.055847
 21
47.490440
  0
LINE
  8
0
  6
CONTINUOUS
 10
277.014343
 20
46.581089
 11
278.594360
 21
43.020012
  0
LINE
  8
0
  6
CONTINUOUS
 10
276.096558
 20
46.494419
 11
277.591949
 21
43.020012
  0
LINE
  8
0
  6
CONTINUOUS
 10
272.486755
 20
43.020012
 11
272.959961
 21
43.020012
  0
LINE
  8
0
  6
CONTINUOUS
 10
274.055847
 20
43.020012
 11
274.491638
 21
43.020012
  0
LINE
  8
0
  6
CONTINUOUS
 10
274.491638
 20
42.023750
 11
272.486755
 21
42.023750
  0
LINE
  8
0
  6
CONTINUOUS
 10
277.393250
 20
43.020012
 11
277.591949
 21
43.020012
  0
LINE
  8
0
  6
CONTINUOUS
 10
278.594360
 20
43.020012
 11
278.862762
 21
43.020012
  0
LINE
  8
0
  6
CONTINUOUS
 10
277.393250
 20
42.023750
 11
278.862762
 21
42.023750
  0
LINE
  8
0
  6
CONTINUOUS
 10
278.862762
 20
43.020012
 11
278.862762
 21
42.023750
  0
LINE
  8
0
  6
CONTINUOUS
 10
277.393250
 20
43.020012
 11
277.393250
 21
42.023750
  0
LINE
  8
0
  6
CONTINUOUS
 10
274.491638
 20
43.020012
 11
274.491638
 21
42.023750
  0
LINE
  8
0
  6
CONTINUOUS
 10
272.486755
 20
43.020012
 11
272.486755
 21
42.023750
  0
LINE
  8
0
  6
CONTINUOUS
 10
263.972961
 20
50.417164
 11
263.630463
 21
49.595249
  0
LINE
  8
0
  6
CONTINUOUS
 10
268.344849
 20
50.417164
 11
268.633636
 21
49.595249
  0
LINE
  8
0
  6
CONTINUOUS
 10
266.683563
 20
50.417164
 11
268.344849
 21
50.417164
  0
LINE
  8
0
  6
CONTINUOUS
 10
265.488037
 20
50.417164
 11
263.972961
 21
50.417164
  0
LINE
  8
0
  6
CONTINUOUS
 10
272.486755
 20
50.417164
 11
272.959961
 21
50.417164
  0
LINE
  8
0
  6
CONTINUOUS
 10
274.055847
 20
50.417164
 11
277.031158
 21
50.415226
  0
LINE
  8
0
  6
CONTINUOUS
 10
258.813263
 20
49.746006
 11
258.813263
 21
49.595249
  0
LINE
  8
0
  6
CONTINUOUS
 10
254.588745
 20
42.023750
 11
257.904541
 21
42.023750
  0
LINE
  8
0
  6
CONTINUOUS
 10
274.055847
 20
47.490440
 11
276.510864
 21
47.490440
  0
LINE
  8
0
  6
CONTINUOUS
 10
274.055847
 20
46.494419
 11
276.096558
 21
46.494419
  0
LINE
  8
0
  6
CONTINUOUS
 10
257.144562
 20
47.577850
 11
259.734741
 21
47.577850
  0
LINE
  8
0
  6
CONTINUOUS
 10
318.526642
 20
93.733047
 11
389.108765
 21
93.733047
  0
LINE
  8
0
  6
CONTINUOUS
 10
318.526642
 20
24.914450
 11
389.108765
 21
24.914450
  0
LINE
  8
0
  6
CONTINUOUS
 10
398.608765
 20
104.323753
 11
389.108765
 21
104.323753
  0
LINE
  8
0
  6
CONTINUOUS
 10
389.108765
 20
93.733047
 11
398.608765
 21
93.733047
  0
LINE
  8
0
  6
CONTINUOUS
 10
398.608765
 20
14.323750
 11
389.108765
 21
14.323750
  0
LINE
  8
0
  6
CONTINUOUS
 10
389.108765
 20
24.914450
 11
398.608765
 21
24.914450
  0
LINE
  8
0
  6
CONTINUOUS
 10
398.608765
 20
106.323753
 11
398.608765
 21
12.323750
  0
LINE
  8
0
  6
CONTINUOUS
 10
398.608765
 20
88.323753
 11
442.583740
 21
88.323753
  0
LINE
  8
0
  6
CONTINUOUS
 10
398.608765
 20
30.323750
 11
442.583740
 21
30.323750
  0
LINE
  8
0
  6
CONTINUOUS
 10
441.108765
 20
106.323753
 11
398.608765
 21
106.323753
  0
LINE
  8
0
  6
CONTINUOUS
 10
441.108765
 20
12.323750
 11
398.608765
 21
12.323750
  0
ARC
  8
0
  6
CONTINUOUS
 10
441.108765
 20
101.323776
 40
5.000000
 50
0.000000
 51
90.000000
  0
ARC
  8
0
  6
CONTINUOUS
 10
441.108765
 20
17.323750
 40
5.000000
 50
-90.000000
 51
0.000000
  0
LINE
  8
0
  6
CONTINUOUS
 10
446.108765
 20
101.323761
 11
446.108765
 21
17.323740
  0
LINE
  8
0
  6
CONTINUOUS
 10
260.608765
 20
88.023750
 11
260.608765
 21
82.023750
  0
LINE
  8
0
  6
CONTINUOUS
 10
254.608749
 20
88.023750
 11
254.608749
 21
82.023750
  0
LINE
  8
0
  6
CONTINUOUS
 10
254.608749
 20
88.023750
 11
260.608765
 21
88.023750
  0
LINE
  8
0
  6
CONTINUOUS
 10
254.608749
 20
82.023750
 11
260.608765
 21
82.023750
  0
ARC
  8
0
  6
CONTINUOUS
 10
266.108765
 20
85.023750
 40
9.000000
 50
-160.528793
 51
160.528793
  0
LINE
  8
0
  6
CENTER
 10
266.108765
 20
177.950623
 11
266.108765
 21
325.804993
  0
LINE
  8
0
  6
CENTER
 10
228.108749
 20
199.602493
 11
228.108749
 21
220.932495
  0
LINE
  8
0
  6
CENTER
 10
458.095001
 20
258.828125
 11
201.967499
 21
258.828125
  0
LINE
  8
0
  6
CONTINUOUS
 10
216.449646
 20
210.653595
 11
215.608749
 21
258.828125
  0
LINE
  8
0
  6
CONTINUOUS
 10
226.448120
 20
200.828125
 11
254.608749
 21
200.828125
  0
LINE
  8
0
  6
CONTINUOUS
 10
314.608765
 20
221.828125
 11
218.219986
 21
221.828125
  0
ARC
  8
0
  6
CONTINUOUS
 10
226.448120
 20
210.828125
 40
10.000000
 50
-179.000000
 51
-90.000000
  0
ARC
  8
0
  6
CONTINUOUS
 10
218.219986
 20
223.828125
 40
2.000000
 50
-179.000000
 51
-90.000000
  0
LINE
  8
0
  6
CENTER
 10
239.600937
 20
210.828125
 11
218.468445
 21
210.828125
  0
CIRCLE
  8
0
  6
CONTINUOUS
 10
228.108749
 20
210.828125
 40
4.250000
  0
LINE
  8
0
  6
CENTER
 10
304.108765
 20
199.404999
 11
304.108765
 21
220.735001
  0
LINE
  8
0
  6
CONTINUOUS
 10
315.767853
 20
210.653595
 11
315.953827
 21
221.308243
  0
ARC
  8
0
  6
CONTINUOUS
 10
305.769379
 20
210.828125
 40
10.000000
 50
-90.000000
 51
-1.000000
  0
ARC
  8
0
  6
CONTINUOUS
 10
313.997528
 20
223.828125
 40
2.000000
 50
-90.000000
 51
-1.000000
  0
LINE
  8
0
  6
CENTER
 10
293.419678
 20
210.828125
 11
314.058441
 21
210.828125
  0
CIRCLE
  8
0
  6
CONTINUOUS
 10
304.108765
 20
210.828125
 40
4.250000
  0
LINE
  8
0
  6
CONTINUOUS
 10
316.608765
 20
219.828125
 11
316.608765
 21
215.828125
  0
LINE
  8
0
  6
CONTINUOUS
 10
318.608765
 20
213.828125
 11
389.108765
 21
213.828125
  0
ARC
  8
0
  6
CONTINUOUS
 10
318.608765
 20
215.828125
 40
2.000000
 50
-180.000000
 51
-90.000000
  0
ARC
  8
0
  6
CONTINUOUS
 10
314.608765
 20
219.828125
 40
2.000000
 50
0.000000
 51
90.000000
  0
LINE
  8
0
  6
CONTINUOUS
 10
315.997223
 20
223.793213
 11
316.102539
 21
229.828125
  0
LINE
  8
0
  6
CONTINUOUS
 10
389.108765
 20
229.828125
 11
309.766205
 21
229.828125
  0
LINE
  8
0
  6
CONTINUOUS
 10
389.108765
 20
287.828125
 11
309.766205
 21
287.828125
  0
LINE
  8
0
  6
CONTINUOUS
 10
318.608765
 20
303.828125
 11
389.108765
 21
303.828125
  0
ARC
  8
0
  6
CONTINUOUS
 10
318.608765
 20
301.828125
 40
2.000000
 50
-270.000000
 51
-180.000000
  0
LINE
  8
0
  6
CENTER
 10
228.108749
 20
320.670013
 11
228.108749
 21
296.575012
  0
LINE
  8
0
  6
CONTINUOUS
 10
216.449646
 20
307.002655
 11
215.608749
 21
258.828125
  0
LINE
  8
0
  6
CONTINUOUS
 10
226.448120
 20
316.828125
 11
266.108765
 21
316.828125
  0
LINE
  8
0
  6
CONTINUOUS
 10
314.608765
 20
295.828125
 11
218.219986
 21
295.828125
  0
ARC
  8
0
  6
CONTINUOUS
 10
226.448120
 20
306.828125
 40
10.000000
 50
-270.000000
 51
-181.000000
  0
ARC
  8
0
  6
CONTINUOUS
 10
218.219986
 20
293.828125
 40
2.000000
 50
-270.000000
 51
-181.000000
  0
LINE
  8
0
  6
CENTER
 10
238.613434
 20
306.828125
 11
218.073441
 21
306.828125
  0
CIRCLE
  8
0
  6
CONTINUOUS
 10
228.108749
 20
306.828125
 40
4.250000
  0
LINE
  8
0
  6
CENTER
 10
304.108765
 20
321.065002
 11
304.108765
 21
296.377502
  0
LINE
  8
0
  6
CONTINUOUS
 10
315.767853
 20
307.002655
 11
315.953827
 21
296.348022
  0
ARC
  8
0
  6
CONTINUOUS
 10
305.769379
 20
306.828125
 40
10.000000
 50
-359.000000
 51
-270.000000
  0
ARC
  8
0
  6
CONTINUOUS
 10
313.997528
 20
293.828125
 40
2.000000
 50
-359.000000
 51
-270.000000
  0
LINE
  8
0
  6
CENTER
 10
294.703430
 20
306.828125
 11
314.255951
 21
306.828125
  0
CIRCLE
  8
0
  6
CONTINUOUS
 10
304.108765
 20
306.828125
 40
4.250000
  0
LINE
  8
0
  6
CONTINUOUS
 10
316.608765
 20
297.828125
 11
316.608765
 21
301.828125
  0
ARC
  8
0
  6
CONTINUOUS
 10
314.608765
 20
297.828125
 40
2.000000
 50
-90.000000
 51
0.000000
  0
LINE
  8
0
  6
CONTINUOUS
 10
315.997223
 20
293.863037
 11
316.102539
 21
287.828125
  0
LINE
  8
0
  6
CONTINUOUS
 10
283.108765
 20
226.828125
 11
283.108765
 21
290.828125
  0
LINE
  8
0
  6
CONTINUOUS
 10
249.108749
 20
226.828125
 11
249.108749
 21
290.828125
  0
LINE
  8
0
  6
CONTINUOUS
 10
309.766205
 20
231.828125
 11
309.766205
 21
285.828125
  0
LINE
  8
0
  6
CONTINUOUS
 10
243.608749
 20
216.828125
 11
288.608765
 21
216.828125
  0
LINE
  8
0
  6
CONTINUOUS
 10
289.608765
 20
217.828125
 11
289.608765
 21
219.828125
  0
LINE
  8
0
  6
CONTINUOUS
 10
242.608749
 20
217.828125
 11
242.608749
 21
219.828125
  0
ARC
  8
0
  6
CONTINUOUS
 10
291.608765
 20
219.828125
 40
2.000000
 50
-270.000000
 51
-180.000000
  0
ARC
  8
0
  6
CONTINUOUS
 10
240.608749
 20
219.828125
 40
2.000000
 50
0.000000
 51
90.000000
  0
ARC
  8
0
  6
CONTINUOUS
 10
288.608734
 20
217.828125
 40
1.000000
 50
-90.000000
 51
0.000000
  0
ARC
  8
0
  6
CONTINUOUS
 10
243.608749
 20
217.828125
 40
1.000000
 50
-180.000000
 51
-90.000000
  0
LINE
  8
0
  6
CONTINUOUS
 10
254.608749
 20
184.828125
 11
275.108765
 21
184.828125
  0
LINE
  8
0
  6
CONTINUOUS
 10
275.108765
 20
214.828125
 11
275.108765
 21
184.828125
  0
LINE
  8
0
  6
CONTINUOUS
 10
257.108765
 20
214.828125
 11
257.108765
 21
211.828125
  0
LINE
  8
0
  6
CONTINUOUS
 10
276.108765
 20
214.828125
 11
256.108765
 21
214.828125
  0
LINE
  8
0
  6
CONTINUOUS
 10
276.108765
 20
216.828125
 11
276.108765
 21
214.828125
  0
LINE
  8
0
  6
CONTINUOUS
 10
256.108765
 20
216.828125
 11
256.108765
 21
214.828125
  0
LINE
  8
0
  6
CONTINUOUS
 10
254.608749
 20
184.828125
 11
254.608749
 21
211.828125
  0
LINE
  8
0
  6
CONTINUOUS
 10
254.608749
 20
211.828125
 11
257.623749
 21
211.828125
  0
LINE
  8
0
  6
CONTINUOUS
 10
257.623749
 20
184.828125
 11
257.623749
 21
211.828125
  0
LINE
  8
0
  6
CONTINUOUS
 10
275.108765
 20
200.828125
 11
305.769379
 21
200.828125
  0
LINE
  8
0
  6
CONTINUOUS
 10
243.608749
 20
300.828125
 11
288.608765
 21
300.828125
  0
LINE
  8
0
  6
CONTINUOUS
 10
289.608765
 20
299.828125
 11
289.608765
 21
297.828125
  0
LINE
  8
0
  6
CONTINUOUS
 10
242.608749
 20
299.828125
 11
242.608749
 21
297.828125
  0
ARC
  8
0
  6
CONTINUOUS
 10
291.608765
 20
297.828125
 40
2.000000
 50
-180.000000
 51
-90.000000
  0
ARC
  8
0
  6
CONTINUOUS
 10
240.608749
 20
297.828125
 40
2.000000
 50
-90.000000
 51
0.000000
  0
ARC
  8
0
  6
CONTINUOUS
 10
288.608734
 20
299.828125
 40
1.000000
 50
0.000000
 51
90.000000
  0
ARC
  8
0
  6
CONTINUOUS
 10
243.608749
 20
299.828125
 40
1.000000
 50
-270.000000
 51
-180.000000
  0
LINE
  8
0
  6
CONTINUOUS
 10
266.108765
 20
316.828125
 11
305.769379
 21
316.828125
  0
LINE
  8
0
  6
CONTINUOUS
 10
398.608765
 20
213.828125
 11
389.108765
 21
213.828125
  0
LINE
  8
0
  6
CONTINUOUS
 10
389.108765
 20
229.828125
 11
398.608765
 21
229.828125
  0
LINE
  8
0
  6
CONTINUOUS
 10
398.608765
 20
303.828125
 11
389.108765
 21
303.828125
  0
LINE
  8
0
  6
CONTINUOUS
 10
389.108765
 20
303.828125
 11
389.108765
 21
283.828156
  0
LINE
  8
0
  6
CONTINUOUS
 10
389.108765
 20
287.828125
 11
398.608765
 21
287.828125
  0
LINE
  8
0
  6
CONTINUOUS
 10
389.108765
 20
233.828140
 11
389.108765
 21
213.828125
  0
LINE
  8
0
  6
CONTINUOUS
 10
398.608765
 20
211.828125
 11
398.608765
 21
251.328140
  0
LINE
  8
0
  6
CONTINUOUS
 10
398.608765
 20
229.828125
 11
442.583771
 21
229.828125
  0
LINE
  8
0
  6
CONTINUOUS
 10
398.608765
 20
287.828125
 11
442.583771
 21
287.828125
  0
LINE
  8
0
  6
CONTINUOUS
 10
441.108765
 20
211.828125
 11
398.608765
 21
211.828125
  0
LINE
  8
0
  6
CONTINUOUS
 10
441.108765
 20
305.828125
 11
398.608765
 21
305.828125
  0
ARC
  8
0
  6
CONTINUOUS
 10
441.108734
 20
216.828125
 40
5.000000
 50
-90.000000
 51
0.000000
  0
ARC
  8
0
  6
CONTINUOUS
 10
441.108765
 20
300.828125
 40
5.000000
 50
0.000000
 51
90.000000
  0
LINE
  8
0
  6
CONTINUOUS
 10
446.108734
 20
216.828125
 11
446.108765
 21
300.828125
  0
LINE
  8
0
  6
CONTINUOUS
 10
396.608765
 20
105.823753
 11
350.108765
 21
105.823753
  0
LINE
  8
0
  6
CONTINUOUS
 10
348.108765
 20
135.823746
 11
348.108765
 21
107.823753
  0
LINE
  8
0
  6
CONTINUOUS
 10
398.108765
 20
135.823746
 11
398.108765
 21
107.823753
  0
LINE
  8
0
  6
CONTINUOUS
 10
400.108765
 20
117.823753
 11
348.108765
 21
117.823753
  0
LINE
  8
0
  6
CONTINUOUS
 10
350.108765
 20
105.823753
 11
348.108765
 21
107.823753
  0
LINE
  8
0
  6
CONTINUOUS
 10
398.108765
 20
107.823753
 11
396.108765
 21
105.823753
  0
LINE
  8
0
  6
CONTINUOUS
 10
398.108765
 20
107.823753
 11
348.108765
 21
107.823753
  0
LINE
  8
0
  6
CONTINUOUS
 10
397.108765
 20
136.823746
 11
349.108765
 21
136.823746
  0
LINE
  8
0
  6
CONTINUOUS
 10
349.108765
 20
136.823746
 11
348.108765
 21
135.823746
  0
LINE
  8
0
  6
CONTINUOUS
 10
397.108765
 20
136.823746
 11
398.108765
 21
135.823746
  0
LINE
  8
0
  6
CONTINUOUS
 10
398.108765
 20
135.823746
 11
348.108765
 21
135.823746
  0
LINE
  8
0
  6
CONTINUOUS
 10
400.108734
 20
133.823746
 11
400.108765
 21
117.823753
  0
LINE
  8
0
  6
CONTINUOUS
 10
399.108765
 20
134.823746
 11
398.108765
 21
134.823746
  0
ARC
  8
0
  6
CONTINUOUS
 10
399.108734
 20
133.823746
 40
1.000000
 50
0.000000
 51
90.000000
  0
LINE
  8
0
  6
CONTINUOUS
 10
403.608734
 20
131.323746
 11
403.608734
 21
123.323753
  0
LINE
  8
0
  6
CONTINUOUS
 10
403.608734
 20
131.323746
 11
400.108734
 21
132.823746
  0
LINE
  8
0
  6
CONTINUOUS
 10
403.608765
 20
123.323753
 11
400.108765
 21
121.823753
  0
LINE
  8
0
  6
CENTER
 10
373.108765
 20
101.129997
 11
373.108765
 21
142.211243
  0
LINE
  8
0
  6
CONTINUOUS
 10
396.608765
 20
105.823753
 11
396.608765
 21
104.323753
  0
LINE
  8
0
  6
CONTINUOUS
 10
350.608765
 20
105.823753
 11
350.608765
 21
104.323753
  0
LINE
  8
0
  6
CENTER
 10
406.052490
 20
127.323753
 11
393.977509
 21
127.323753
  0
LINE
  8
0
  6
CONTINUOUS
 10
399.108765
 20
251.328140
 11
398.108765
 21
251.328140
  0
ARC
  8
0
  6
CONTINUOUS
 10
399.108734
 20
252.328140
 40
1.000000
 50
-90.000000
 51
0.000000
  0
LINE
  8
0
  6
CONTINUOUS
 10
403.608734
 20
254.828140
 11
403.608734
 21
262.828156
  0
LINE
  8
0
  6
CONTINUOUS
 10
403.608734
 20
254.828140
 11
400.108734
 21
253.328140
  0
LINE
  8
0
  6
CONTINUOUS
 10
403.608765
 20
262.828156
 11
400.108765
 21
264.328156
  0
LINE
  8
0
  6
CONTINUOUS
 10
400.108734
 20
252.328140
 11
400.108734
 21
265.328156
  0
LINE
  8
0
  6
CONTINUOUS
 10
399.108765
 20
266.328156
 11
398.108765
 21
266.328156
  0
ARC
  8
0
  6
CONTINUOUS
 10
399.108734
 20
265.328156
 40
1.000000
 50
0.000000
 51
90.000000
  0
LINE
  8
0
  6
CONTINUOUS
 10
398.108765
 20
281.828156
 11
398.108765
 21
235.828140
  0
LINE
  8
0
  6
CONTINUOUS
 10
396.108765
 20
233.828140
 11
398.108765
 21
235.828140
  0
LINE
  8
0
  6
CONTINUOUS
 10
396.108765
 20
233.828140
 11
350.108765
 21
233.828140
  0
LINE
  8
0
  6
CONTINUOUS
 10
355.608765
 20
238.328140
 11
355.608765
 21
233.828140
  0
ARC
  8
0
  6
CONTINUOUS
 10
352.608765
 20
238.328140
 40
3.000000
 50
0.000000
 51
90.000000
  0
LINE
  8
0
  6
CONTINUOUS
 10
352.608765
 20
241.328140
 11
348.108765
 21
241.328140
  0
CIRCLE
  8
0
  6
CONTINUOUS
 10
351.608765
 20
237.328140
 40
2.250000
  0
LINE
  8
0
  6
CONTINUOUS
 10
348.108765
 20
281.828156
 11
348.108765
 21
235.828140
  0
LINE
  8
0
  6
CONTINUOUS
 10
350.108765
 20
233.828140
 11
348.108765
 21
235.828140
  0
LINE
  8
0
  6
CONTINUOUS
 10
350.108765
 20
283.828156
 11
348.108765
 21
281.828156
  0
LINE
  8
0
  6
CONTINUOUS
 10
350.108765
 20
283.828156
 11
396.108765
 21
283.828156
  0
LINE
  8
0
  6
CONTINUOUS
 10
398.108765
 20
281.828156
 11
396.108765
 21
283.828156
  0
LINE
  8
0
  6
CONTINUOUS
 10
393.608765
 20
276.328156
 11
398.108734
 21
276.328156
  0
CIRCLE
  8
0
  6
CONTINUOUS
 10
394.608765
 20
280.328156
 40
2.250000
  0
ARC
  8
0
  6
CONTINUOUS
 10
393.608765
 20
279.328156
 40
3.000000
 50
180.000000
 51
270.000000
  0
LINE
  8
0
  6
CONTINUOUS
 10
390.608765
 20
279.328156
 11
390.608765
 21
283.828156
  0
LINE
  8
0
  6
CENTER
 10
373.108765
 20
291.293915
 11
373.108765
 21
227.161896
  0
LINE
  8
0
  6
CONTINUOUS
 10
395.694519
 20
234.828125
 11
397.108734
 21
236.242340
  0
LINE
  8
0
  6
CONTINUOUS
 10
397.108734
 20
276.328125
 11
397.108734
 21
236.242340
  0
LINE
  8
0
  6
CONTINUOUS
 10
355.608765
 20
234.828125
 11
395.694519
 21
234.828125
  0
LINE
  8
0
  6
CONTINUOUS
 10
349.108765
 20
241.328125
 11
349.108765
 21
281.413910
  0
LINE
  8
0
  6
CONTINUOUS
 10
390.608765
 20
282.828125
 11
350.522980
 21
282.828125
  0
LINE
  8
0
  6
CONTINUOUS
 10
350.522980
 20
282.828125
 11
349.108765
 21
281.413910
  0
LINE
  8
0
  6
CONTINUOUS
 10
88.108742
 20
135.823746
 11
88.108749
 21
122.587379
  0
LINE
  8
0
  6
CONTINUOUS
 10
38.108749
 20
135.823746
 11
38.108749
 21
122.587273
  0
LINE
  8
0
  6
CONTINUOUS
 10
39.108749
 20
136.823746
 11
87.108742
 21
136.823746
  0
LINE
  8
0
  6
CONTINUOUS
 10
87.108742
 20
136.823746
 11
88.108742
 21
135.823746
  0
LINE
  8
0
  6
CONTINUOUS
 10
39.108749
 20
136.823746
 11
38.108749
 21
135.823746
  0
LINE
  8
0
  6
CONTINUOUS
 10
38.108749
 20
135.823746
 11
88.108742
 21
135.823746
  0
LINE
  8
0
  6
CONTINUOUS
 10
398.608765
 20
266.328156
 11
398.608765
 21
305.828125
  0
TEXT
  8
0
 10
-24.000000
 20
2.000000
 40
4.000000
 41
1.000000
  1
HLM-18L-10~240-S90T
 50
0.000000
  0
ENDSEC
  0
EOF
