  0
SECTION
  2
HEADER
  9
$CLAYER
  8
1
  9
$LTSCALE
 40
3.0
  0
ENDSEC
  0
SECTION
  2
TABLES
  0
TABLE
  2
LTYPE
 70
     4
  0
LTYPE
  2
CONTINUOUS
  3
solid line
 70
    64
 72
    65
 73
     0
 40
0.0
  0
LTYPE
  2
DASHED
  3
__ __ __ __ __ __ __ __ __ __ __ __ __ __ __
 70
    64
 72
    65
 73
     2
 40
0.75
 49
0.5
 49
-0.25
  0
LTYPE
  2
CENTER
  3
____ _ ____ _ ____ _ ____ _ ____ _ ____ _ ____
 70
    64
 72
    65
 73
     4
 40
2.0
 49
1.25
 49
-0.25
 49
0.25
 49
-0.25
  0
LTYPE
  2
PHANTOM
  3
_____ _ _ _____ _ _ _____ _ _ _____ _ _ ____
 70
    64
 72
    65
 73
     6
 40
2.5
 49
1.25
 49
-0.25
 49
0.25
 49
-0.25
 49
0.25
 49
-0.25
  0
ENDTAB
  0
TABLE
  2
LAYER
 70
     1
  0
LAYER
  2
0
 70
    64
 62
     7
  6
CONTINUOUS
  0
ENDTAB
  0
TABLE
  2
STYLE
 70
     1
  0
STYLE
  2
STANDARD
 70
     0
 40
0.000000
 41
1.000000
 50
0.000000
 71
     0
 42
3.000000
  3
txt
  4
BIGFONT
  0
ENDTAB
  0
ENDSEC
  0
SECTION
  2
BLOCKS
  0
ENDSEC
  0
SECTION
  2
ENTITIES
  0
LINE
  8
0
  6
CENTER
 10
60.770000
 20
2.666760
 11
60.770000
 21
147.614380
  0
LINE
  8
0
  6
CENTER
 10
9.226779
 20
59.872501
 11
112.769997
 21
59.872501
  0
LINE
  8
0
  6
CONTINUOUS
 10
118.769997
 20
17.572500
 11
118.769997
 21
10.572500
  0
LINE
  8
0
  6
CONTINUOUS
 10
2.770000
 20
17.572500
 11
2.770000
 21
10.572500
  0
LINE
  8
0
  6
CONTINUOUS
 10
2.770000
 20
10.572500
 11
118.769997
 21
10.572500
  0
LINE
  8
0
  6
CONTINUOUS
 10
100.769997
 20
19.572500
 11
116.769997
 21
19.572500
  0
LINE
  8
0
  6
CONTINUOUS
 10
23.770012
 20
22.572500
 11
23.770000
 21
120.961128
  0
LINE
  8
0
  6
CONTINUOUS
 10
97.769981
 20
22.572500
 11
97.769997
 21
120.961258
  0
LINE
  8
0
  6
CONTINUOUS
 10
102.769997
 20
63.072498
 11
102.769997
 21
108.072502
  0
LINE
  8
0
  6
CONTINUOUS
 10
101.769997
 20
109.072502
 11
99.770020
 21
109.072502
  0
LINE
  8
0
  6
CONTINUOUS
 10
101.769997
 20
62.072498
 11
99.770020
 21
62.072498
  0
LINE
  8
0
  6
CONTINUOUS
 10
60.770000
 20
123.572502
 11
95.804901
 21
122.960968
  0
LINE
  8
0
  6
CONTINUOUS
 10
25.735092
 20
122.960831
 11
60.770000
 21
123.572502
  0
ARC
  8
0
  6
CONTINUOUS
 10
99.769997
 20
111.072502
 40
2.000000
 50
180.000000
 51
270.000000
  0
ARC
  8
0
  6
CONTINUOUS
 10
95.770020
 20
120.961258
 40
2.000000
 50
0.000000
 51
89.000137
  0
ARC
  8
0
  6
CONTINUOUS
 10
25.770010
 20
120.961143
 40
2.000000
 50
91.000641
 51
180.000000
  0
ARC
  8
0
  6
CONTINUOUS
 10
99.770020
 20
60.072506
 40
2.000000
 50
90.000000
 51
180.000000
  0
ARC
  8
0
  6
CONTINUOUS
 10
101.769997
 20
108.072487
 40
1.000000
 50
0.000000
 51
90.000000
  0
ARC
  8
0
  6
CONTINUOUS
 10
101.769997
 20
63.072495
 40
1.000000
 50
-90.000000
 51
0.000000
  0
LINE
  8
0
  6
CONTINUOUS
 10
25.844151
 20
100.072502
 11
96.004623
 21
100.072502
  0
ARC
  8
0
  6
CONTINUOUS
 10
116.769997
 20
17.572491
 40
2.000000
 50
0.000000
 51
90.000000
  0
ARC
  8
0
  6
CONTINUOUS
 10
4.770010
 20
17.572510
 40
2.000000
 50
90.000000
 51
180.000000
  0
LINE
  8
0
  6
CENTER
 10
108.769997
 20
23.528749
 11
108.769997
 21
6.278750
  0
LINE
  8
0
  6
CENTER
 10
12.770000
 20
23.528749
 11
12.770000
 21
5.528750
  0
LINE
  8
0
  6
DASHED
 10
17.020000
 20
19.572500
 11
17.020000
 21
10.572500
  0
LINE
  8
0
  6
DASHED
 10
8.520000
 20
19.572500
 11
8.520000
 21
10.572500
  0
LINE
  8
0
  6
DASHED
 10
113.019997
 20
19.572500
 11
113.019997
 21
10.572500
  0
LINE
  8
0
  6
DASHED
 10
104.519997
 20
19.572500
 11
104.519997
 21
10.572500
  0
ARC
  8
0
  6
CONTINUOUS
 10
60.770000
 20
59.872501
 40
45.000000
 50
158.960526
 51
214.692093
  0
ARC
  8
0
  6
CONTINUOUS
 10
60.770000
 20
59.872501
 40
45.000000
 50
-34.692108
 51
20.437799
  0
LINE
  8
0
  6
CONTINUOUS
 10
18.770000
 20
63.072498
 11
18.770000
 21
108.072502
  0
LINE
  8
0
  6
CONTINUOUS
 10
19.770000
 20
109.072502
 11
21.769989
 21
109.072502
  0
LINE
  8
0
  6
CONTINUOUS
 10
19.770000
 20
62.072498
 11
21.769989
 21
62.072498
  0
ARC
  8
0
  6
CONTINUOUS
 10
21.770000
 20
111.072502
 40
2.000000
 50
-90.000000
 51
0.000000
  0
ARC
  8
0
  6
CONTINUOUS
 10
21.769989
 20
60.072506
 40
2.000000
 50
0.000000
 51
90.000000
  0
ARC
  8
0
  6
CONTINUOUS
 10
19.770000
 20
108.072487
 40
1.000000
 50
90.000000
 51
180.000000
  0
ARC
  8
0
  6
CONTINUOUS
 10
19.770000
 20
63.072495
 40
1.000000
 50
180.000000
 51
270.000000
  0
LINE
  8
0
  6
CENTER
 10
13.770061
 20
85.572502
 11
146.520004
 21
85.572502
  0
LINE
  8
0
  6
CONTINUOUS
 10
20.770012
 20
19.572500
 11
4.770000
 21
19.572500
  0
ARC
  8
0
  6
CONTINUOUS
 10
20.770000
 20
22.572500
 40
3.000000
 50
-90.000000
 51
0.000000
  0
ARC
  8
0
  6
CONTINUOUS
 10
100.769997
 20
22.572500
 40
3.000000
 50
180.000000
 51
270.000000
  0
LINE
  8
0
  6
CONTINUOUS
 10
378.769989
 20
14.872500
 11
378.769989
 21
104.872498
  0
LINE
  8
0
  6
CENTER
 10
407.999695
 20
59.872501
 11
278.834686
 21
59.872501
  0
LINE
  8
0
  6
CONTINUOUS
 10
205.270004
 20
17.572500
 11
205.270004
 21
10.572500
  0
LINE
  8
0
  6
CONTINUOUS
 10
306.269989
 20
17.572491
 11
306.269989
 21
10.572500
  0
LINE
  8
0
  6
CONTINUOUS
 10
378.769989
 20
14.872500
 11
306.269989
 21
14.872500
  0
LINE
  8
0
  6
CONTINUOUS
 10
378.769989
 20
104.872498
 11
299.427399
 21
104.872498
  0
LINE
  8
0
  6
CENTER
 10
255.770004
 20
133.559998
 11
255.770004
 21
2.666750
  0
LINE
  8
0
  6
CENTER
 10
290.346558
 20
85.572502
 11
220.374695
 21
85.572502
  0
LINE
  8
0
  6
CONTINUOUS
 10
306.269989
 20
10.572500
 11
205.270004
 21
10.572500
  0
LINE
  8
0
  6
CONTINUOUS
 10
271.191101
 20
123.572502
 11
240.348907
 21
123.572502
  0
LINE
  8
0
  6
CONTINUOUS
 10
304.269989
 20
19.572500
 11
207.270004
 21
19.572500
  0
LINE
  8
0
  6
CENTER
 10
217.770004
 20
25.059999
 11
217.770004
 21
3.810000
  0
LINE
  8
0
  6
CENTER
 10
293.769989
 20
25.309999
 11
293.769989
 21
3.310000
  0
LINE
  8
0
  6
CONTINUOUS
 10
207.398605
 20
101.565681
 11
237.477493
 21
122.665787
  0
LINE
  8
0
  6
CONTINUOUS
 10
304.141388
 20
101.565681
 11
274.062500
 21
122.665779
  0
ARC
  8
0
  6
CONTINUOUS
 10
240.348801
 20
118.572487
 40
5.000000
 50
90.000000
 51
125.049103
  0
ARC
  8
0
  6
CONTINUOUS
 10
271.191101
 20
118.572502
 40
5.000000
 50
54.950329
 51
90.000000
  0
ARC
  8
0
  6
CONTINUOUS
 10
301.269989
 20
97.472427
 40
5.000000
 50
0.000000
 51
54.950199
  0
ARC
  8
0
  6
CONTINUOUS
 10
210.270004
 20
97.472382
 40
5.000000
 50
125.049103
 51
180.000000
  0
LINE
  8
0
  6
CONTINUOUS
 10
205.270004
 20
17.572500
 11
205.270004
 21
97.472397
  0
ARC
  8
0
  6
CONTINUOUS
 10
207.270004
 20
17.572491
 40
2.000000
 50
90.000000
 51
180.000000
  0
LINE
  8
0
  6
CONTINUOUS
 10
306.269989
 20
17.572491
 11
306.269989
 21
97.472397
  0
ARC
  8
0
  6
CONTINUOUS
 10
304.269989
 20
17.572500
 40
2.000000
 50
0.000000
 51
90.000000
  0
LINE
  8
0
  6
DASHED
 10
213.520004
 20
19.572500
 11
213.520004
 21
10.572500
  0
LINE
  8
0
  6
DASHED
 10
222.020004
 20
19.572500
 11
222.020004
 21
10.572500
  0
LINE
  8
0
  6
DASHED
 10
289.519989
 20
19.572500
 11
289.519989
 21
10.572500
  0
LINE
  8
0
  6
DASHED
 10
298.019989
 20
19.572500
 11
298.019989
 21
10.572500
  0
CIRCLE
  8
0
  6
CONTINUOUS
 10
255.770004
 20
85.572502
 40
23.500000
  0
CIRCLE
  8
0
  6
CONTINUOUS
 10
255.770004
 20
85.572502
 40
23.500000
  0
LINE
  8
0
  6
CONTINUOUS
 10
249.395996
 20
48.126598
 11
249.395996
 21
42.572498
  0
LINE
  8
0
  6
CONTINUOUS
 10
252.584000
 20
50.144001
 11
252.584000
 21
52.136509
  0
LINE
  8
0
  6
CONTINUOUS
 10
258.959991
 20
50.144001
 11
258.959991
 21
52.136509
  0
LINE
  8
0
  6
CONTINUOUS
 10
255.149307
 20
50.965916
 11
255.149307
 21
43.618561
  0
LINE
  8
0
  6
CONTINUOUS
 10
256.344788
 20
50.965916
 11
256.344788
 21
43.618561
  0
LINE
  8
0
  6
CONTINUOUS
 10
262.621185
 20
50.965916
 11
262.621185
 21
43.568760
  0
LINE
  8
0
  6
CONTINUOUS
 10
263.717102
 20
47.043171
 11
263.717102
 21
43.568760
  0
LINE
  8
0
  6
CONTINUOUS
 10
247.883301
 20
50.866291
 11
244.810806
 21
50.866291
  0
LINE
  8
0
  6
CONTINUOUS
 10
244.810806
 20
50.866291
 11
244.091003
 21
49.973652
  0
LINE
  8
0
  6
CONTINUOUS
 10
244.177505
 20
52.136509
 11
243.020004
 21
50.654285
  0
LINE
  8
0
  6
CONTINUOUS
 10
244.091003
 20
44.463718
 11
244.822403
 21
43.693291
  0
LINE
  8
0
  6
CONTINUOUS
 10
243.020004
 20
43.813541
 11
244.250000
 21
42.572498
  0
LINE
  8
0
  6
CONTINUOUS
 10
243.020004
 20
50.654285
 11
243.020004
 21
43.813541
  0
LINE
  8
0
  6
CONTINUOUS
 10
244.091003
 20
49.973652
 11
244.091003
 21
44.463718
  0
LINE
  8
0
  6
CONTINUOUS
 10
248.474503
 20
50.294758
 11
247.871201
 21
50.866291
  0
LINE
  8
0
  6
CONTINUOUS
 10
248.464905
 20
52.136509
 11
249.395996
 21
51.103199
  0
LINE
  8
0
  6
CONTINUOUS
 10
248.474503
 20
50.144001
 11
249.395996
 21
50.144001
  0
LINE
  8
0
  6
CONTINUOUS
 10
244.177505
 20
52.136509
 11
248.464905
 21
52.136509
  0
LINE
  8
0
  6
CONTINUOUS
 10
248.474503
 20
47.080540
 11
246.805801
 21
47.080540
  0
LINE
  8
0
  6
CONTINUOUS
 10
248.474503
 20
46.084290
 11
248.474503
 21
46.881290
  0
LINE
  8
0
  6
CONTINUOUS
 10
246.481995
 20
43.693291
 11
244.822403
 21
43.693291
  0
ARC
  8
0
  6
CONTINUOUS
 10
246.481995
 20
45.685780
 40
1.992500
 50
-89.999786
 51
0.000109
  0
LINE
  8
0
  6
CONTINUOUS
 10
248.474503
 20
43.334888
 11
248.474503
 21
42.572498
  0
LINE
  8
0
  6
CONTINUOUS
 10
249.395996
 20
51.103199
 11
249.395996
 21
50.144001
  0
LINE
  8
0
  6
CONTINUOUS
 10
248.474503
 20
47.080540
 11
248.474503
 21
45.685780
  0
LINE
  8
0
  6
CONTINUOUS
 10
246.805801
 20
48.126598
 11
246.805801
 21
47.080540
  0
LINE
  8
0
  6
CONTINUOUS
 10
248.474503
 20
42.572498
 11
249.395996
 21
42.572498
  0
LINE
  8
0
  6
CONTINUOUS
 10
248.474503
 20
43.334888
 11
247.565796
 21
42.572498
  0
LINE
  8
0
  6
CONTINUOUS
 10
256.344788
 20
43.618561
 11
256.743286
 21
43.618561
  0
LINE
  8
0
  6
CONTINUOUS
 10
254.676102
 20
43.618561
 11
254.676102
 21
42.572498
  0
LINE
  8
0
  6
CONTINUOUS
 10
256.743286
 20
43.618561
 11
256.743286
 21
42.572498
  0
LINE
  8
0
  6
CONTINUOUS
 10
258.294891
 20
50.144001
 11
258.959991
 21
50.144001
  0
LINE
  8
0
  6
CONTINUOUS
 10
252.584000
 20
50.144001
 11
253.291702
 21
50.144001
  0
LINE
  8
0
  6
CONTINUOUS
 10
252.584000
 20
52.136509
 11
258.959991
 21
52.136509
  0
LINE
  8
0
  6
CONTINUOUS
 10
254.676102
 20
42.572498
 11
256.743286
 21
42.572498
  0
LINE
  8
0
  6
CONTINUOUS
 10
254.676102
 20
43.618561
 11
255.149307
 21
43.618561
  0
ARC
  8
0
  6
CONTINUOUS
 10
265.971100
 20
49.583611
 40
2.552891
 50
-73.981873
 51
90.003510
  0
ARC
  8
0
  6
CONTINUOUS
 10
265.971100
 20
49.583611
 40
1.557438
 50
-82.585274
 51
62.411850
  0
LINE
  8
0
  6
CONTINUOUS
 10
262.148010
 20
52.136509
 11
265.971100
 21
52.136509
  0
LINE
  8
0
  6
CONTINUOUS
 10
262.148010
 20
52.136509
 11
262.148010
 21
50.965916
  0
LINE
  8
0
  6
CONTINUOUS
 10
263.717102
 20
50.965916
 11
263.717102
 21
48.039188
  0
LINE
  8
0
  6
CONTINUOUS
 10
266.675598
 20
47.129841
 11
268.255615
 21
43.568760
  0
LINE
  8
0
  6
CONTINUOUS
 10
265.757812
 20
47.043171
 11
267.253204
 21
43.568760
  0
LINE
  8
0
  6
CONTINUOUS
 10
262.148010
 20
43.568760
 11
262.621185
 21
43.568760
  0
LINE
  8
0
  6
CONTINUOUS
 10
263.717102
 20
43.568760
 11
264.152893
 21
43.568760
  0
LINE
  8
0
  6
CONTINUOUS
 10
264.152893
 20
42.572498
 11
262.148010
 21
42.572498
  0
LINE
  8
0
  6
CONTINUOUS
 10
267.054504
 20
43.568760
 11
267.253204
 21
43.568760
  0
LINE
  8
0
  6
CONTINUOUS
 10
268.255615
 20
43.568760
 11
268.523987
 21
43.568760
  0
LINE
  8
0
  6
CONTINUOUS
 10
267.054504
 20
42.572498
 11
268.523987
 21
42.572498
  0
LINE
  8
0
  6
CONTINUOUS
 10
268.523987
 20
43.568760
 11
268.523987
 21
42.572498
  0
LINE
  8
0
  6
CONTINUOUS
 10
267.054504
 20
43.568760
 11
267.054504
 21
42.572498
  0
LINE
  8
0
  6
CONTINUOUS
 10
264.152893
 20
43.568760
 11
264.152893
 21
42.572498
  0
LINE
  8
0
  6
CONTINUOUS
 10
262.148010
 20
43.568760
 11
262.148010
 21
42.572498
  0
LINE
  8
0
  6
CONTINUOUS
 10
253.634201
 20
50.965916
 11
253.291702
 21
50.144001
  0
LINE
  8
0
  6
CONTINUOUS
 10
258.006104
 20
50.965916
 11
258.294891
 21
50.144001
  0
LINE
  8
0
  6
CONTINUOUS
 10
256.344788
 20
50.965916
 11
258.006104
 21
50.965916
  0
LINE
  8
0
  6
CONTINUOUS
 10
255.149307
 20
50.965916
 11
253.634201
 21
50.965916
  0
LINE
  8
0
  6
CONTINUOUS
 10
262.148010
 20
50.965916
 11
262.621185
 21
50.965916
  0
LINE
  8
0
  6
CONTINUOUS
 10
263.717102
 20
50.965916
 11
266.692413
 21
50.963978
  0
LINE
  8
0
  6
CONTINUOUS
 10
248.474503
 20
50.294758
 11
248.474503
 21
50.144001
  0
LINE
  8
0
  6
CONTINUOUS
 10
244.250000
 20
42.572498
 11
247.565796
 21
42.572498
  0
LINE
  8
0
  6
CONTINUOUS
 10
263.717102
 20
48.039188
 11
266.172089
 21
48.039188
  0
LINE
  8
0
  6
CONTINUOUS
 10
263.717102
 20
47.043171
 11
265.757812
 21
47.043171
  0
LINE
  8
0
  6
CONTINUOUS
 10
246.805801
 20
48.126598
 11
249.395996
 21
48.126598
  0
LINE
  8
0
  6
CONTINUOUS
 10
308.187897
 20
94.281799
 11
378.769989
 21
94.281799
  0
LINE
  8
0
  6
CONTINUOUS
 10
308.187897
 20
25.463200
 11
378.769989
 21
25.463200
  0
LINE
  8
0
  6
CONTINUOUS
 10
399.269989
 20
24.872499
 11
399.269989
 21
94.872498
  0
LINE
  8
0
  6
CONTINUOUS
 10
394.728607
 20
104.872498
 11
378.769989
 21
104.872498
  0
LINE
  8
0
  6
CONTINUOUS
 10
398.769989
 20
101.872498
 11
398.769989
 21
17.872499
  0
LINE
  8
0
  6
CONTINUOUS
 10
378.769989
 20
94.281799
 11
397.019989
 21
94.281799
  0
ARC
  8
0
  6
CONTINUOUS
 10
399.269989
 20
95.372498
 40
0.500000
 50
180.000000
 51
270.000000
  0
LINE
  8
0
  6
CONTINUOUS
 10
398.192596
 20
102.872490
 11
398.769989
 21
101.872498
  0
ARC
  8
0
  6
CONTINUOUS
 10
394.728485
 20
100.872513
 40
4.000000
 50
29.999599
 51
90.000000
  0
LINE
  8
0
  6
CONTINUOUS
 10
394.728607
 20
14.872500
 11
378.769989
 21
14.872500
  0
LINE
  8
0
  6
CONTINUOUS
 10
378.769989
 20
25.463200
 11
397.019989
 21
25.463200
  0
ARC
  8
0
  6
CONTINUOUS
 10
399.269989
 20
24.372499
 40
0.500000
 50
90.000000
 51
180.000000
  0
LINE
  8
0
  6
CONTINUOUS
 10
398.192596
 20
16.872511
 11
398.769989
 21
17.872499
  0
ARC
  8
0
  6
CONTINUOUS
 10
394.728485
 20
18.872490
 40
4.000000
 50
270.000000
 51
330.000397
  0
LINE
  8
0
  6
CONTINUOUS
 10
134.770004
 20
76.572502
 11
134.770004
 21
94.572502
  0
LINE
  8
0
  6
CONTINUOUS
 10
104.769997
 20
94.572502
 11
134.770004
 21
94.572502
  0
LINE
  8
0
  6
CONTINUOUS
 10
104.769997
 20
76.572502
 11
134.770004
 21
76.572502
  0
LINE
  8
0
  6
CONTINUOUS
 10
104.769997
 20
95.572502
 11
104.769997
 21
75.572502
  0
LINE
  8
0
  6
CONTINUOUS
 10
102.769997
 20
95.572502
 11
104.769997
 21
95.572502
  0
LINE
  8
0
  6
CONTINUOUS
 10
102.769997
 20
75.572502
 11
104.769997
 21
75.572502
  0
ARC
  8
0
  6
CONTINUOUS
 10
110.769997
 20
85.572502
 40
3.000000
 50
90.000000
 51
270.000000
  0
LINE
  8
0
  6
CONTINUOUS
 10
110.769997
 20
88.572502
 11
134.770004
 21
88.572502
  0
LINE
  8
0
  6
CONTINUOUS
 10
110.770020
 20
82.572502
 11
134.770004
 21
82.572502
  0
LINE
  8
0
  6
CONTINUOUS
 10
250.270004
 20
88.572502
 11
250.270004
 21
82.572502
  0
LINE
  8
0
  6
CONTINUOUS
 10
244.270004
 20
88.572502
 11
244.270004
 21
82.572502
  0
LINE
  8
0
  6
CONTINUOUS
 10
244.270004
 20
88.572502
 11
250.270004
 21
88.572502
  0
LINE
  8
0
  6
CONTINUOUS
 10
244.270004
 20
82.572502
 11
250.270004
 21
82.572502
  0
ARC
  8
0
  6
CONTINUOUS
 10
255.770004
 20
85.572502
 40
9.000000
 50
-160.528793
 51
160.528793
  0
LINE
  8
0
  6
CENTER
 10
255.770004
 20
179.363754
 11
255.770004
 21
327.218140
  0
LINE
  8
0
  6
CENTER
 10
217.770004
 20
201.015625
 11
217.770004
 21
222.345627
  0
LINE
  8
0
  6
CENTER
 10
412.756256
 20
260.241241
 11
191.628754
 21
260.241241
  0
LINE
  8
0
  6
CONTINUOUS
 10
206.110886
 20
212.066727
 11
205.270004
 21
260.241241
  0
LINE
  8
0
  6
CONTINUOUS
 10
216.109360
 20
202.241257
 11
244.270004
 21
202.241257
  0
LINE
  8
0
  6
CONTINUOUS
 10
304.269989
 20
223.241257
 11
207.881226
 21
223.241257
  0
ARC
  8
0
  6
CONTINUOUS
 10
216.109360
 20
212.241257
 40
10.000000
 50
-179.000000
 51
-90.000000
  0
ARC
  8
0
  6
CONTINUOUS
 10
207.881226
 20
225.241257
 40
2.000000
 50
-179.000000
 51
-90.000000
  0
LINE
  8
0
  6
CENTER
 10
229.262192
 20
212.241257
 11
208.129684
 21
212.241257
  0
CIRCLE
  8
0
  6
CONTINUOUS
 10
217.770004
 20
212.241257
 40
4.250000
  0
LINE
  8
0
  6
CONTINUOUS
 10
399.269989
 20
295.241241
 11
399.269989
 21
225.241257
  0
LINE
  8
0
  6
CONTINUOUS
 10
394.728546
 20
215.241257
 11
378.769989
 21
215.241257
  0
LINE
  8
0
  6
CONTINUOUS
 10
398.769989
 20
218.241257
 11
398.769989
 21
302.241241
  0
LINE
  8
0
  6
CONTINUOUS
 10
378.769989
 20
231.241257
 11
397.019989
 21
231.241257
  0
ARC
  8
0
  6
CONTINUOUS
 10
399.269989
 20
224.741257
 40
0.500000
 50
-270.000000
 51
-180.000000
  0
LINE
  8
0
  6
CONTINUOUS
 10
398.192657
 20
217.241257
 11
398.769989
 21
218.241257
  0
ARC
  8
0
  6
CONTINUOUS
 10
394.728546
 20
219.241241
 40
4.000000
 50
-90.000000
 51
-29.999599
  0
LINE
  8
0
  6
CONTINUOUS
 10
394.728546
 20
305.241241
 11
378.769989
 21
305.241241
  0
ARC
  8
0
  6
CONTINUOUS
 10
399.269989
 20
295.741241
 40
0.500000
 50
-180.000000
 51
-90.000000
  0
LINE
  8
0
  6
CONTINUOUS
 10
398.192657
 20
303.241241
 11
398.769989
 21
302.241241
  0
ARC
  8
0
  6
CONTINUOUS
 10
394.728546
 20
301.241272
 40
4.000000
 50
-330.000397
 51
-270.000000
  0
LINE
  8
0
  6
CONTINUOUS
 10
378.769989
 20
305.241241
 11
378.769989
 21
285.241272
  0
LINE
  8
0
  6
CENTER
 10
293.769989
 20
200.818130
 11
293.769989
 21
222.148132
  0
LINE
  8
0
  6
CONTINUOUS
 10
305.429108
 20
212.066727
 11
305.615082
 21
222.721359
  0
ARC
  8
0
  6
CONTINUOUS
 10
295.430634
 20
212.241257
 40
10.000000
 50
-90.000000
 51
-1.000000
  0
ARC
  8
0
  6
CONTINUOUS
 10
303.658783
 20
225.241257
 40
2.000000
 50
-90.000000
 51
-1.000000
  0
LINE
  8
0
  6
CENTER
 10
283.080933
 20
212.241257
 11
303.719696
 21
212.241257
  0
CIRCLE
  8
0
  6
CONTINUOUS
 10
293.769989
 20
212.241257
 40
4.250000
  0
LINE
  8
0
  6
CONTINUOUS
 10
306.269989
 20
221.241257
 11
306.269989
 21
217.241257
  0
LINE
  8
0
  6
CONTINUOUS
 10
308.269989
 20
215.241257
 11
378.769989
 21
215.241257
  0
ARC
  8
0
  6
CONTINUOUS
 10
308.269989
 20
217.241257
 40
2.000000
 50
-180.000000
 51
-90.000000
  0
ARC
  8
0
  6
CONTINUOUS
 10
304.269989
 20
221.241257
 40
2.000000
 50
0.000000
 51
90.000000
  0
LINE
  8
0
  6
CONTINUOUS
 10
305.658478
 20
225.206345
 11
305.763794
 21
231.241257
  0
LINE
  8
0
  6
CONTINUOUS
 10
378.769989
 20
231.241257
 11
299.427460
 21
231.241257
  0
LINE
  8
0
  6
CONTINUOUS
 10
378.769989
 20
289.241241
 11
397.019989
 21
289.241241
  0
LINE
  8
0
  6
CONTINUOUS
 10
378.769989
 20
289.241241
 11
299.427460
 21
289.241241
  0
LINE
  8
0
  6
CONTINUOUS
 10
308.269989
 20
305.241241
 11
378.769989
 21
305.241241
  0
ARC
  8
0
  6
CONTINUOUS
 10
308.269989
 20
303.241241
 40
2.000000
 50
-270.000000
 51
-180.000000
  0
LINE
  8
0
  6
CENTER
 10
217.770004
 20
322.083130
 11
217.770004
 21
297.988129
  0
LINE
  8
0
  6
CONTINUOUS
 10
206.110886
 20
308.415771
 11
205.270004
 21
260.241241
  0
LINE
  8
0
  6
CONTINUOUS
 10
216.109360
 20
318.241241
 11
255.770004
 21
318.241241
  0
LINE
  8
0
  6
CONTINUOUS
 10
304.269989
 20
297.241241
 11
207.881226
 21
297.241241
  0
ARC
  8
0
  6
CONTINUOUS
 10
216.109360
 20
308.241241
 40
10.000000
 50
-270.000000
 51
-181.000000
  0
ARC
  8
0
  6
CONTINUOUS
 10
207.881226
 20
295.241241
 40
2.000000
 50
-270.000000
 51
-181.000000
  0
LINE
  8
0
  6
CENTER
 10
228.274689
 20
308.241241
 11
207.734695
 21
308.241241
  0
CIRCLE
  8
0
  6
CONTINUOUS
 10
217.770004
 20
308.241241
 40
4.250000
  0
LINE
  8
0
  6
CENTER
 10
293.769989
 20
322.478119
 11
293.769989
 21
297.790619
  0
LINE
  8
0
  6
CONTINUOUS
 10
305.429108
 20
308.415771
 11
305.615082
 21
297.761139
  0
ARC
  8
0
  6
CONTINUOUS
 10
295.430634
 20
308.241241
 40
10.000000
 50
-359.000000
 51
-270.000000
  0
ARC
  8
0
  6
CONTINUOUS
 10
303.658783
 20
295.241241
 40
2.000000
 50
-359.000000
 51
-270.000000
  0
LINE
  8
0
  6
CENTER
 10
284.364685
 20
308.241241
 11
303.917175
 21
308.241241
  0
CIRCLE
  8
0
  6
CONTINUOUS
 10
293.769989
 20
308.241241
 40
4.250000
  0
LINE
  8
0
  6
CONTINUOUS
 10
306.269989
 20
299.241241
 11
306.269989
 21
303.241241
  0
ARC
  8
0
  6
CONTINUOUS
 10
304.269989
 20
299.241241
 40
2.000000
 50
-90.000000
 51
0.000000
  0
LINE
  8
0
  6
CONTINUOUS
 10
305.658478
 20
295.276154
 11
305.763794
 21
289.241241
  0
LINE
  8
0
  6
CONTINUOUS
 10
272.769989
 20
228.241257
 11
272.769989
 21
292.241241
  0
LINE
  8
0
  6
CONTINUOUS
 10
238.770004
 20
228.241257
 11
238.770004
 21
292.241241
  0
LINE
  8
0
  6
CONTINUOUS
 10
299.427460
 20
233.241257
 11
299.427460
 21
287.241241
  0
LINE
  8
0
  6
CONTINUOUS
 10
233.270004
 20
218.241257
 11
278.269989
 21
218.241257
  0
LINE
  8
0
  6
CONTINUOUS
 10
279.269989
 20
219.241257
 11
279.269989
 21
221.241257
  0
LINE
  8
0
  6
CONTINUOUS
 10
232.270004
 20
219.241257
 11
232.270004
 21
221.241257
  0
ARC
  8
0
  6
CONTINUOUS
 10
281.269989
 20
221.241257
 40
2.000000
 50
-270.000000
 51
-180.000000
  0
ARC
  8
0
  6
CONTINUOUS
 10
230.270004
 20
221.241257
 40
2.000000
 50
0.000000
 51
90.000000
  0
ARC
  8
0
  6
CONTINUOUS
 10
278.269989
 20
219.241257
 40
1.000000
 50
-90.000000
 51
0.000000
  0
ARC
  8
0
  6
CONTINUOUS
 10
233.269989
 20
219.241257
 40
1.000000
 50
-180.000000
 51
-90.000000
  0
LINE
  8
0
  6
CONTINUOUS
 10
244.270004
 20
186.241257
 11
264.769989
 21
186.241257
  0
LINE
  8
0
  6
CONTINUOUS
 10
264.769989
 20
216.241257
 11
264.769989
 21
186.241257
  0
LINE
  8
0
  6
CONTINUOUS
 10
246.770004
 20
216.241257
 11
246.770004
 21
213.241257
  0
LINE
  8
0
  6
CONTINUOUS
 10
265.769989
 20
216.241257
 11
245.770004
 21
216.241257
  0
LINE
  8
0
  6
CONTINUOUS
 10
265.769989
 20
218.241257
 11
265.769989
 21
216.241257
  0
LINE
  8
0
  6
CONTINUOUS
 10
245.770004
 20
218.241257
 11
245.770004
 21
216.241257
  0
LINE
  8
0
  6
CONTINUOUS
 10
244.270004
 20
186.241257
 11
244.270004
 21
213.241257
  0
LINE
  8
0
  6
CONTINUOUS
 10
244.270004
 20
213.241257
 11
247.285004
 21
213.241257
  0
LINE
  8
0
  6
CONTINUOUS
 10
247.285004
 20
186.241257
 11
247.285004
 21
213.241257
  0
LINE
  8
0
  6
CONTINUOUS
 10
264.769989
 20
202.241257
 11
295.430634
 21
202.241257
  0
LINE
  8
0
  6
CONTINUOUS
 10
233.270004
 20
302.241241
 11
278.269989
 21
302.241241
  0
LINE
  8
0
  6
CONTINUOUS
 10
279.269989
 20
301.241241
 11
279.269989
 21
299.241241
  0
LINE
  8
0
  6
CONTINUOUS
 10
232.270004
 20
301.241241
 11
232.270004
 21
299.241241
  0
ARC
  8
0
  6
CONTINUOUS
 10
281.269989
 20
299.241241
 40
2.000000
 50
-180.000000
 51
-90.000000
  0
ARC
  8
0
  6
CONTINUOUS
 10
230.270004
 20
299.241241
 40
2.000000
 50
-90.000000
 51
0.000000
  0
ARC
  8
0
  6
CONTINUOUS
 10
278.269989
 20
301.241241
 40
1.000000
 50
0.000000
 51
90.000000
  0
ARC
  8
0
  6
CONTINUOUS
 10
233.269989
 20
301.241241
 40
1.000000
 50
-270.000000
 51
-180.000000
  0
LINE
  8
0
  6
CONTINUOUS
 10
255.770004
 20
318.241241
 11
295.430634
 21
318.241241
  0
LINE
  8
0
  6
CONTINUOUS
 10
378.769989
 20
235.241272
 11
378.769989
 21
215.241257
  0
LINE
  8
0
  6
CONTINUOUS
 10
386.269989
 20
106.372498
 11
339.769989
 21
106.372498
  0
LINE
  8
0
  6
CONTINUOUS
 10
337.770020
 20
136.372498
 11
337.769989
 21
108.372498
  0
LINE
  8
0
  6
CONTINUOUS
 10
387.769989
 20
136.372498
 11
387.769989
 21
108.372498
  0
LINE
  8
0
  6
CONTINUOUS
 10
389.769989
 20
118.372498
 11
337.769989
 21
118.372498
  0
LINE
  8
0
  6
CONTINUOUS
 10
339.769989
 20
106.372498
 11
337.769989
 21
108.372498
  0
LINE
  8
0
  6
CONTINUOUS
 10
387.769989
 20
108.372498
 11
385.769989
 21
106.372498
  0
LINE
  8
0
  6
CONTINUOUS
 10
387.769989
 20
108.372498
 11
337.769989
 21
108.372498
  0
LINE
  8
0
  6
CONTINUOUS
 10
386.769989
 20
137.372498
 11
338.770020
 21
137.372498
  0
LINE
  8
0
  6
CONTINUOUS
 10
338.770020
 20
137.372498
 11
337.770020
 21
136.372498
  0
LINE
  8
0
  6
CONTINUOUS
 10
386.769989
 20
137.372498
 11
387.769989
 21
136.372498
  0
LINE
  8
0
  6
CONTINUOUS
 10
387.769989
 20
136.372498
 11
337.770020
 21
136.372498
  0
LINE
  8
0
  6
CONTINUOUS
 10
389.769989
 20
134.372498
 11
389.769989
 21
118.372498
  0
LINE
  8
0
  6
CONTINUOUS
 10
388.769989
 20
135.372498
 11
387.769989
 21
135.372498
  0
ARC
  8
0
  6
CONTINUOUS
 10
388.769989
 20
134.372498
 40
1.000000
 50
0.000000
 51
90.000000
  0
LINE
  8
0
  6
CONTINUOUS
 10
393.269989
 20
131.872498
 11
393.269989
 21
123.872498
  0
LINE
  8
0
  6
CONTINUOUS
 10
393.269989
 20
131.872498
 11
389.769989
 21
133.372498
  0
LINE
  8
0
  6
CONTINUOUS
 10
393.269989
 20
123.872498
 11
389.769989
 21
122.372498
  0
LINE
  8
0
  6
CENTER
 10
362.769989
 20
101.678749
 11
362.769989
 21
142.759995
  0
LINE
  8
0
  6
CONTINUOUS
 10
386.269989
 20
106.372498
 11
386.269989
 21
104.872498
  0
LINE
  8
0
  6
CONTINUOUS
 10
340.269989
 20
106.372498
 11
340.269989
 21
104.872498
  0
LINE
  8
0
  6
CENTER
 10
395.713745
 20
127.872498
 11
383.638763
 21
127.872498
  0
LINE
  8
0
  6
CONTINUOUS
 10
388.769989
 20
252.741272
 11
387.769989
 21
252.741272
  0
ARC
  8
0
  6
CONTINUOUS
 10
388.769989
 20
253.741272
 40
1.000000
 50
-90.000000
 51
0.000000
  0
LINE
  8
0
  6
CONTINUOUS
 10
393.269989
 20
256.241272
 11
393.269989
 21
264.241272
  0
LINE
  8
0
  6
CONTINUOUS
 10
393.269989
 20
256.241272
 11
389.769989
 21
254.741272
  0
LINE
  8
0
  6
CONTINUOUS
 10
393.269989
 20
264.241272
 11
389.769989
 21
265.741272
  0
LINE
  8
0
  6
CONTINUOUS
 10
389.769989
 20
253.741272
 11
389.769989
 21
266.741272
  0
LINE
  8
0
  6
CONTINUOUS
 10
388.769989
 20
267.741272
 11
387.769989
 21
267.741272
  0
ARC
  8
0
  6
CONTINUOUS
 10
388.769989
 20
266.741272
 40
1.000000
 50
0.000000
 51
90.000000
  0
LINE
  8
0
  6
CONTINUOUS
 10
387.769989
 20
283.241272
 11
387.769989
 21
237.241272
  0
LINE
  8
0
  6
CONTINUOUS
 10
385.769989
 20
235.241272
 11
387.769989
 21
237.241272
  0
LINE
  8
0
  6
CONTINUOUS
 10
385.769989
 20
235.241272
 11
339.770020
 21
235.241272
  0
LINE
  8
0
  6
CONTINUOUS
 10
345.269989
 20
239.741272
 11
345.269989
 21
235.241272
  0
ARC
  8
0
  6
CONTINUOUS
 10
342.269989
 20
239.741272
 40
3.000000
 50
0.000000
 51
90.000000
  0
LINE
  8
0
  6
CONTINUOUS
 10
342.269989
 20
242.741272
 11
337.770020
 21
242.741272
  0
CIRCLE
  8
0
  6
CONTINUOUS
 10
341.269989
 20
238.741272
 40
2.250000
  0
LINE
  8
0
  6
CONTINUOUS
 10
337.770020
 20
283.241272
 11
337.770020
 21
237.241272
  0
LINE
  8
0
  6
CONTINUOUS
 10
339.770020
 20
235.241272
 11
337.770020
 21
237.241272
  0
LINE
  8
0
  6
CONTINUOUS
 10
339.770020
 20
285.241272
 11
337.770020
 21
283.241272
  0
LINE
  8
0
  6
CONTINUOUS
 10
339.770020
 20
285.241272
 11
385.769989
 21
285.241272
  0
LINE
  8
0
  6
CONTINUOUS
 10
387.769989
 20
283.241272
 11
385.769989
 21
285.241272
  0
LINE
  8
0
  6
CONTINUOUS
 10
383.269989
 20
277.741272
 11
387.769989
 21
277.741272
  0
CIRCLE
  8
0
  6
CONTINUOUS
 10
384.269989
 20
281.741272
 40
2.250000
  0
ARC
  8
0
  6
CONTINUOUS
 10
383.269989
 20
280.741272
 40
3.000000
 50
180.000000
 51
270.000000
  0
LINE
  8
0
  6
CONTINUOUS
 10
380.269989
 20
280.741272
 11
380.269989
 21
285.241272
  0
LINE
  8
0
  6
CENTER
 10
362.769989
 20
292.707062
 11
362.769989
 21
228.575027
  0
LINE
  8
0
  6
CONTINUOUS
 10
385.355774
 20
236.241257
 11
386.769989
 21
237.655457
  0
LINE
  8
0
  6
CONTINUOUS
 10
386.769989
 20
277.741241
 11
386.769989
 21
237.655457
  0
LINE
  8
0
  6
CONTINUOUS
 10
345.269989
 20
236.241257
 11
385.355774
 21
236.241257
  0
LINE
  8
0
  6
CONTINUOUS
 10
338.770020
 20
242.741257
 11
338.770020
 21
282.827026
  0
LINE
  8
0
  6
CONTINUOUS
 10
380.269989
 20
284.241241
 11
340.184204
 21
284.241241
  0
LINE
  8
0
  6
CONTINUOUS
 10
340.184204
 20
284.241241
 11
338.770020
 21
282.827026
  0
LINE
  8
0
  6
CONTINUOUS
 10
85.769989
 20
136.372498
 11
85.769997
 21
123.136131
  0
LINE
  8
0
  6
CONTINUOUS
 10
35.770000
 20
136.372498
 11
35.770000
 21
123.136017
  0
LINE
  8
0
  6
CONTINUOUS
 10
36.770000
 20
137.372498
 11
84.769989
 21
137.372498
  0
LINE
  8
0
  6
CONTINUOUS
 10
84.769989
 20
137.372498
 11
85.769989
 21
136.372498
  0
LINE
  8
0
  6
CONTINUOUS
 10
36.770000
 20
137.372498
 11
35.770000
 21
136.372498
  0
LINE
  8
0
  6
CONTINUOUS
 10
35.770000
 20
136.372498
 11
85.769989
 21
136.372498
  0
TEXT
  8
0
 10
-39.000000
 20
2.000000
 40
4.000000
 41
1.000000
  1
HLM-18L-160~240-T40WT
 50
0.000000
  0
ENDSEC
  0
EOF
