  0
SECTION
  2
HEADER
  9
$CLAYER
  8
1
  9
$LTSCALE
 40
3.0
  0
ENDSEC
  0
SECTION
  2
TABLES
  0
TABLE
  2
LTYPE
 70
     4
  0
LTYPE
  2
CONTINUOUS
  3
solid line
 70
    64
 72
    65
 73
     0
 40
0.0
  0
LTYPE
  2
DASHED
  3
__ __ __ __ __ __ __ __ __ __ __ __ __ __ __
 70
    64
 72
    65
 73
     2
 40
0.75
 49
0.5
 49
-0.25
  0
LTYPE
  2
CENTER
  3
____ _ ____ _ ____ _ ____ _ ____ _ ____ _ ____
 70
    64
 72
    65
 73
     4
 40
2.0
 49
1.25
 49
-0.25
 49
0.25
 49
-0.25
  0
LTYPE
  2
PHANTOM
  3
_____ _ _ _____ _ _ _____ _ _ _____ _ _ ____
 70
    64
 72
    65
 73
     6
 40
2.5
 49
1.25
 49
-0.25
 49
0.25
 49
-0.25
 49
0.25
 49
-0.25
  0
ENDTAB
  0
TABLE
  2
LAYER
 70
     1
  0
LAYER
  2
0
 70
    64
 62
     7
  6
CONTINUOUS
  0
ENDTAB
  0
TABLE
  2
STYLE
 70
     1
  0
STYLE
  2
STANDARD
 70
     0
 40
0.000000
 41
1.000000
 50
0.000000
 71
     0
 42
3.000000
  3
txt
  4
BIGFONT
  0
ENDTAB
  0
ENDSEC
  0
SECTION
  2
BLOCKS
  0
ENDSEC
  0
SECTION
  2
ENTITIES
  0
LINE
  8
0
  6
CENTER
 10
60.770000
 20
3.815510
 11
60.770000
 21
133.677505
  0
LINE
  8
0
  6
CENTER
 10
9.226779
 20
61.021252
 11
112.769997
 21
61.021252
  0
LINE
  8
0
  6
CONTINUOUS
 10
118.769997
 20
18.721251
 11
118.769997
 21
11.721250
  0
LINE
  8
0
  6
CONTINUOUS
 10
2.770000
 20
18.721251
 11
2.770000
 21
11.721250
  0
LINE
  8
0
  6
CONTINUOUS
 10
2.770000
 20
11.721250
 11
118.769997
 21
11.721250
  0
LINE
  8
0
  6
CONTINUOUS
 10
100.769997
 20
20.721251
 11
116.769997
 21
20.721251
  0
LINE
  8
0
  6
CONTINUOUS
 10
23.770012
 20
23.721251
 11
23.770000
 21
122.109879
  0
LINE
  8
0
  6
CONTINUOUS
 10
97.769981
 20
23.721251
 11
97.769997
 21
122.110008
  0
LINE
  8
0
  6
CONTINUOUS
 10
102.769997
 20
64.221245
 11
102.769997
 21
109.221252
  0
LINE
  8
0
  6
CONTINUOUS
 10
101.769997
 20
110.221252
 11
99.770020
 21
110.221252
  0
LINE
  8
0
  6
CONTINUOUS
 10
101.769997
 20
63.221249
 11
99.770020
 21
63.221249
  0
LINE
  8
0
  6
CONTINUOUS
 10
60.770000
 20
124.721252
 11
95.804901
 21
124.109718
  0
LINE
  8
0
  6
CONTINUOUS
 10
25.735092
 20
124.109581
 11
60.770000
 21
124.721252
  0
ARC
  8
0
  6
CONTINUOUS
 10
99.769997
 20
112.221252
 40
2.000000
 50
180.000000
 51
270.000000
  0
ARC
  8
0
  6
CONTINUOUS
 10
95.770020
 20
122.110008
 40
2.000000
 50
0.000000
 51
89.000137
  0
ARC
  8
0
  6
CONTINUOUS
 10
25.770010
 20
122.109894
 40
2.000000
 50
91.000641
 51
180.000000
  0
ARC
  8
0
  6
CONTINUOUS
 10
99.770020
 20
61.221256
 40
2.000000
 50
90.000000
 51
180.000000
  0
ARC
  8
0
  6
CONTINUOUS
 10
101.769997
 20
109.221237
 40
1.000000
 50
0.000000
 51
90.000000
  0
ARC
  8
0
  6
CONTINUOUS
 10
101.769997
 20
64.221245
 40
1.000000
 50
-90.000000
 51
0.000000
  0
LINE
  8
0
  6
CONTINUOUS
 10
25.844151
 20
101.221252
 11
96.004623
 21
101.221252
  0
ARC
  8
0
  6
CONTINUOUS
 10
116.769997
 20
18.721239
 40
2.000000
 50
0.000000
 51
90.000000
  0
ARC
  8
0
  6
CONTINUOUS
 10
4.770010
 20
18.721260
 40
2.000000
 50
90.000000
 51
180.000000
  0
LINE
  8
0
  6
CENTER
 10
108.769997
 20
24.677500
 11
108.769997
 21
7.427500
  0
LINE
  8
0
  6
CENTER
 10
12.770000
 20
24.677500
 11
12.770000
 21
6.677500
  0
LINE
  8
0
  6
DASHED
 10
17.020000
 20
20.721251
 11
17.020000
 21
11.721250
  0
LINE
  8
0
  6
DASHED
 10
8.520000
 20
20.721251
 11
8.520000
 21
11.721250
  0
LINE
  8
0
  6
DASHED
 10
113.019997
 20
20.721251
 11
113.019997
 21
11.721250
  0
LINE
  8
0
  6
DASHED
 10
104.519997
 20
20.721251
 11
104.519997
 21
11.721250
  0
ARC
  8
0
  6
CONTINUOUS
 10
60.770000
 20
61.021252
 40
45.000000
 50
158.960526
 51
214.692093
  0
ARC
  8
0
  6
CONTINUOUS
 10
60.770000
 20
61.021252
 40
45.000000
 50
-34.692108
 51
20.437799
  0
LINE
  8
0
  6
CONTINUOUS
 10
18.770000
 20
64.221245
 11
18.770000
 21
109.221252
  0
LINE
  8
0
  6
CONTINUOUS
 10
19.770000
 20
110.221252
 11
21.769989
 21
110.221252
  0
LINE
  8
0
  6
CONTINUOUS
 10
19.770000
 20
63.221249
 11
21.769989
 21
63.221249
  0
ARC
  8
0
  6
CONTINUOUS
 10
21.770000
 20
112.221252
 40
2.000000
 50
-90.000000
 51
0.000000
  0
ARC
  8
0
  6
CONTINUOUS
 10
21.769989
 20
61.221256
 40
2.000000
 50
0.000000
 51
90.000000
  0
ARC
  8
0
  6
CONTINUOUS
 10
19.770000
 20
109.221237
 40
1.000000
 50
90.000000
 51
180.000000
  0
ARC
  8
0
  6
CONTINUOUS
 10
19.770000
 20
64.221245
 40
1.000000
 50
180.000000
 51
270.000000
  0
LINE
  8
0
  6
CENTER
 10
13.770061
 20
86.721252
 11
146.520004
 21
86.721252
  0
LINE
  8
0
  6
CONTINUOUS
 10
20.770012
 20
20.721251
 11
4.770000
 21
20.721251
  0
ARC
  8
0
  6
CONTINUOUS
 10
20.770000
 20
23.721251
 40
3.000000
 50
-90.000000
 51
0.000000
  0
ARC
  8
0
  6
CONTINUOUS
 10
100.769997
 20
23.721251
 40
3.000000
 50
180.000000
 51
270.000000
  0
LINE
  8
0
  6
CONTINUOUS
 10
378.769989
 20
16.021250
 11
378.769989
 21
106.021248
  0
LINE
  8
0
  6
CENTER
 10
407.999695
 20
61.021252
 11
278.834686
 21
61.021252
  0
LINE
  8
0
  6
CONTINUOUS
 10
205.270004
 20
18.721251
 11
205.270004
 21
11.721250
  0
LINE
  8
0
  6
CONTINUOUS
 10
306.269989
 20
18.721239
 11
306.269989
 21
11.721250
  0
LINE
  8
0
  6
CONTINUOUS
 10
378.769989
 20
16.021250
 11
306.269989
 21
16.021250
  0
LINE
  8
0
  6
CONTINUOUS
 10
378.769989
 20
106.021248
 11
299.427399
 21
106.021248
  0
LINE
  8
0
  6
CENTER
 10
255.770004
 20
134.708755
 11
255.770004
 21
3.815500
  0
LINE
  8
0
  6
CENTER
 10
285.944702
 20
86.721252
 11
220.374695
 21
86.721252
  0
LINE
  8
0
  6
CONTINUOUS
 10
306.269989
 20
11.721250
 11
205.270004
 21
11.721250
  0
LINE
  8
0
  6
CONTINUOUS
 10
271.191101
 20
124.721252
 11
240.348907
 21
124.721252
  0
LINE
  8
0
  6
CONTINUOUS
 10
304.269989
 20
20.721251
 11
207.270004
 21
20.721251
  0
LINE
  8
0
  6
CENTER
 10
217.770004
 20
26.208750
 11
217.770004
 21
4.958750
  0
LINE
  8
0
  6
CENTER
 10
293.769989
 20
26.458750
 11
293.769989
 21
4.458750
  0
LINE
  8
0
  6
CONTINUOUS
 10
207.398605
 20
102.714432
 11
237.477493
 21
123.814537
  0
LINE
  8
0
  6
CONTINUOUS
 10
304.141388
 20
102.714432
 11
274.062500
 21
123.814529
  0
ARC
  8
0
  6
CONTINUOUS
 10
240.348801
 20
119.721237
 40
5.000000
 50
90.000000
 51
125.049103
  0
ARC
  8
0
  6
CONTINUOUS
 10
271.191101
 20
119.721252
 40
5.000000
 50
54.950329
 51
90.000000
  0
ARC
  8
0
  6
CONTINUOUS
 10
301.269989
 20
98.621178
 40
5.000000
 50
0.000000
 51
54.950199
  0
ARC
  8
0
  6
CONTINUOUS
 10
210.270004
 20
98.621132
 40
5.000000
 50
125.049103
 51
180.000000
  0
LINE
  8
0
  6
CONTINUOUS
 10
205.270004
 20
18.721251
 11
205.270004
 21
98.621147
  0
ARC
  8
0
  6
CONTINUOUS
 10
207.270004
 20
18.721239
 40
2.000000
 50
90.000000
 51
180.000000
  0
LINE
  8
0
  6
CONTINUOUS
 10
306.269989
 20
18.721239
 11
306.269989
 21
98.621147
  0
ARC
  8
0
  6
CONTINUOUS
 10
304.269989
 20
18.721251
 40
2.000000
 50
0.000000
 51
90.000000
  0
LINE
  8
0
  6
DASHED
 10
213.520004
 20
20.721251
 11
213.520004
 21
11.721250
  0
LINE
  8
0
  6
DASHED
 10
222.020004
 20
20.721251
 11
222.020004
 21
11.721250
  0
LINE
  8
0
  6
DASHED
 10
289.519989
 20
20.721251
 11
289.519989
 21
11.721250
  0
LINE
  8
0
  6
DASHED
 10
298.019989
 20
20.721251
 11
298.019989
 21
11.721250
  0
CIRCLE
  8
0
  6
CONTINUOUS
 10
255.770004
 20
86.721252
 40
23.500000
  0
CIRCLE
  8
0
  6
CONTINUOUS
 10
255.770004
 20
86.721252
 40
23.500000
  0
LINE
  8
0
  6
CONTINUOUS
 10
249.395996
 20
49.275349
 11
249.395996
 21
43.721249
  0
LINE
  8
0
  6
CONTINUOUS
 10
252.584000
 20
51.292751
 11
252.584000
 21
53.285259
  0
LINE
  8
0
  6
CONTINUOUS
 10
258.959991
 20
51.292751
 11
258.959991
 21
53.285259
  0
LINE
  8
0
  6
CONTINUOUS
 10
255.149307
 20
52.114662
 11
255.149307
 21
44.767311
  0
LINE
  8
0
  6
CONTINUOUS
 10
256.344788
 20
52.114662
 11
256.344788
 21
44.767311
  0
LINE
  8
0
  6
CONTINUOUS
 10
262.621185
 20
52.114662
 11
262.621185
 21
44.717510
  0
LINE
  8
0
  6
CONTINUOUS
 10
263.717102
 20
48.191921
 11
263.717102
 21
44.717510
  0
LINE
  8
0
  6
CONTINUOUS
 10
247.883301
 20
52.015041
 11
244.810806
 21
52.015041
  0
LINE
  8
0
  6
CONTINUOUS
 10
244.810806
 20
52.015041
 11
244.091003
 21
51.122402
  0
LINE
  8
0
  6
CONTINUOUS
 10
244.177505
 20
53.285259
 11
243.020004
 21
51.803036
  0
LINE
  8
0
  6
CONTINUOUS
 10
244.091003
 20
45.612469
 11
244.822403
 21
44.842041
  0
LINE
  8
0
  6
CONTINUOUS
 10
243.020004
 20
44.962292
 11
244.250000
 21
43.721249
  0
LINE
  8
0
  6
CONTINUOUS
 10
243.020004
 20
51.803036
 11
243.020004
 21
44.962292
  0
LINE
  8
0
  6
CONTINUOUS
 10
244.091003
 20
51.122402
 11
244.091003
 21
45.612469
  0
LINE
  8
0
  6
CONTINUOUS
 10
248.474503
 20
51.443504
 11
247.871201
 21
52.015041
  0
LINE
  8
0
  6
CONTINUOUS
 10
248.464905
 20
53.285259
 11
249.395996
 21
52.251949
  0
LINE
  8
0
  6
CONTINUOUS
 10
248.474503
 20
51.292751
 11
249.395996
 21
51.292751
  0
LINE
  8
0
  6
CONTINUOUS
 10
244.177505
 20
53.285259
 11
248.464905
 21
53.285259
  0
LINE
  8
0
  6
CONTINUOUS
 10
248.474503
 20
48.229290
 11
246.805801
 21
48.229290
  0
LINE
  8
0
  6
CONTINUOUS
 10
248.474503
 20
47.233040
 11
248.474503
 21
48.030041
  0
LINE
  8
0
  6
CONTINUOUS
 10
246.481995
 20
44.842041
 11
244.822403
 21
44.842041
  0
ARC
  8
0
  6
CONTINUOUS
 10
246.481995
 20
46.834530
 40
1.992500
 50
-89.999786
 51
0.000109
  0
LINE
  8
0
  6
CONTINUOUS
 10
248.474503
 20
44.483639
 11
248.474503
 21
43.721249
  0
LINE
  8
0
  6
CONTINUOUS
 10
249.395996
 20
52.251949
 11
249.395996
 21
51.292751
  0
LINE
  8
0
  6
CONTINUOUS
 10
248.474503
 20
48.229290
 11
248.474503
 21
46.834530
  0
LINE
  8
0
  6
CONTINUOUS
 10
246.805801
 20
49.275349
 11
246.805801
 21
48.229290
  0
LINE
  8
0
  6
CONTINUOUS
 10
248.474503
 20
43.721249
 11
249.395996
 21
43.721249
  0
LINE
  8
0
  6
CONTINUOUS
 10
248.474503
 20
44.483639
 11
247.565796
 21
43.721249
  0
LINE
  8
0
  6
CONTINUOUS
 10
256.344788
 20
44.767311
 11
256.743286
 21
44.767311
  0
LINE
  8
0
  6
CONTINUOUS
 10
254.676102
 20
44.767311
 11
254.676102
 21
43.721249
  0
LINE
  8
0
  6
CONTINUOUS
 10
256.743286
 20
44.767311
 11
256.743286
 21
43.721249
  0
LINE
  8
0
  6
CONTINUOUS
 10
258.294891
 20
51.292751
 11
258.959991
 21
51.292751
  0
LINE
  8
0
  6
CONTINUOUS
 10
252.584000
 20
51.292751
 11
253.291702
 21
51.292751
  0
LINE
  8
0
  6
CONTINUOUS
 10
252.584000
 20
53.285259
 11
258.959991
 21
53.285259
  0
LINE
  8
0
  6
CONTINUOUS
 10
254.676102
 20
43.721249
 11
256.743286
 21
43.721249
  0
LINE
  8
0
  6
CONTINUOUS
 10
254.676102
 20
44.767311
 11
255.149307
 21
44.767311
  0
ARC
  8
0
  6
CONTINUOUS
 10
265.971100
 20
50.732361
 40
2.552891
 50
-73.981873
 51
90.003510
  0
ARC
  8
0
  6
CONTINUOUS
 10
265.971100
 20
50.732361
 40
1.557438
 50
-82.585274
 51
62.411850
  0
LINE
  8
0
  6
CONTINUOUS
 10
262.148010
 20
53.285259
 11
265.971100
 21
53.285259
  0
LINE
  8
0
  6
CONTINUOUS
 10
262.148010
 20
53.285259
 11
262.148010
 21
52.114662
  0
LINE
  8
0
  6
CONTINUOUS
 10
263.717102
 20
52.114662
 11
263.717102
 21
49.187939
  0
LINE
  8
0
  6
CONTINUOUS
 10
266.675598
 20
48.278591
 11
268.255615
 21
44.717510
  0
LINE
  8
0
  6
CONTINUOUS
 10
265.757812
 20
48.191921
 11
267.253204
 21
44.717510
  0
LINE
  8
0
  6
CONTINUOUS
 10
262.148010
 20
44.717510
 11
262.621185
 21
44.717510
  0
LINE
  8
0
  6
CONTINUOUS
 10
263.717102
 20
44.717510
 11
264.152893
 21
44.717510
  0
LINE
  8
0
  6
CONTINUOUS
 10
264.152893
 20
43.721249
 11
262.148010
 21
43.721249
  0
LINE
  8
0
  6
CONTINUOUS
 10
267.054504
 20
44.717510
 11
267.253204
 21
44.717510
  0
LINE
  8
0
  6
CONTINUOUS
 10
268.255615
 20
44.717510
 11
268.523987
 21
44.717510
  0
LINE
  8
0
  6
CONTINUOUS
 10
267.054504
 20
43.721249
 11
268.523987
 21
43.721249
  0
LINE
  8
0
  6
CONTINUOUS
 10
268.523987
 20
44.717510
 11
268.523987
 21
43.721249
  0
LINE
  8
0
  6
CONTINUOUS
 10
267.054504
 20
44.717510
 11
267.054504
 21
43.721249
  0
LINE
  8
0
  6
CONTINUOUS
 10
264.152893
 20
44.717510
 11
264.152893
 21
43.721249
  0
LINE
  8
0
  6
CONTINUOUS
 10
262.148010
 20
44.717510
 11
262.148010
 21
43.721249
  0
LINE
  8
0
  6
CONTINUOUS
 10
253.634201
 20
52.114662
 11
253.291702
 21
51.292751
  0
LINE
  8
0
  6
CONTINUOUS
 10
258.006104
 20
52.114662
 11
258.294891
 21
51.292751
  0
LINE
  8
0
  6
CONTINUOUS
 10
256.344788
 20
52.114662
 11
258.006104
 21
52.114662
  0
LINE
  8
0
  6
CONTINUOUS
 10
255.149307
 20
52.114662
 11
253.634201
 21
52.114662
  0
LINE
  8
0
  6
CONTINUOUS
 10
262.148010
 20
52.114662
 11
262.621185
 21
52.114662
  0
LINE
  8
0
  6
CONTINUOUS
 10
263.717102
 20
52.114662
 11
266.692413
 21
52.112724
  0
LINE
  8
0
  6
CONTINUOUS
 10
248.474503
 20
51.443504
 11
248.474503
 21
51.292751
  0
LINE
  8
0
  6
CONTINUOUS
 10
244.250000
 20
43.721249
 11
247.565796
 21
43.721249
  0
LINE
  8
0
  6
CONTINUOUS
 10
263.717102
 20
49.187939
 11
266.172089
 21
49.187939
  0
LINE
  8
0
  6
CONTINUOUS
 10
263.717102
 20
48.191921
 11
265.757812
 21
48.191921
  0
LINE
  8
0
  6
CONTINUOUS
 10
246.805801
 20
49.275349
 11
249.395996
 21
49.275349
  0
LINE
  8
0
  6
CONTINUOUS
 10
308.187897
 20
95.430550
 11
378.769989
 21
95.430550
  0
LINE
  8
0
  6
CONTINUOUS
 10
308.187897
 20
26.611950
 11
378.769989
 21
26.611950
  0
LINE
  8
0
  6
CONTINUOUS
 10
399.269989
 20
26.021250
 11
399.269989
 21
96.021248
  0
LINE
  8
0
  6
CONTINUOUS
 10
394.728607
 20
106.021248
 11
378.769989
 21
106.021248
  0
LINE
  8
0
  6
CONTINUOUS
 10
398.769989
 20
103.021248
 11
398.769989
 21
19.021250
  0
LINE
  8
0
  6
CONTINUOUS
 10
378.769989
 20
95.430550
 11
397.019989
 21
95.430550
  0
ARC
  8
0
  6
CONTINUOUS
 10
399.269989
 20
96.521248
 40
0.500000
 50
180.000000
 51
270.000000
  0
LINE
  8
0
  6
CONTINUOUS
 10
398.192596
 20
104.021240
 11
398.769989
 21
103.021248
  0
ARC
  8
0
  6
CONTINUOUS
 10
394.728485
 20
102.021263
 40
4.000000
 50
29.999599
 51
90.000000
  0
LINE
  8
0
  6
CONTINUOUS
 10
394.728607
 20
16.021250
 11
378.769989
 21
16.021250
  0
LINE
  8
0
  6
CONTINUOUS
 10
378.769989
 20
26.611950
 11
397.019989
 21
26.611950
  0
ARC
  8
0
  6
CONTINUOUS
 10
399.269989
 20
25.521250
 40
0.500000
 50
90.000000
 51
180.000000
  0
LINE
  8
0
  6
CONTINUOUS
 10
398.192596
 20
18.021259
 11
398.769989
 21
19.021250
  0
ARC
  8
0
  6
CONTINUOUS
 10
394.728485
 20
20.021240
 40
4.000000
 50
270.000000
 51
330.000397
  0
LINE
  8
0
  6
CONTINUOUS
 10
378.269989
 20
107.521248
 11
378.269989
 21
106.021248
  0
LINE
  8
0
  6
CONTINUOUS
 10
385.269989
 20
107.521248
 11
385.269989
 21
106.021248
  0
LINE
  8
0
  6
CONTINUOUS
 10
385.269989
 20
107.521248
 11
378.269989
 21
107.521248
  0
LINE
  8
0
  6
CONTINUOUS
 10
380.869995
 20
120.521248
 11
380.869995
 21
107.521248
  0
LINE
  8
0
  6
CONTINUOUS
 10
382.670013
 20
121.146248
 11
382.670013
 21
107.521248
  0
LINE
  8
0
  6
CONTINUOUS
 10
384.470001
 20
119.083748
 11
384.470001
 21
107.521248
  0
LINE
  8
0
  6
CONTINUOUS
 10
379.070007
 20
119.896248
 11
379.070007
 21
107.521248
  0
LINE
  8
0
  6
CONTINUOUS
 10
382.670013
 20
121.146248
 11
380.869995
 21
120.521248
  0
LINE
  8
0
  6
CONTINUOUS
 10
384.470001
 20
119.083748
 11
382.670013
 21
119.708748
  0
LINE
  8
0
  6
CONTINUOUS
 10
379.070007
 20
119.896248
 11
380.868988
 21
119.448540
  0
LINE
  8
0
  6
CONTINUOUS
 10
134.770004
 20
77.721252
 11
134.770004
 21
95.721252
  0
LINE
  8
0
  6
CONTINUOUS
 10
104.769997
 20
95.721252
 11
134.770004
 21
95.721252
  0
LINE
  8
0
  6
CONTINUOUS
 10
104.769997
 20
77.721252
 11
134.770004
 21
77.721252
  0
LINE
  8
0
  6
CONTINUOUS
 10
104.769997
 20
96.721252
 11
104.769997
 21
76.721252
  0
LINE
  8
0
  6
CONTINUOUS
 10
102.769997
 20
96.721252
 11
104.769997
 21
96.721252
  0
LINE
  8
0
  6
CONTINUOUS
 10
102.769997
 20
76.721252
 11
104.769997
 21
76.721252
  0
ARC
  8
0
  6
CONTINUOUS
 10
110.769997
 20
86.721252
 40
3.000000
 50
90.000000
 51
270.000000
  0
LINE
  8
0
  6
CONTINUOUS
 10
110.769997
 20
89.721252
 11
134.770004
 21
89.721252
  0
LINE
  8
0
  6
CONTINUOUS
 10
110.770020
 20
83.721252
 11
134.770004
 21
83.721252
  0
LINE
  8
0
  6
CONTINUOUS
 10
250.270004
 20
89.721252
 11
250.270004
 21
83.721252
  0
LINE
  8
0
  6
CONTINUOUS
 10
244.270004
 20
89.721252
 11
244.270004
 21
83.721252
  0
LINE
  8
0
  6
CONTINUOUS
 10
244.270004
 20
89.721252
 11
250.270004
 21
89.721252
  0
LINE
  8
0
  6
CONTINUOUS
 10
244.270004
 20
83.721252
 11
250.270004
 21
83.721252
  0
ARC
  8
0
  6
CONTINUOUS
 10
255.770004
 20
86.721252
 40
9.000000
 50
-160.528793
 51
160.528793
  0
LINE
  8
0
  6
CONTINUOUS
 10
385.269989
 20
267.390015
 11
385.269989
 21
255.389999
  0
LINE
  8
0
  6
CONTINUOUS
 10
378.269989
 20
267.390015
 11
378.269989
 21
255.389999
  0
LINE
  8
0
  6
CONTINUOUS
 10
384.269989
 20
254.389999
 11
379.269989
 21
254.389999
  0
LINE
  8
0
  6
CONTINUOUS
 10
379.269989
 20
268.390015
 11
384.269989
 21
268.390015
  0
ARC
  8
0
  6
CONTINUOUS
 10
379.269989
 20
255.389999
 40
1.000000
 50
-180.000000
 51
-90.000000
  0
ARC
  8
0
  6
CONTINUOUS
 10
384.269989
 20
255.389999
 40
1.000000
 50
-90.000000
 51
0.000000
  0
ARC
  8
0
  6
CONTINUOUS
 10
384.269989
 20
267.390015
 40
1.000000
 50
0.000000
 51
90.000000
  0
ARC
  8
0
  6
CONTINUOUS
 10
379.269989
 20
267.390015
 40
1.000000
 50
-270.000000
 51
-180.000000
  0
LINE
  8
0
  6
CONTINUOUS
 10
380.769989
 20
264.890015
 11
380.769989
 21
257.890015
  0
LINE
  8
0
  6
CONTINUOUS
 10
382.769989
 20
264.890015
 11
382.769989
 21
257.890015
  0
ARC
  8
0
  6
CONTINUOUS
 10
381.769989
 20
257.890015
 40
1.000000
 50
-90.000000
 51
0.000000
  0
ARC
  8
0
  6
CONTINUOUS
 10
381.769989
 20
257.890015
 40
1.000000
 50
-180.000000
 51
-90.000000
  0
ARC
  8
0
  6
CONTINUOUS
 10
381.769989
 20
264.890015
 40
1.000000
 50
0.000000
 51
90.000000
  0
ARC
  8
0
  6
CONTINUOUS
 10
381.769989
 20
264.890015
 40
1.000000
 50
-270.000000
 51
-180.000000
  0
LINE
  8
0
  6
CENTER
 10
255.770004
 20
180.512497
 11
255.770004
 21
328.366882
  0
LINE
  8
0
  6
CENTER
 10
217.770004
 20
202.164368
 11
217.770004
 21
223.494370
  0
LINE
  8
0
  6
CENTER
 10
412.756256
 20
261.390015
 11
191.628754
 21
261.390015
  0
LINE
  8
0
  6
CONTINUOUS
 10
206.110886
 20
213.215469
 11
205.270004
 21
261.390015
  0
LINE
  8
0
  6
CONTINUOUS
 10
216.109360
 20
203.389999
 11
244.270004
 21
203.389999
  0
LINE
  8
0
  6
CONTINUOUS
 10
304.269989
 20
224.389999
 11
207.881226
 21
224.389999
  0
ARC
  8
0
  6
CONTINUOUS
 10
216.109360
 20
213.389999
 40
10.000000
 50
-179.000000
 51
-90.000000
  0
ARC
  8
0
  6
CONTINUOUS
 10
207.881226
 20
226.389999
 40
2.000000
 50
-179.000000
 51
-90.000000
  0
LINE
  8
0
  6
CENTER
 10
229.262192
 20
213.389999
 11
208.129684
 21
213.389999
  0
CIRCLE
  8
0
  6
CONTINUOUS
 10
217.770004
 20
213.389999
 40
4.250000
  0
LINE
  8
0
  6
CONTINUOUS
 10
399.269989
 20
296.390015
 11
399.269989
 21
226.389999
  0
LINE
  8
0
  6
CONTINUOUS
 10
394.728546
 20
216.389999
 11
378.769989
 21
216.389999
  0
LINE
  8
0
  6
CONTINUOUS
 10
398.769989
 20
219.389999
 11
398.769989
 21
303.390015
  0
LINE
  8
0
  6
CONTINUOUS
 10
378.769989
 20
232.389999
 11
397.019989
 21
232.389999
  0
ARC
  8
0
  6
CONTINUOUS
 10
399.269989
 20
225.889999
 40
0.500000
 50
-270.000000
 51
-180.000000
  0
LINE
  8
0
  6
CONTINUOUS
 10
398.192657
 20
218.390015
 11
398.769989
 21
219.389999
  0
ARC
  8
0
  6
CONTINUOUS
 10
394.728546
 20
220.389984
 40
4.000000
 50
-90.000000
 51
-29.999599
  0
LINE
  8
0
  6
CONTINUOUS
 10
394.728546
 20
306.390015
 11
378.769989
 21
306.390015
  0
ARC
  8
0
  6
CONTINUOUS
 10
399.269989
 20
296.890015
 40
0.500000
 50
-180.000000
 51
-90.000000
  0
LINE
  8
0
  6
CONTINUOUS
 10
398.192657
 20
304.389984
 11
398.769989
 21
303.390015
  0
ARC
  8
0
  6
CONTINUOUS
 10
394.728546
 20
302.390015
 40
4.000000
 50
-330.000397
 51
-270.000000
  0
LINE
  8
0
  6
CONTINUOUS
 10
378.769989
 20
306.390015
 11
378.769989
 21
268.256012
  0
LINE
  8
0
  6
CENTER
 10
293.769989
 20
201.966873
 11
293.769989
 21
223.296875
  0
LINE
  8
0
  6
CONTINUOUS
 10
305.429108
 20
213.215469
 11
305.615082
 21
223.870117
  0
ARC
  8
0
  6
CONTINUOUS
 10
295.430634
 20
213.389999
 40
10.000000
 50
-90.000000
 51
-1.000000
  0
ARC
  8
0
  6
CONTINUOUS
 10
303.658783
 20
226.389999
 40
2.000000
 50
-90.000000
 51
-1.000000
  0
LINE
  8
0
  6
CENTER
 10
283.080933
 20
213.389999
 11
303.719696
 21
213.389999
  0
CIRCLE
  8
0
  6
CONTINUOUS
 10
293.769989
 20
213.389999
 40
4.250000
  0
LINE
  8
0
  6
CONTINUOUS
 10
306.269989
 20
222.389999
 11
306.269989
 21
218.389999
  0
LINE
  8
0
  6
CONTINUOUS
 10
308.269989
 20
216.389999
 11
378.769989
 21
216.389999
  0
ARC
  8
0
  6
CONTINUOUS
 10
308.269989
 20
218.389999
 40
2.000000
 50
-180.000000
 51
-90.000000
  0
ARC
  8
0
  6
CONTINUOUS
 10
304.269989
 20
222.389999
 40
2.000000
 50
0.000000
 51
90.000000
  0
LINE
  8
0
  6
CONTINUOUS
 10
305.658478
 20
226.355103
 11
305.763794
 21
232.389999
  0
LINE
  8
0
  6
CONTINUOUS
 10
378.769989
 20
232.389999
 11
299.427460
 21
232.389999
  0
LINE
  8
0
  6
CONTINUOUS
 10
378.769989
 20
290.390015
 11
397.019989
 21
290.390015
  0
LINE
  8
0
  6
CONTINUOUS
 10
378.769989
 20
290.390015
 11
299.427460
 21
290.390015
  0
LINE
  8
0
  6
CONTINUOUS
 10
308.269989
 20
306.390015
 11
378.769989
 21
306.390015
  0
ARC
  8
0
  6
CONTINUOUS
 10
308.269989
 20
304.390015
 40
2.000000
 50
-270.000000
 51
-180.000000
  0
LINE
  8
0
  6
CENTER
 10
217.770004
 20
323.231873
 11
217.770004
 21
299.136871
  0
LINE
  8
0
  6
CONTINUOUS
 10
206.110886
 20
309.564514
 11
205.270004
 21
261.390015
  0
LINE
  8
0
  6
CONTINUOUS
 10
216.109360
 20
319.390015
 11
255.770004
 21
319.390015
  0
LINE
  8
0
  6
CONTINUOUS
 10
304.269989
 20
298.390015
 11
207.881226
 21
298.390015
  0
ARC
  8
0
  6
CONTINUOUS
 10
216.109360
 20
309.390015
 40
10.000000
 50
-270.000000
 51
-181.000000
  0
ARC
  8
0
  6
CONTINUOUS
 10
207.881226
 20
296.390015
 40
2.000000
 50
-270.000000
 51
-181.000000
  0
LINE
  8
0
  6
CENTER
 10
228.274689
 20
309.390015
 11
207.734695
 21
309.390015
  0
CIRCLE
  8
0
  6
CONTINUOUS
 10
217.770004
 20
309.390015
 40
4.250000
  0
LINE
  8
0
  6
CENTER
 10
293.769989
 20
323.626862
 11
293.769989
 21
298.939362
  0
LINE
  8
0
  6
CONTINUOUS
 10
305.429108
 20
309.564514
 11
305.615082
 21
298.909882
  0
ARC
  8
0
  6
CONTINUOUS
 10
295.430634
 20
309.390015
 40
10.000000
 50
-359.000000
 51
-270.000000
  0
ARC
  8
0
  6
CONTINUOUS
 10
303.658783
 20
296.390015
 40
2.000000
 50
-359.000000
 51
-270.000000
  0
LINE
  8
0
  6
CENTER
 10
284.364685
 20
309.390015
 11
303.917175
 21
309.390015
  0
CIRCLE
  8
0
  6
CONTINUOUS
 10
293.769989
 20
309.390015
 40
4.250000
  0
LINE
  8
0
  6
CONTINUOUS
 10
306.269989
 20
300.390015
 11
306.269989
 21
304.390015
  0
ARC
  8
0
  6
CONTINUOUS
 10
304.269989
 20
300.390015
 40
2.000000
 50
-90.000000
 51
0.000000
  0
LINE
  8
0
  6
CONTINUOUS
 10
305.658478
 20
296.424896
 11
305.763794
 21
290.390015
  0
LINE
  8
0
  6
CONTINUOUS
 10
272.769989
 20
229.389999
 11
272.769989
 21
293.390015
  0
LINE
  8
0
  6
CONTINUOUS
 10
238.770004
 20
229.389999
 11
238.770004
 21
293.390015
  0
LINE
  8
0
  6
CONTINUOUS
 10
299.427460
 20
234.389999
 11
299.427460
 21
288.390015
  0
LINE
  8
0
  6
CONTINUOUS
 10
233.270004
 20
219.389999
 11
278.269989
 21
219.389999
  0
LINE
  8
0
  6
CONTINUOUS
 10
279.269989
 20
220.389999
 11
279.269989
 21
222.389999
  0
LINE
  8
0
  6
CONTINUOUS
 10
232.270004
 20
220.389999
 11
232.270004
 21
222.389999
  0
ARC
  8
0
  6
CONTINUOUS
 10
281.269989
 20
222.389999
 40
2.000000
 50
-270.000000
 51
-180.000000
  0
ARC
  8
0
  6
CONTINUOUS
 10
230.270004
 20
222.389999
 40
2.000000
 50
0.000000
 51
90.000000
  0
ARC
  8
0
  6
CONTINUOUS
 10
278.269989
 20
220.389999
 40
1.000000
 50
-90.000000
 51
0.000000
  0
ARC
  8
0
  6
CONTINUOUS
 10
233.269989
 20
220.389999
 40
1.000000
 50
-180.000000
 51
-90.000000
  0
LINE
  8
0
  6
CONTINUOUS
 10
244.270004
 20
187.389999
 11
264.769989
 21
187.389999
  0
LINE
  8
0
  6
CONTINUOUS
 10
264.769989
 20
217.389999
 11
264.769989
 21
187.389999
  0
LINE
  8
0
  6
CONTINUOUS
 10
246.770004
 20
217.389999
 11
246.770004
 21
214.389999
  0
LINE
  8
0
  6
CONTINUOUS
 10
265.769989
 20
217.389999
 11
245.770004
 21
217.389999
  0
LINE
  8
0
  6
CONTINUOUS
 10
265.769989
 20
219.389999
 11
265.769989
 21
217.389999
  0
LINE
  8
0
  6
CONTINUOUS
 10
245.770004
 20
219.389999
 11
245.770004
 21
217.389999
  0
LINE
  8
0
  6
CONTINUOUS
 10
244.270004
 20
187.389999
 11
244.270004
 21
214.389999
  0
LINE
  8
0
  6
CONTINUOUS
 10
244.270004
 20
214.389999
 11
247.285004
 21
214.389999
  0
LINE
  8
0
  6
CONTINUOUS
 10
247.285004
 20
187.389999
 11
247.285004
 21
214.389999
  0
LINE
  8
0
  6
CONTINUOUS
 10
264.769989
 20
203.389999
 11
295.430634
 21
203.389999
  0
LINE
  8
0
  6
CONTINUOUS
 10
233.270004
 20
303.390015
 11
278.269989
 21
303.390015
  0
LINE
  8
0
  6
CONTINUOUS
 10
279.269989
 20
302.390015
 11
279.269989
 21
300.390015
  0
LINE
  8
0
  6
CONTINUOUS
 10
232.270004
 20
302.390015
 11
232.270004
 21
300.390015
  0
ARC
  8
0
  6
CONTINUOUS
 10
281.269989
 20
300.390015
 40
2.000000
 50
-180.000000
 51
-90.000000
  0
ARC
  8
0
  6
CONTINUOUS
 10
230.270004
 20
300.390015
 40
2.000000
 50
-90.000000
 51
0.000000
  0
ARC
  8
0
  6
CONTINUOUS
 10
278.269989
 20
302.390015
 40
1.000000
 50
0.000000
 51
90.000000
  0
ARC
  8
0
  6
CONTINUOUS
 10
233.269989
 20
302.390015
 40
1.000000
 50
-270.000000
 51
-180.000000
  0
LINE
  8
0
  6
CONTINUOUS
 10
255.770004
 20
319.390015
 11
295.430634
 21
319.390015
  0
LINE
  8
0
  6
CONTINUOUS
 10
378.769989
 20
254.523972
 11
378.769989
 21
216.389999
  0
TEXT
  8
0
 10
-22.000000
 20
3.000000
 40
4.000000
 41
1.000000
  1
HLM-18L-10~240-T60W
 50
0.000000
  0
ENDSEC
  0
EOF
