  0
SECTION
  2
HEADER
  9
$CLAYER
  8
1
  9
$LTSCALE
 40
3.0
  0
ENDSEC
  0
SECTION
  2
TABLES
  0
TABLE
  2
LTYPE
 70
     4
  0
LTYPE
  2
CONTINUOUS
  3
solid line
 70
    64
 72
    65
 73
     0
 40
0.0
  0
LTYPE
  2
DASHED
  3
__ __ __ __ __ __ __ __ __ __ __ __ __ __ __
 70
    64
 72
    65
 73
     2
 40
0.75
 49
0.5
 49
-0.25
  0
LTYPE
  2
CENTER
  3
____ _ ____ _ ____ _ ____ _ ____ _ ____ _ ____
 70
    64
 72
    65
 73
     4
 40
2.0
 49
1.25
 49
-0.25
 49
0.25
 49
-0.25
  0
LTYPE
  2
PHANTOM
  3
_____ _ _ _____ _ _ _____ _ _ _____ _ _ ____
 70
    64
 72
    65
 73
     6
 40
2.5
 49
1.25
 49
-0.25
 49
0.25
 49
-0.25
 49
0.25
 49
-0.25
  0
ENDTAB
  0
TABLE
  2
LAYER
 70
     1
  0
LAYER
  2
0
 70
    64
 62
     7
  6
CONTINUOUS
  0
ENDTAB
  0
TABLE
  2
STYLE
 70
     1
  0
STYLE
  2
STANDARD
 70
     0
 40
0.000000
 41
1.000000
 50
0.000000
 71
     0
 42
3.000000
  3
txt
  4
BIGFONT
  0
ENDTAB
  0
ENDSEC
  0
SECTION
  2
BLOCKS
  0
ENDSEC
  0
SECTION
  2
ENTITIES
  0
LINE
  8
0
  6
CENTER
 10
65.320000
 20
-4.840740
 11
65.320000
 21
153.579056
  0
LINE
  8
0
  6
CENTER
 10
12.195000
 20
52.365002
 11
119.570000
 21
52.365002
  0
LINE
  8
0
  6
CONTINUOUS
 10
123.320000
 20
10.065000
 11
123.320000
 21
3.065000
  0
LINE
  8
0
  6
CONTINUOUS
 10
7.320000
 20
10.065000
 11
7.320000
 21
3.065000
  0
LINE
  8
0
  6
CONTINUOUS
 10
7.320000
 20
3.065000
 11
123.320000
 21
3.065000
  0
LINE
  8
0
  6
CONTINUOUS
 10
105.320000
 20
12.065000
 11
121.320000
 21
12.065000
  0
LINE
  8
0
  6
CONTINUOUS
 10
28.320000
 20
15.065000
 11
28.320000
 21
113.453629
  0
LINE
  8
0
  6
CONTINUOUS
 10
102.319977
 20
15.065000
 11
102.320000
 21
113.453758
  0
LINE
  8
0
  6
CONTINUOUS
 10
107.320000
 20
55.564999
 11
107.320000
 21
100.565002
  0
LINE
  8
0
  6
CONTINUOUS
 10
106.320000
 20
101.565002
 11
104.320023
 21
101.565002
  0
LINE
  8
0
  6
CONTINUOUS
 10
106.320000
 20
54.564999
 11
104.320023
 21
54.564999
  0
LINE
  8
0
  6
CONTINUOUS
 10
65.320000
 20
116.065002
 11
100.354897
 21
115.453468
  0
LINE
  8
0
  6
CONTINUOUS
 10
30.285089
 20
115.453331
 11
65.320000
 21
116.065002
  0
ARC
  8
0
  6
CONTINUOUS
 10
104.320000
 20
103.565002
 40
2.000000
 50
180.000000
 51
270.000000
  0
ARC
  8
0
  6
CONTINUOUS
 10
100.320023
 20
113.453758
 40
2.000000
 50
0.000000
 51
89.000137
  0
ARC
  8
0
  6
CONTINUOUS
 10
30.320009
 20
113.453644
 40
2.000000
 50
91.000641
 51
180.000000
  0
ARC
  8
0
  6
CONTINUOUS
 10
104.320023
 20
52.565006
 40
2.000000
 50
90.000000
 51
180.000000
  0
ARC
  8
0
  6
CONTINUOUS
 10
106.320000
 20
100.564987
 40
1.000000
 50
0.000000
 51
90.000000
  0
ARC
  8
0
  6
CONTINUOUS
 10
106.320000
 20
55.564995
 40
1.000000
 50
-90.000000
 51
0.000000
  0
LINE
  8
0
  6
CONTINUOUS
 10
30.340570
 20
92.565002
 11
100.477547
 21
92.565002
  0
ARC
  8
0
  6
CONTINUOUS
 10
121.320000
 20
10.064990
 40
2.000000
 50
0.000000
 51
90.000000
  0
ARC
  8
0
  6
CONTINUOUS
 10
9.320011
 20
10.065010
 40
2.000000
 50
90.000000
 51
180.000000
  0
LINE
  8
0
  6
CENTER
 10
113.320000
 20
16.021250
 11
113.320000
 21
-1.228750
  0
LINE
  8
0
  6
CENTER
 10
17.320000
 20
16.021250
 11
17.320000
 21
-1.978750
  0
LINE
  8
0
  6
DASHED
 10
21.570000
 20
12.065000
 11
21.570000
 21
3.065000
  0
LINE
  8
0
  6
DASHED
 10
13.070000
 20
12.065000
 11
13.070000
 21
3.065000
  0
LINE
  8
0
  6
DASHED
 10
117.570000
 20
12.065000
 11
117.570000
 21
3.065000
  0
LINE
  8
0
  6
DASHED
 10
109.070000
 20
12.065000
 11
109.070000
 21
3.065000
  0
ARC
  8
0
  6
CONTINUOUS
 10
65.320000
 20
52.365002
 40
45.000000
 50
158.960602
 51
214.692093
  0
ARC
  8
0
  6
CONTINUOUS
 10
65.320000
 20
52.365002
 40
45.000000
 50
-34.692108
 51
20.437799
  0
LINE
  8
0
  6
CONTINUOUS
 10
23.320000
 20
55.564999
 11
23.320000
 21
100.565002
  0
LINE
  8
0
  6
CONTINUOUS
 10
24.320000
 20
101.565002
 11
26.319988
 21
101.565002
  0
LINE
  8
0
  6
CONTINUOUS
 10
24.320000
 20
54.564999
 11
26.319988
 21
54.564999
  0
ARC
  8
0
  6
CONTINUOUS
 10
26.320000
 20
103.565002
 40
2.000000
 50
-90.000000
 51
0.000000
  0
ARC
  8
0
  6
CONTINUOUS
 10
26.319988
 20
52.565006
 40
2.000000
 50
0.000000
 51
90.000000
  0
ARC
  8
0
  6
CONTINUOUS
 10
24.320000
 20
100.564987
 40
1.000000
 50
90.000000
 51
180.000000
  0
ARC
  8
0
  6
CONTINUOUS
 10
24.320000
 20
55.564995
 40
1.000000
 50
180.000000
 51
270.000000
  0
LINE
  8
0
  6
CENTER
 10
15.570000
 20
78.065002
 11
151.070007
 21
78.065002
  0
LINE
  8
0
  6
CONTINUOUS
 10
25.320000
 20
12.065010
 11
9.320000
 21
12.065000
  0
ARC
  8
0
  6
CONTINUOUS
 10
25.320000
 20
15.065000
 40
3.000000
 50
-90.000000
 51
0.000000
  0
ARC
  8
0
  6
CONTINUOUS
 10
105.320000
 20
15.065000
 40
3.000000
 50
180.000000
 51
270.000000
  0
LINE
  8
0
  6
CONTINUOUS
 10
112.320000
 20
26.264481
 11
112.320000
 21
69.065002
  0
LINE
  8
0
  6
CONTINUOUS
 10
18.320000
 20
78.465508
 11
18.320000
 21
26.264490
  0
LINE
  8
0
  6
CONTINUOUS
 10
110.269760
 20
21.314751
 11
102.650742
 21
13.695670
  0
LINE
  8
0
  6
CONTINUOUS
 10
20.370251
 20
21.314751
 11
27.989281
 21
13.695720
  0
LINE
  8
0
  6
CONTINUOUS
 10
20.370251
 20
83.415253
 11
23.320000
 21
86.364998
  0
ARC
  8
0
  6
CONTINUOUS
 10
105.320000
 20
26.264469
 40
7.000000
 50
-44.999630
 51
0.000000
  0
ARC
  8
0
  6
CONTINUOUS
 10
25.319981
 20
26.264549
 40
7.000000
 50
180.000000
 51
225.000397
  0
ARC
  8
0
  6
CONTINUOUS
 10
25.320019
 20
78.465538
 40
7.000000
 50
135.000305
 51
180.000000
  0
LINE
  8
0
  6
CONTINUOUS
 10
139.320007
 20
69.065002
 11
139.320007
 21
87.065002
  0
LINE
  8
0
  6
CONTINUOUS
 10
109.320000
 20
87.065002
 11
139.320007
 21
87.065002
  0
LINE
  8
0
  6
CONTINUOUS
 10
109.320000
 20
69.065002
 11
139.320007
 21
69.065002
  0
LINE
  8
0
  6
CONTINUOUS
 10
109.320000
 20
88.065002
 11
109.320000
 21
68.065002
  0
LINE
  8
0
  6
CONTINUOUS
 10
107.320000
 20
88.065002
 11
109.320000
 21
88.065002
  0
LINE
  8
0
  6
CONTINUOUS
 10
107.320000
 20
68.065002
 11
109.320000
 21
68.065002
  0
ARC
  8
0
  6
CONTINUOUS
 10
115.320000
 20
78.065002
 40
3.000000
 50
90.000000
 51
270.000000
  0
LINE
  8
0
  6
CONTINUOUS
 10
115.320000
 20
81.065002
 11
139.320007
 21
81.065002
  0
LINE
  8
0
  6
CONTINUOUS
 10
115.320023
 20
75.065002
 11
139.320007
 21
75.065002
  0
LINE
  8
0
  6
CONTINUOUS
 10
391.320007
 20
7.365000
 11
391.320007
 21
97.364998
  0
LINE
  8
0
  6
CENTER
 10
461.709381
 20
52.365002
 11
297.101257
 21
52.365002
  0
LINE
  8
0
  6
CONTINUOUS
 10
217.820007
 20
10.065000
 11
217.820007
 21
3.065000
  0
LINE
  8
0
  6
CONTINUOUS
 10
318.820007
 20
10.064990
 11
318.820007
 21
3.065000
  0
LINE
  8
0
  6
CONTINUOUS
 10
391.320007
 20
7.365000
 11
318.820007
 21
7.365000
  0
LINE
  8
0
  6
CONTINUOUS
 10
391.320007
 20
97.364998
 11
311.977386
 21
97.364998
  0
LINE
  8
0
  6
CENTER
 10
268.320007
 20
126.052498
 11
268.320007
 21
-4.840750
  0
LINE
  8
0
  6
CENTER
 10
303.607513
 20
78.065002
 11
233.014694
 21
78.065002
  0
LINE
  8
0
  6
CONTINUOUS
 10
318.820007
 20
3.065000
 11
217.820007
 21
3.065000
  0
LINE
  8
0
  6
CONTINUOUS
 10
283.741089
 20
116.065002
 11
252.898895
 21
116.065002
  0
LINE
  8
0
  6
CONTINUOUS
 10
316.820007
 20
12.065000
 11
219.820007
 21
12.065000
  0
LINE
  8
0
  6
CENTER
 10
230.320007
 20
17.552500
 11
230.320007
 21
-3.697500
  0
LINE
  8
0
  6
CENTER
 10
306.320007
 20
17.802500
 11
306.320007
 21
-4.197500
  0
LINE
  8
0
  6
CONTINUOUS
 10
219.948593
 20
94.058182
 11
250.027496
 21
115.158287
  0
LINE
  8
0
  6
CONTINUOUS
 10
316.691406
 20
94.058182
 11
286.612488
 21
115.158279
  0
ARC
  8
0
  6
CONTINUOUS
 10
252.898804
 20
111.064987
 40
5.000000
 50
90.000000
 51
125.049103
  0
ARC
  8
0
  6
CONTINUOUS
 10
283.741089
 20
111.065002
 40
5.000000
 50
54.950329
 51
90.000000
  0
ARC
  8
0
  6
CONTINUOUS
 10
313.820007
 20
89.964928
 40
5.000000
 50
0.000000
 51
54.950199
  0
ARC
  8
0
  6
CONTINUOUS
 10
222.820007
 20
89.964882
 40
5.000000
 50
125.049103
 51
180.000000
  0
LINE
  8
0
  6
CONTINUOUS
 10
217.820007
 20
10.065000
 11
217.820007
 21
89.964897
  0
ARC
  8
0
  6
CONTINUOUS
 10
219.820007
 20
10.064990
 40
2.000000
 50
90.000000
 51
180.000000
  0
LINE
  8
0
  6
CONTINUOUS
 10
318.820007
 20
10.064990
 11
318.820007
 21
89.964897
  0
ARC
  8
0
  6
CONTINUOUS
 10
316.820007
 20
10.065000
 40
2.000000
 50
0.000000
 51
90.000000
  0
LINE
  8
0
  6
DASHED
 10
226.070007
 20
12.065000
 11
226.070007
 21
3.065000
  0
LINE
  8
0
  6
DASHED
 10
234.570007
 20
12.065000
 11
234.570007
 21
3.065000
  0
LINE
  8
0
  6
DASHED
 10
302.070007
 20
12.065000
 11
302.070007
 21
3.065000
  0
LINE
  8
0
  6
DASHED
 10
310.570007
 20
12.065000
 11
310.570007
 21
3.065000
  0
CIRCLE
  8
0
  6
CONTINUOUS
 10
268.320007
 20
78.065002
 40
23.500000
  0
CIRCLE
  8
0
  6
CONTINUOUS
 10
268.320007
 20
78.065002
 40
23.500000
  0
LINE
  8
0
  6
CONTINUOUS
 10
261.946014
 20
40.619099
 11
261.946014
 21
35.064999
  0
LINE
  8
0
  6
CONTINUOUS
 10
265.134003
 20
42.636501
 11
265.134003
 21
44.629009
  0
LINE
  8
0
  6
CONTINUOUS
 10
271.510010
 20
42.636501
 11
271.510010
 21
44.629009
  0
LINE
  8
0
  6
CONTINUOUS
 10
267.699310
 20
43.458412
 11
267.699310
 21
36.111061
  0
LINE
  8
0
  6
CONTINUOUS
 10
268.894806
 20
43.458412
 11
268.894806
 21
36.111061
  0
LINE
  8
0
  6
CONTINUOUS
 10
275.171204
 20
43.458412
 11
275.171204
 21
36.061260
  0
LINE
  8
0
  6
CONTINUOUS
 10
276.267090
 20
39.535671
 11
276.267090
 21
36.061260
  0
LINE
  8
0
  6
CONTINUOUS
 10
260.433289
 20
43.358791
 11
257.360809
 21
43.358791
  0
LINE
  8
0
  6
CONTINUOUS
 10
257.360809
 20
43.358791
 11
256.640991
 21
42.466152
  0
LINE
  8
0
  6
CONTINUOUS
 10
256.727509
 20
44.629009
 11
255.570007
 21
43.146786
  0
LINE
  8
0
  6
CONTINUOUS
 10
256.640991
 20
36.956219
 11
257.372406
 21
36.185791
  0
LINE
  8
0
  6
CONTINUOUS
 10
255.570007
 20
36.306042
 11
256.799988
 21
35.064999
  0
LINE
  8
0
  6
CONTINUOUS
 10
255.570007
 20
43.146786
 11
255.570007
 21
36.306042
  0
LINE
  8
0
  6
CONTINUOUS
 10
256.640991
 20
42.466152
 11
256.640991
 21
36.956219
  0
LINE
  8
0
  6
CONTINUOUS
 10
261.024506
 20
42.787254
 11
260.421204
 21
43.358791
  0
LINE
  8
0
  6
CONTINUOUS
 10
261.014893
 20
44.629009
 11
261.946014
 21
43.595699
  0
LINE
  8
0
  6
CONTINUOUS
 10
261.024506
 20
42.636501
 11
261.946014
 21
42.636501
  0
LINE
  8
0
  6
CONTINUOUS
 10
256.727509
 20
44.629009
 11
261.014893
 21
44.629009
  0
LINE
  8
0
  6
CONTINUOUS
 10
261.024506
 20
39.573040
 11
259.355804
 21
39.573040
  0
LINE
  8
0
  6
CONTINUOUS
 10
261.024506
 20
38.576790
 11
261.024506
 21
39.373791
  0
LINE
  8
0
  6
CONTINUOUS
 10
259.032013
 20
36.185791
 11
257.372406
 21
36.185791
  0
ARC
  8
0
  6
CONTINUOUS
 10
259.032013
 20
38.178280
 40
1.992500
 50
-89.999786
 51
0.000109
  0
LINE
  8
0
  6
CONTINUOUS
 10
261.024506
 20
35.827389
 11
261.024506
 21
35.064999
  0
LINE
  8
0
  6
CONTINUOUS
 10
261.946014
 20
43.595699
 11
261.946014
 21
42.636501
  0
LINE
  8
0
  6
CONTINUOUS
 10
261.024506
 20
39.573040
 11
261.024506
 21
38.178280
  0
LINE
  8
0
  6
CONTINUOUS
 10
259.355804
 20
40.619099
 11
259.355804
 21
39.573040
  0
LINE
  8
0
  6
CONTINUOUS
 10
261.024506
 20
35.064999
 11
261.946014
 21
35.064999
  0
LINE
  8
0
  6
CONTINUOUS
 10
261.024506
 20
35.827389
 11
260.115814
 21
35.064999
  0
LINE
  8
0
  6
CONTINUOUS
 10
268.894806
 20
36.111061
 11
269.293304
 21
36.111061
  0
LINE
  8
0
  6
CONTINUOUS
 10
267.226105
 20
36.111061
 11
267.226105
 21
35.064999
  0
LINE
  8
0
  6
CONTINUOUS
 10
269.293304
 20
36.111061
 11
269.293304
 21
35.064999
  0
LINE
  8
0
  6
CONTINUOUS
 10
270.844910
 20
42.636501
 11
271.510010
 21
42.636501
  0
LINE
  8
0
  6
CONTINUOUS
 10
265.134003
 20
42.636501
 11
265.841705
 21
42.636501
  0
LINE
  8
0
  6
CONTINUOUS
 10
265.134003
 20
44.629009
 11
271.510010
 21
44.629009
  0
LINE
  8
0
  6
CONTINUOUS
 10
267.226105
 20
35.064999
 11
269.293304
 21
35.064999
  0
LINE
  8
0
  6
CONTINUOUS
 10
267.226105
 20
36.111061
 11
267.699310
 21
36.111061
  0
ARC
  8
0
  6
CONTINUOUS
 10
278.521088
 20
42.076111
 40
2.552891
 50
-73.981873
 51
90.003510
  0
ARC
  8
0
  6
CONTINUOUS
 10
278.521088
 20
42.076111
 40
1.557438
 50
-82.585274
 51
62.411850
  0
LINE
  8
0
  6
CONTINUOUS
 10
274.697998
 20
44.629009
 11
278.521088
 21
44.629009
  0
LINE
  8
0
  6
CONTINUOUS
 10
274.697998
 20
44.629009
 11
274.697998
 21
43.458412
  0
LINE
  8
0
  6
CONTINUOUS
 10
276.267090
 20
43.458412
 11
276.267090
 21
40.531689
  0
LINE
  8
0
  6
CONTINUOUS
 10
279.225586
 20
39.622341
 11
280.805603
 21
36.061260
  0
LINE
  8
0
  6
CONTINUOUS
 10
278.307800
 20
39.535671
 11
279.803192
 21
36.061260
  0
LINE
  8
0
  6
CONTINUOUS
 10
274.697998
 20
36.061260
 11
275.171204
 21
36.061260
  0
LINE
  8
0
  6
CONTINUOUS
 10
276.267090
 20
36.061260
 11
276.702911
 21
36.061260
  0
LINE
  8
0
  6
CONTINUOUS
 10
276.702911
 20
35.064999
 11
274.697998
 21
35.064999
  0
LINE
  8
0
  6
CONTINUOUS
 10
279.604492
 20
36.061260
 11
279.803192
 21
36.061260
  0
LINE
  8
0
  6
CONTINUOUS
 10
280.805603
 20
36.061260
 11
281.074005
 21
36.061260
  0
LINE
  8
0
  6
CONTINUOUS
 10
279.604492
 20
35.064999
 11
281.074005
 21
35.064999
  0
LINE
  8
0
  6
CONTINUOUS
 10
281.074005
 20
36.061260
 11
281.074005
 21
35.064999
  0
LINE
  8
0
  6
CONTINUOUS
 10
279.604492
 20
36.061260
 11
279.604492
 21
35.064999
  0
LINE
  8
0
  6
CONTINUOUS
 10
276.702911
 20
36.061260
 11
276.702911
 21
35.064999
  0
LINE
  8
0
  6
CONTINUOUS
 10
274.697998
 20
36.061260
 11
274.697998
 21
35.064999
  0
LINE
  8
0
  6
CONTINUOUS
 10
266.184204
 20
43.458412
 11
265.841705
 21
42.636501
  0
LINE
  8
0
  6
CONTINUOUS
 10
270.556091
 20
43.458412
 11
270.844910
 21
42.636501
  0
LINE
  8
0
  6
CONTINUOUS
 10
268.894806
 20
43.458412
 11
270.556091
 21
43.458412
  0
LINE
  8
0
  6
CONTINUOUS
 10
267.699310
 20
43.458412
 11
266.184204
 21
43.458412
  0
LINE
  8
0
  6
CONTINUOUS
 10
274.697998
 20
43.458412
 11
275.171204
 21
43.458412
  0
LINE
  8
0
  6
CONTINUOUS
 10
276.267090
 20
43.458412
 11
279.242401
 21
43.456474
  0
LINE
  8
0
  6
CONTINUOUS
 10
261.024506
 20
42.787254
 11
261.024506
 21
42.636501
  0
LINE
  8
0
  6
CONTINUOUS
 10
256.799988
 20
35.064999
 11
260.115814
 21
35.064999
  0
LINE
  8
0
  6
CONTINUOUS
 10
276.267090
 20
40.531689
 11
278.722107
 21
40.531689
  0
LINE
  8
0
  6
CONTINUOUS
 10
276.267090
 20
39.535671
 11
278.307800
 21
39.535671
  0
LINE
  8
0
  6
CONTINUOUS
 10
259.355804
 20
40.619099
 11
261.946014
 21
40.619099
  0
LINE
  8
0
  6
CONTINUOUS
 10
320.737915
 20
86.774300
 11
391.320007
 21
86.774300
  0
LINE
  8
0
  6
CONTINUOUS
 10
320.737915
 20
17.955700
 11
391.320007
 21
17.955700
  0
LINE
  8
0
  6
CONTINUOUS
 10
400.820007
 20
97.364998
 11
391.320007
 21
97.364998
  0
LINE
  8
0
  6
CONTINUOUS
 10
391.320007
 20
86.774300
 11
400.820007
 21
86.774300
  0
LINE
  8
0
  6
CONTINUOUS
 10
400.820007
 20
7.365000
 11
391.320007
 21
7.365000
  0
LINE
  8
0
  6
CONTINUOUS
 10
391.320007
 20
17.955700
 11
400.820007
 21
17.955700
  0
LINE
  8
0
  6
CONTINUOUS
 10
400.820007
 20
99.364998
 11
400.820007
 21
5.365000
  0
LINE
  8
0
  6
CONTINUOUS
 10
400.820007
 20
81.364998
 11
444.795013
 21
81.364998
  0
LINE
  8
0
  6
CONTINUOUS
 10
400.820007
 20
23.365000
 11
444.795013
 21
23.365000
  0
LINE
  8
0
  6
CONTINUOUS
 10
443.320007
 20
99.364998
 11
400.820007
 21
99.364998
  0
LINE
  8
0
  6
CONTINUOUS
 10
443.320007
 20
5.365000
 11
400.820007
 21
5.365000
  0
ARC
  8
0
  6
CONTINUOUS
 10
443.320007
 20
94.365028
 40
5.000000
 50
0.000000
 51
90.000000
  0
ARC
  8
0
  6
CONTINUOUS
 10
443.320007
 20
10.365000
 40
5.000000
 50
-90.000000
 51
0.000000
  0
LINE
  8
0
  6
CONTINUOUS
 10
448.320007
 20
94.365013
 11
448.320007
 21
10.364990
  0
LINE
  8
0
  6
CONTINUOUS
 10
262.820007
 20
81.065002
 11
262.820007
 21
75.065002
  0
LINE
  8
0
  6
CONTINUOUS
 10
256.820007
 20
81.065002
 11
256.820007
 21
75.065002
  0
LINE
  8
0
  6
CONTINUOUS
 10
256.820007
 20
81.065002
 11
262.820007
 21
81.065002
  0
LINE
  8
0
  6
CONTINUOUS
 10
256.820007
 20
75.065002
 11
262.820007
 21
75.065002
  0
ARC
  8
0
  6
CONTINUOUS
 10
268.320007
 20
78.065002
 40
9.000000
 50
-160.528793
 51
160.528793
  0
LINE
  8
0
  6
CENTER
 10
268.320007
 20
170.991882
 11
268.320007
 21
318.846252
  0
LINE
  8
0
  6
CENTER
 10
230.320007
 20
192.643753
 11
230.320007
 21
213.973755
  0
LINE
  8
0
  6
CENTER
 10
460.306244
 20
251.869370
 11
204.178757
 21
251.869370
  0
LINE
  8
0
  6
CONTINUOUS
 10
218.660889
 20
203.694855
 11
217.820007
 21
251.869370
  0
LINE
  8
0
  6
CONTINUOUS
 10
228.659363
 20
193.869370
 11
256.820007
 21
193.869370
  0
LINE
  8
0
  6
CONTINUOUS
 10
316.820007
 20
214.869370
 11
220.431229
 21
214.869370
  0
ARC
  8
0
  6
CONTINUOUS
 10
228.659363
 20
203.869370
 40
10.000000
 50
-179.000000
 51
-90.000000
  0
ARC
  8
0
  6
CONTINUOUS
 10
220.431229
 20
216.869370
 40
2.000000
 50
-179.000000
 51
-90.000000
  0
LINE
  8
0
  6
CENTER
 10
241.812195
 20
203.869370
 11
220.679688
 21
203.869370
  0
CIRCLE
  8
0
  6
CONTINUOUS
 10
230.320007
 20
203.869370
 40
4.250000
  0
LINE
  8
0
  6
CENTER
 10
306.320007
 20
192.446243
 11
306.320007
 21
213.776245
  0
LINE
  8
0
  6
CONTINUOUS
 10
317.979126
 20
203.694855
 11
318.165100
 21
214.349487
  0
ARC
  8
0
  6
CONTINUOUS
 10
307.980621
 20
203.869370
 40
10.000000
 50
-90.000000
 51
-1.000000
  0
ARC
  8
0
  6
CONTINUOUS
 10
316.208771
 20
216.869370
 40
2.000000
 50
-90.000000
 51
-1.000000
  0
LINE
  8
0
  6
CENTER
 10
295.630951
 20
203.869370
 11
316.269684
 21
203.869370
  0
CIRCLE
  8
0
  6
CONTINUOUS
 10
306.320007
 20
203.869370
 40
4.250000
  0
LINE
  8
0
  6
CONTINUOUS
 10
318.820007
 20
212.869370
 11
318.820007
 21
208.869370
  0
LINE
  8
0
  6
CONTINUOUS
 10
320.820007
 20
206.869370
 11
391.320007
 21
206.869370
  0
ARC
  8
0
  6
CONTINUOUS
 10
320.820007
 20
208.869370
 40
2.000000
 50
-180.000000
 51
-90.000000
  0
ARC
  8
0
  6
CONTINUOUS
 10
316.820007
 20
212.869370
 40
2.000000
 50
0.000000
 51
90.000000
  0
LINE
  8
0
  6
CONTINUOUS
 10
318.208466
 20
216.834473
 11
318.313812
 21
222.869370
  0
LINE
  8
0
  6
CONTINUOUS
 10
391.320007
 20
222.869370
 11
311.977448
 21
222.869370
  0
LINE
  8
0
  6
CONTINUOUS
 10
391.320007
 20
280.869385
 11
311.977448
 21
280.869385
  0
LINE
  8
0
  6
CONTINUOUS
 10
320.820007
 20
296.869385
 11
391.320007
 21
296.869385
  0
ARC
  8
0
  6
CONTINUOUS
 10
320.820007
 20
294.869385
 40
2.000000
 50
-270.000000
 51
-180.000000
  0
LINE
  8
0
  6
CENTER
 10
230.320007
 20
313.711243
 11
230.320007
 21
289.616241
  0
LINE
  8
0
  6
CONTINUOUS
 10
218.660889
 20
300.043884
 11
217.820007
 21
251.869370
  0
LINE
  8
0
  6
CONTINUOUS
 10
228.659363
 20
309.869385
 11
268.320007
 21
309.869385
  0
LINE
  8
0
  6
CONTINUOUS
 10
316.820007
 20
288.869385
 11
220.431229
 21
288.869385
  0
ARC
  8
0
  6
CONTINUOUS
 10
228.659363
 20
299.869385
 40
10.000000
 50
-270.000000
 51
-181.000000
  0
ARC
  8
0
  6
CONTINUOUS
 10
220.431229
 20
286.869385
 40
2.000000
 50
-270.000000
 51
-181.000000
  0
LINE
  8
0
  6
CENTER
 10
240.824692
 20
299.869385
 11
220.284683
 21
299.869385
  0
CIRCLE
  8
0
  6
CONTINUOUS
 10
230.320007
 20
299.869385
 40
4.250000
  0
LINE
  8
0
  6
CENTER
 10
306.320007
 20
314.106262
 11
306.320007
 21
289.418762
  0
LINE
  8
0
  6
CONTINUOUS
 10
317.979126
 20
300.043884
 11
318.165100
 21
289.389252
  0
ARC
  8
0
  6
CONTINUOUS
 10
307.980621
 20
299.869385
 40
10.000000
 50
-359.000000
 51
-270.000000
  0
ARC
  8
0
  6
CONTINUOUS
 10
316.208771
 20
286.869385
 40
2.000000
 50
-359.000000
 51
-270.000000
  0
LINE
  8
0
  6
CENTER
 10
296.914673
 20
299.869385
 11
316.467194
 21
299.869385
  0
CIRCLE
  8
0
  6
CONTINUOUS
 10
306.320007
 20
299.869385
 40
4.250000
  0
LINE
  8
0
  6
CONTINUOUS
 10
318.820007
 20
290.869385
 11
318.820007
 21
294.869385
  0
ARC
  8
0
  6
CONTINUOUS
 10
316.820007
 20
290.869385
 40
2.000000
 50
-90.000000
 51
0.000000
  0
LINE
  8
0
  6
CONTINUOUS
 10
318.208466
 20
286.904266
 11
318.313812
 21
280.869385
  0
LINE
  8
0
  6
CONTINUOUS
 10
285.320007
 20
219.869370
 11
285.320007
 21
283.869385
  0
LINE
  8
0
  6
CONTINUOUS
 10
251.320007
 20
219.869370
 11
251.320007
 21
283.869385
  0
LINE
  8
0
  6
CONTINUOUS
 10
311.977448
 20
224.869370
 11
311.977448
 21
278.869385
  0
LINE
  8
0
  6
CONTINUOUS
 10
245.819992
 20
209.869370
 11
290.820007
 21
209.869370
  0
LINE
  8
0
  6
CONTINUOUS
 10
291.820007
 20
210.869370
 11
291.820007
 21
212.869370
  0
LINE
  8
0
  6
CONTINUOUS
 10
244.819992
 20
210.869370
 11
244.819992
 21
212.869370
  0
ARC
  8
0
  6
CONTINUOUS
 10
293.820007
 20
212.869370
 40
2.000000
 50
-270.000000
 51
-180.000000
  0
ARC
  8
0
  6
CONTINUOUS
 10
242.820007
 20
212.869370
 40
2.000000
 50
0.000000
 51
90.000000
  0
ARC
  8
0
  6
CONTINUOUS
 10
290.819977
 20
210.869370
 40
1.000000
 50
-90.000000
 51
0.000000
  0
ARC
  8
0
  6
CONTINUOUS
 10
245.819992
 20
210.869370
 40
1.000000
 50
-180.000000
 51
-90.000000
  0
LINE
  8
0
  6
CONTINUOUS
 10
256.820007
 20
177.869370
 11
277.320007
 21
177.869370
  0
LINE
  8
0
  6
CONTINUOUS
 10
277.320007
 20
207.869370
 11
277.320007
 21
177.869370
  0
LINE
  8
0
  6
CONTINUOUS
 10
259.320007
 20
207.869370
 11
259.320007
 21
204.869370
  0
LINE
  8
0
  6
CONTINUOUS
 10
278.320007
 20
207.869370
 11
258.320007
 21
207.869370
  0
LINE
  8
0
  6
CONTINUOUS
 10
278.320007
 20
209.869370
 11
278.320007
 21
207.869370
  0
LINE
  8
0
  6
CONTINUOUS
 10
258.320007
 20
209.869370
 11
258.320007
 21
207.869370
  0
LINE
  8
0
  6
CONTINUOUS
 10
256.820007
 20
177.869370
 11
256.820007
 21
204.869370
  0
LINE
  8
0
  6
CONTINUOUS
 10
256.820007
 20
204.869370
 11
259.834991
 21
204.869370
  0
LINE
  8
0
  6
CONTINUOUS
 10
259.834991
 20
177.869370
 11
259.834991
 21
204.869370
  0
LINE
  8
0
  6
CONTINUOUS
 10
277.320007
 20
193.869370
 11
307.980621
 21
193.869370
  0
LINE
  8
0
  6
CONTINUOUS
 10
245.819992
 20
293.869385
 11
290.820007
 21
293.869385
  0
LINE
  8
0
  6
CONTINUOUS
 10
291.820007
 20
292.869385
 11
291.820007
 21
290.869385
  0
LINE
  8
0
  6
CONTINUOUS
 10
244.819992
 20
292.869385
 11
244.819992
 21
290.869385
  0
ARC
  8
0
  6
CONTINUOUS
 10
293.820007
 20
290.869385
 40
2.000000
 50
-180.000000
 51
-90.000000
  0
ARC
  8
0
  6
CONTINUOUS
 10
242.820007
 20
290.869385
 40
2.000000
 50
-90.000000
 51
0.000000
  0
ARC
  8
0
  6
CONTINUOUS
 10
290.819977
 20
292.869385
 40
1.000000
 50
0.000000
 51
90.000000
  0
ARC
  8
0
  6
CONTINUOUS
 10
245.819992
 20
292.869385
 40
1.000000
 50
-270.000000
 51
-180.000000
  0
LINE
  8
0
  6
CONTINUOUS
 10
268.320007
 20
309.869385
 11
307.980621
 21
309.869385
  0
LINE
  8
0
  6
CONTINUOUS
 10
400.820007
 20
206.869370
 11
391.320007
 21
206.869370
  0
LINE
  8
0
  6
CONTINUOUS
 10
391.320007
 20
222.869370
 11
400.820007
 21
222.869370
  0
LINE
  8
0
  6
CONTINUOUS
 10
400.820007
 20
296.869385
 11
391.320007
 21
296.869385
  0
LINE
  8
0
  6
CONTINUOUS
 10
391.320007
 20
296.869385
 11
391.320007
 21
276.869385
  0
LINE
  8
0
  6
CONTINUOUS
 10
391.320007
 20
280.869385
 11
400.820007
 21
280.869385
  0
LINE
  8
0
  6
CONTINUOUS
 10
391.320007
 20
226.869400
 11
391.320007
 21
206.869370
  0
LINE
  8
0
  6
CONTINUOUS
 10
400.820007
 20
204.869370
 11
400.820007
 21
251.869370
  0
LINE
  8
0
  6
CONTINUOUS
 10
400.820007
 20
222.869370
 11
444.795044
 21
222.869370
  0
LINE
  8
0
  6
CONTINUOUS
 10
400.820007
 20
280.869385
 11
444.795044
 21
280.869385
  0
LINE
  8
0
  6
CONTINUOUS
 10
443.320007
 20
204.869370
 11
400.820007
 21
204.869370
  0
LINE
  8
0
  6
CONTINUOUS
 10
443.320007
 20
298.869385
 11
400.820007
 21
298.869385
  0
ARC
  8
0
  6
CONTINUOUS
 10
443.319977
 20
209.869370
 40
5.000000
 50
-90.000000
 51
0.000000
  0
ARC
  8
0
  6
CONTINUOUS
 10
443.320007
 20
293.869385
 40
5.000000
 50
0.000000
 51
90.000000
  0
LINE
  8
0
  6
CONTINUOUS
 10
448.319977
 20
209.869370
 11
448.320007
 21
293.869385
  0
LINE
  8
0
  6
CONTINUOUS
 10
400.820007
 20
251.869370
 11
400.820007
 21
298.869385
  0
LINE
  8
0
  6
CONTINUOUS
 10
400.320007
 20
274.869385
 11
400.320007
 21
228.869400
  0
LINE
  8
0
  6
CONTINUOUS
 10
398.320007
 20
226.869400
 11
400.320007
 21
228.869400
  0
LINE
  8
0
  6
CONTINUOUS
 10
398.320007
 20
226.869400
 11
352.320007
 21
226.869400
  0
LINE
  8
0
  6
CONTINUOUS
 10
357.820007
 20
231.369400
 11
357.820007
 21
226.869400
  0
ARC
  8
0
  6
CONTINUOUS
 10
354.820007
 20
231.369400
 40
3.000000
 50
0.000000
 51
90.000000
  0
LINE
  8
0
  6
CONTINUOUS
 10
354.820007
 20
234.369400
 11
350.320007
 21
234.369400
  0
CIRCLE
  8
0
  6
CONTINUOUS
 10
353.820007
 20
230.369400
 40
2.250000
  0
LINE
  8
0
  6
CONTINUOUS
 10
350.320007
 20
274.869385
 11
350.320007
 21
228.869400
  0
LINE
  8
0
  6
CONTINUOUS
 10
352.320007
 20
226.869400
 11
350.320007
 21
228.869400
  0
LINE
  8
0
  6
CONTINUOUS
 10
352.320007
 20
276.869385
 11
350.320007
 21
274.869385
  0
LINE
  8
0
  6
CONTINUOUS
 10
352.320007
 20
276.869385
 11
398.320007
 21
276.869385
  0
LINE
  8
0
  6
CONTINUOUS
 10
400.320007
 20
274.869385
 11
398.320007
 21
276.869385
  0
LINE
  8
0
  6
CONTINUOUS
 10
395.820007
 20
269.369385
 11
400.319977
 21
269.369385
  0
CIRCLE
  8
0
  6
CONTINUOUS
 10
396.820007
 20
273.369385
 40
2.250000
  0
ARC
  8
0
  6
CONTINUOUS
 10
395.820007
 20
272.369385
 40
3.000000
 50
180.000000
 51
270.000000
  0
LINE
  8
0
  6
CONTINUOUS
 10
392.820007
 20
272.369385
 11
392.820007
 21
276.869385
  0
LINE
  8
0
  6
CENTER
 10
375.320007
 20
284.335175
 11
375.320007
 21
220.203140
  0
LINE
  8
0
  6
CONTINUOUS
 10
399.320007
 20
269.369385
 11
399.320007
 21
234.369370
  0
LINE
  8
0
  6
CONTINUOUS
 10
357.820007
 20
227.869370
 11
392.819977
 21
227.869370
  0
LINE
  8
0
  6
CONTINUOUS
 10
351.320007
 20
234.369370
 11
351.320007
 21
269.369385
  0
LINE
  8
0
  6
CONTINUOUS
 10
392.820007
 20
275.869385
 11
357.820007
 21
275.869385
  0
LINE
  8
0
  6
CONTINUOUS
 10
395.819977
 20
234.369370
 11
400.319977
 21
234.369370
  0
ARC
  8
0
  6
CONTINUOUS
 10
395.819977
 20
231.369370
 40
3.000000
 50
90.000000
 51
180.000000
  0
LINE
  8
0
  6
CONTINUOUS
 10
392.819977
 20
231.369370
 11
392.819977
 21
226.869385
  0
CIRCLE
  8
0
  6
CONTINUOUS
 10
396.819977
 20
230.369370
 40
2.250000
  0
LINE
  8
0
  6
CONTINUOUS
 10
354.820007
 20
269.369385
 11
350.320007
 21
269.369385
  0
ARC
  8
0
  6
CONTINUOUS
 10
354.820007
 20
272.369385
 40
3.000000
 50
-90.000000
 51
0.000000
  0
LINE
  8
0
  6
CONTINUOUS
 10
357.820007
 20
272.369385
 11
357.820007
 21
276.869354
  0
CIRCLE
  8
0
  6
CONTINUOUS
 10
353.820007
 20
273.369385
 40
2.250000
  0
LINE
  8
0
  6
CONTINUOUS
 10
398.820007
 20
98.864998
 11
352.320007
 21
98.864998
  0
LINE
  8
0
  6
CONTINUOUS
 10
350.320007
 20
142.865005
 11
350.320007
 21
100.864998
  0
LINE
  8
0
  6
CONTINUOUS
 10
400.320007
 20
142.865005
 11
400.320007
 21
100.864998
  0
LINE
  8
0
  6
CONTINUOUS
 10
400.320007
 20
110.864998
 11
350.320007
 21
110.864998
  0
LINE
  8
0
  6
CONTINUOUS
 10
352.320007
 20
98.864998
 11
350.320007
 21
100.864998
  0
LINE
  8
0
  6
CONTINUOUS
 10
400.320007
 20
100.864998
 11
398.320007
 21
98.864998
  0
LINE
  8
0
  6
CONTINUOUS
 10
400.320007
 20
100.864998
 11
350.320007
 21
100.864998
  0
LINE
  8
0
  6
CONTINUOUS
 10
400.320007
 20
111.864998
 11
350.320007
 21
111.864998
  0
LINE
  8
0
  6
CONTINUOUS
 10
399.320007
 20
143.865005
 11
351.320007
 21
143.865005
  0
LINE
  8
0
  6
CONTINUOUS
 10
351.320007
 20
143.865005
 11
350.320007
 21
142.865005
  0
LINE
  8
0
  6
CONTINUOUS
 10
399.320007
 20
143.865005
 11
400.320007
 21
142.865005
  0
LINE
  8
0
  6
CONTINUOUS
 10
400.320007
 20
142.865005
 11
350.320007
 21
142.865005
  0
LINE
  8
0
  6
CENTER
 10
375.320007
 20
92.475487
 11
375.320007
 21
149.175491
  0
LINE
  8
0
  6
CENTER
 10
402.695007
 20
126.864998
 11
398.070007
 21
126.864998
  0
LINE
  8
0
  6
CONTINUOUS
 10
398.820007
 20
98.864998
 11
398.820007
 21
97.364998
  0
LINE
  8
0
  6
CONTINUOUS
 10
352.820007
 20
98.864998
 11
352.820007
 21
97.364998
  0
LINE
  8
0
  6
CONTINUOUS
 10
401.195007
 20
137.365005
 11
399.195007
 21
137.365005
  0
LINE
  8
0
  6
CONTINUOUS
 10
401.195007
 20
116.364998
 11
399.195007
 21
116.364998
  0
LINE
  8
0
  6
CONTINUOUS
 10
90.319977
 20
142.865005
 11
90.320000
 21
115.628632
  0
LINE
  8
0
  6
CONTINUOUS
 10
40.320000
 20
142.865005
 11
40.320000
 21
115.628532
  0
LINE
  8
0
  6
CONTINUOUS
 10
41.320000
 20
143.865005
 11
89.319977
 21
143.865005
  0
LINE
  8
0
  6
CONTINUOUS
 10
89.319977
 20
143.865005
 11
90.319977
 21
142.865005
  0
LINE
  8
0
  6
CONTINUOUS
 10
41.320000
 20
143.865005
 11
40.320000
 21
142.865005
  0
LINE
  8
0
  6
CONTINUOUS
 10
40.320000
 20
142.865005
 11
90.319977
 21
142.865005
  0
TEXT
  8
0
 10
-23.000000
 20
-4.000000
 40
4.000000
 41
1.000000
  1
HLM-18L-10~240-T90WK
 50
0.000000
  0
ENDSEC
  0
EOF
