  0
SECTION
  2
HEADER
  9
$CLAYER
  8
1
  9
$LTSCALE
 40
3.0
  0
ENDSEC
  0
SECTION
  2
TABLES
  0
TABLE
  2
LTYPE
 70
     4
  0
LTYPE
  2
CONTINUOUS
  3
solid line
 70
    64
 72
    65
 73
     0
 40
0.0
  0
LTYPE
  2
DASHED
  3
__ __ __ __ __ __ __ __ __ __ __ __ __ __ __
 70
    64
 72
    65
 73
     2
 40
0.75
 49
0.5
 49
-0.25
  0
LTYPE
  2
CENTER
  3
____ _ ____ _ ____ _ ____ _ ____ _ ____ _ ____
 70
    64
 72
    65
 73
     4
 40
2.0
 49
1.25
 49
-0.25
 49
0.25
 49
-0.25
  0
LTYPE
  2
PHANTOM
  3
_____ _ _ _____ _ _ _____ _ _ _____ _ _ ____
 70
    64
 72
    65
 73
     6
 40
2.5
 49
1.25
 49
-0.25
 49
0.25
 49
-0.25
 49
0.25
 49
-0.25
  0
ENDTAB
  0
TABLE
  2
LAYER
 70
     1
  0
LAYER
  2
0
 70
    64
 62
     7
  6
CONTINUOUS
  0
ENDTAB
  0
TABLE
  2
STYLE
 70
     1
  0
STYLE
  2
STANDARD
 70
     0
 40
0.000000
 41
1.000000
 50
0.000000
 71
     0
 42
3.000000
  3
txt
  4
BIGFONT
  0
ENDTAB
  0
ENDSEC
  0
SECTION
  2
BLOCKS
  0
ENDSEC
  0
SECTION
  2
ENTITIES
  0
LINE
  8
0
  6
CONTINUOUS
 10
1.815625
 20
19.266874
 11
1.815625
 21
89.266876
  0
LINE
  8
0
  6
CONTINUOUS
 10
6.357074
 20
99.266876
 11
22.315624
 21
99.266876
  0
LINE
  8
0
  6
CONTINUOUS
 10
2.315625
 20
96.266876
 11
2.315625
 21
12.266875
  0
LINE
  8
0
  6
CONTINUOUS
 10
22.315624
 20
88.676178
 11
4.065625
 21
88.676178
  0
ARC
  8
0
  6
CONTINUOUS
 10
1.815624
 20
89.766876
 40
0.500000
 50
-90.000000
 51
0.000000
  0
LINE
  8
0
  6
CONTINUOUS
 10
2.892968
 20
97.266869
 11
2.315625
 21
96.266876
  0
ARC
  8
0
  6
CONTINUOUS
 10
6.357088
 20
95.266884
 40
4.000000
 50
90.000000
 51
150.000397
  0
LINE
  8
0
  6
CONTINUOUS
 10
6.357074
 20
9.266875
 11
22.315624
 21
9.266875
  0
LINE
  8
0
  6
CONTINUOUS
 10
22.315624
 20
19.857574
 11
4.065625
 21
19.857574
  0
ARC
  8
0
  6
CONTINUOUS
 10
1.815624
 20
18.766874
 40
0.500000
 50
0.000000
 51
90.000000
  0
LINE
  8
0
  6
CONTINUOUS
 10
2.892968
 20
11.266885
 11
2.315625
 21
12.266875
  0
ARC
  8
0
  6
CONTINUOUS
 10
6.357088
 20
13.266865
 40
4.000000
 50
-150.000397
 51
-90.000000
  0
LINE
  8
0
  6
CONTINUOUS
 10
22.815624
 20
100.766876
 11
22.815624
 21
99.266876
  0
LINE
  8
0
  6
CONTINUOUS
 10
15.815625
 20
100.766876
 11
15.815625
 21
99.266876
  0
LINE
  8
0
  6
CONTINUOUS
 10
15.815625
 20
100.766876
 11
22.815624
 21
100.766876
  0
LINE
  8
0
  6
CONTINUOUS
 10
20.215626
 20
113.766876
 11
20.215626
 21
100.766876
  0
LINE
  8
0
  6
CONTINUOUS
 10
18.415625
 20
114.391876
 11
18.415625
 21
100.766876
  0
LINE
  8
0
  6
CONTINUOUS
 10
16.615625
 20
112.329376
 11
16.615625
 21
100.766876
  0
LINE
  8
0
  6
CONTINUOUS
 10
22.015625
 20
113.141876
 11
22.015625
 21
100.766876
  0
LINE
  8
0
  6
CONTINUOUS
 10
18.415625
 20
114.391876
 11
20.215626
 21
113.766876
  0
LINE
  8
0
  6
CONTINUOUS
 10
16.615625
 20
112.329376
 11
18.415625
 21
112.954376
  0
LINE
  8
0
  6
CONTINUOUS
 10
22.015625
 20
113.141876
 11
20.216635
 21
112.694168
  0
LINE
  8
0
  6
CONTINUOUS
 10
22.315624
 20
9.266875
 11
22.315624
 21
99.266876
  0
LINE
  8
0
  6
CENTER
 10
-9.045000
 20
54.266876
 11
118.105125
 21
54.266876
  0
LINE
  8
0
  6
CONTINUOUS
 10
195.815628
 20
11.966875
 11
195.815628
 21
4.966875
  0
LINE
  8
0
  6
CONTINUOUS
 10
22.315624
 20
9.266875
 11
94.815628
 21
9.266875
  0
LINE
  8
0
  6
CONTINUOUS
 10
22.315624
 20
99.266876
 11
101.658173
 21
99.266876
  0
LINE
  8
0
  6
CENTER
 10
145.315628
 20
127.954376
 11
145.315628
 21
-2.252225
  0
LINE
  8
0
  6
CENTER
 10
109.802925
 20
79.966873
 11
180.742493
 21
79.966873
  0
LINE
  8
0
  6
CONTINUOUS
 10
94.815628
 20
4.966875
 11
195.815628
 21
4.966875
  0
LINE
  8
0
  6
CONTINUOUS
 10
129.894531
 20
117.966873
 11
160.736725
 21
117.966873
  0
LINE
  8
0
  6
CONTINUOUS
 10
96.815628
 20
13.966875
 11
193.815628
 21
13.966875
  0
LINE
  8
0
  6
CENTER
 10
183.315628
 20
19.454374
 11
183.315628
 21
-1.795625
  0
LINE
  8
0
  6
CENTER
 10
107.315628
 20
19.704374
 11
107.315628
 21
-2.295625
  0
LINE
  8
0
  6
CONTINUOUS
 10
193.687027
 20
95.960052
 11
163.608124
 21
117.060165
  0
LINE
  8
0
  6
CONTINUOUS
 10
96.944214
 20
95.960052
 11
127.023125
 21
117.060158
  0
ARC
  8
0
  6
CONTINUOUS
 10
160.736832
 20
112.966866
 40
5.000000
 50
54.950878
 51
90.000000
  0
ARC
  8
0
  6
CONTINUOUS
 10
129.894531
 20
112.966873
 40
5.000000
 50
90.000000
 51
125.049698
  0
ARC
  8
0
  6
CONTINUOUS
 10
99.815643
 20
91.866806
 40
5.000000
 50
125.049797
 51
180.000000
  0
ARC
  8
0
  6
CONTINUOUS
 10
190.815628
 20
91.866753
 40
5.000000
 50
0.000000
 51
54.950901
  0
LINE
  8
0
  6
CONTINUOUS
 10
195.815628
 20
11.966875
 11
195.815628
 21
91.866776
  0
ARC
  8
0
  6
CONTINUOUS
 10
193.815628
 20
11.966865
 40
2.000000
 50
0.000000
 51
90.000000
  0
LINE
  8
0
  6
CONTINUOUS
 10
94.815628
 20
91.866806
 11
94.815628
 21
91.866776
  0
ARC
  8
0
  6
CONTINUOUS
 10
96.815636
 20
11.966875
 40
2.000000
 50
90.000000
 51
180.000000
  0
LINE
  8
0
  6
DASHED
 10
187.565628
 20
13.966875
 11
187.565628
 21
4.966875
  0
LINE
  8
0
  6
DASHED
 10
179.065628
 20
13.966875
 11
179.065628
 21
4.966875
  0
LINE
  8
0
  6
DASHED
 10
111.565628
 20
13.966875
 11
111.565628
 21
4.966875
  0
LINE
  8
0
  6
DASHED
 10
103.065628
 20
13.966875
 11
103.065628
 21
4.966875
  0
CIRCLE
  8
0
  6
CONTINUOUS
 10
145.315628
 20
79.966873
 40
23.500000
  0
LINE
  8
0
  6
CONTINUOUS
 10
97.315628
 20
80.659065
 11
97.315628
 21
49.274361
  0
LINE
  8
0
  6
CONTINUOUS
 10
193.315628
 20
80.659233
 11
193.315628
 21
49.274525
  0
ARC
  8
0
  6
CONTINUOUS
 10
145.315628
 20
64.966873
 40
50.500000
 50
198.103806
 51
341.896210
  0
LINE
  8
0
  6
CONTINUOUS
 10
94.815643
 20
91.866783
 11
94.815575
 21
4.966875
  0
ARC
  8
0
  6
CONTINUOUS
 10
145.315628
 20
64.966873
 40
50.500000
 50
18.103790
 51
161.896194
  0
LINE
  8
0
  6
CONTINUOUS
 10
22.315624
 20
88.676178
 11
93.198532
 21
88.676178
  0
LINE
  8
0
  6
CONTINUOUS
 10
22.315624
 20
19.857574
 11
93.198532
 21
19.857574
  0
LINE
  8
0
  6
CONTINUOUS
 10
138.940628
 20
42.520096
 11
138.940628
 21
36.966873
  0
LINE
  8
0
  6
CONTINUOUS
 10
142.128128
 20
44.537189
 11
142.128128
 21
46.529377
  0
LINE
  8
0
  6
CONTINUOUS
 10
148.503128
 20
44.537189
 11
148.503128
 21
46.529377
  0
LINE
  8
0
  6
CONTINUOUS
 10
144.693024
 20
45.358967
 11
144.693024
 21
38.012775
  0
LINE
  8
0
  6
CONTINUOUS
 10
145.888428
 20
45.358967
 11
145.888428
 21
38.012775
  0
LINE
  8
0
  6
CONTINUOUS
 10
152.163727
 20
45.358967
 11
152.163727
 21
37.962963
  0
LINE
  8
0
  6
CONTINUOUS
 10
153.259430
 20
41.436844
 11
153.259430
 21
37.962963
  0
LINE
  8
0
  6
CONTINUOUS
 10
137.428131
 20
45.259357
 11
134.356232
 21
45.259357
  0
LINE
  8
0
  6
CONTINUOUS
 10
134.356232
 20
45.259357
 11
133.636429
 21
44.366863
  0
LINE
  8
0
  6
CONTINUOUS
 10
133.723022
 20
46.529377
 11
132.565628
 21
45.047382
  0
LINE
  8
0
  6
CONTINUOUS
 10
133.636429
 20
38.857796
 11
134.367722
 21
38.087486
  0
LINE
  8
0
  6
CONTINUOUS
 10
132.565628
 20
38.207733
 11
133.795425
 21
36.966873
  0
LINE
  8
0
  6
CONTINUOUS
 10
132.565628
 20
45.047382
 11
132.565628
 21
38.207733
  0
LINE
  8
0
  6
CONTINUOUS
 10
133.636429
 20
44.366863
 11
133.636429
 21
38.857796
  0
LINE
  8
0
  6
CONTINUOUS
 10
138.019226
 20
44.687916
 11
137.416031
 21
45.259357
  0
LINE
  8
0
  6
CONTINUOUS
 10
138.009628
 20
46.529377
 11
138.940628
 21
45.496235
  0
LINE
  8
0
  6
CONTINUOUS
 10
138.019226
 20
44.537189
 11
138.940628
 21
44.537189
  0
LINE
  8
0
  6
CONTINUOUS
 10
133.723022
 20
46.529377
 11
138.009628
 21
46.529377
  0
LINE
  8
0
  6
CONTINUOUS
 10
138.019226
 20
41.474194
 11
136.350830
 21
41.474194
  0
LINE
  8
0
  6
CONTINUOUS
 10
138.019226
 20
40.478104
 11
138.019226
 21
41.274986
  0
LINE
  8
0
  6
CONTINUOUS
 10
136.027023
 20
38.087486
 11
134.367722
 21
38.087486
  0
ARC
  8
0
  6
CONTINUOUS
 10
136.027023
 20
40.079666
 40
1.992187
 50
-89.999786
 51
0.000109
  0
LINE
  8
0
  6
CONTINUOUS
 10
138.019226
 20
37.729145
 11
138.019226
 21
36.966873
  0
LINE
  8
0
  6
CONTINUOUS
 10
138.940628
 20
45.496235
 11
138.940628
 21
44.537189
  0
LINE
  8
0
  6
CONTINUOUS
 10
138.019226
 20
41.474194
 11
138.019226
 21
40.079666
  0
LINE
  8
0
  6
CONTINUOUS
 10
136.350830
 20
42.520096
 11
136.350830
 21
41.474194
  0
LINE
  8
0
  6
CONTINUOUS
 10
138.019226
 20
36.966873
 11
138.940628
 21
36.966873
  0
LINE
  8
0
  6
CONTINUOUS
 10
138.019226
 20
37.729145
 11
137.110718
 21
36.966873
  0
LINE
  8
0
  6
CONTINUOUS
 10
145.888428
 20
38.012775
 11
146.286819
 21
38.012775
  0
LINE
  8
0
  6
CONTINUOUS
 10
144.219925
 20
38.012775
 11
144.219925
 21
36.966873
  0
LINE
  8
0
  6
CONTINUOUS
 10
146.286819
 20
38.012775
 11
146.286819
 21
36.966873
  0
LINE
  8
0
  6
CONTINUOUS
 10
147.838120
 20
44.537189
 11
148.503128
 21
44.537189
  0
LINE
  8
0
  6
CONTINUOUS
 10
142.128128
 20
44.537189
 11
142.835724
 21
44.537189
  0
LINE
  8
0
  6
CONTINUOUS
 10
142.128128
 20
46.529377
 11
148.503128
 21
46.529377
  0
LINE
  8
0
  6
CONTINUOUS
 10
144.219925
 20
36.966873
 11
146.286819
 21
36.966873
  0
LINE
  8
0
  6
CONTINUOUS
 10
144.219925
 20
38.012775
 11
144.693024
 21
38.012775
  0
ARC
  8
0
  6
CONTINUOUS
 10
155.513123
 20
43.976887
 40
2.552490
 50
-73.981873
 51
90.003510
  0
ARC
  8
0
  6
CONTINUOUS
 10
155.513123
 20
43.976887
 40
1.557193
 50
-82.585274
 51
62.411850
  0
LINE
  8
0
  6
CONTINUOUS
 10
151.690628
 20
46.529377
 11
155.513123
 21
46.529377
  0
LINE
  8
0
  6
CONTINUOUS
 10
151.690628
 20
46.529377
 11
151.690628
 21
45.358967
  0
LINE
  8
0
  6
CONTINUOUS
 10
153.259430
 20
45.358967
 11
153.259430
 21
42.432716
  0
LINE
  8
0
  6
CONTINUOUS
 10
156.217422
 20
41.523495
 11
157.797318
 21
37.962963
  0
LINE
  8
0
  6
CONTINUOUS
 10
155.299927
 20
41.436844
 11
156.795029
 21
37.962963
  0
LINE
  8
0
  6
CONTINUOUS
 10
151.690628
 20
37.962963
 11
152.163727
 21
37.962963
  0
LINE
  8
0
  6
CONTINUOUS
 10
153.259430
 20
37.962963
 11
153.695221
 21
37.962963
  0
LINE
  8
0
  6
CONTINUOUS
 10
153.695221
 20
36.966873
 11
151.690628
 21
36.966873
  0
LINE
  8
0
  6
CONTINUOUS
 10
156.596420
 20
37.962963
 11
156.795029
 21
37.962963
  0
LINE
  8
0
  6
CONTINUOUS
 10
157.797318
 20
37.962963
 11
158.065628
 21
37.962963
  0
LINE
  8
0
  6
CONTINUOUS
 10
156.596420
 20
36.966873
 11
158.065628
 21
36.966873
  0
LINE
  8
0
  6
CONTINUOUS
 10
158.065628
 20
37.962963
 11
158.065628
 21
36.966873
  0
LINE
  8
0
  6
CONTINUOUS
 10
156.596420
 20
37.962963
 11
156.596420
 21
36.966873
  0
LINE
  8
0
  6
CONTINUOUS
 10
153.695221
 20
37.962963
 11
153.695221
 21
36.966873
  0
LINE
  8
0
  6
CONTINUOUS
 10
151.690628
 20
37.962963
 11
151.690628
 21
36.966873
  0
LINE
  8
0
  6
CONTINUOUS
 10
143.178131
 20
45.358967
 11
142.835724
 21
44.537189
  0
LINE
  8
0
  6
CONTINUOUS
 10
147.549423
 20
45.358967
 11
147.838120
 21
44.537189
  0
LINE
  8
0
  6
CONTINUOUS
 10
145.888428
 20
45.358967
 11
147.549423
 21
45.358967
  0
LINE
  8
0
  6
CONTINUOUS
 10
144.693024
 20
45.358967
 11
143.178131
 21
45.358967
  0
LINE
  8
0
  6
CONTINUOUS
 10
151.690628
 20
45.358967
 11
152.163727
 21
45.358967
  0
LINE
  8
0
  6
CONTINUOUS
 10
153.259430
 20
45.358967
 11
156.234329
 21
45.357029
  0
LINE
  8
0
  6
CONTINUOUS
 10
138.019226
 20
44.687916
 11
138.019226
 21
44.537189
  0
LINE
  8
0
  6
CONTINUOUS
 10
133.795425
 20
36.966873
 11
137.110718
 21
36.966873
  0
LINE
  8
0
  6
CONTINUOUS
 10
153.259430
 20
42.432716
 11
155.714127
 21
42.432716
  0
LINE
  8
0
  6
CONTINUOUS
 10
153.259430
 20
41.436844
 11
155.299927
 21
41.436844
  0
LINE
  8
0
  6
CONTINUOUS
 10
136.350830
 20
42.520096
 11
138.940628
 21
42.520096
  0
LINE
  8
0
  6
CENTER
 10
351.815613
 20
-5.326875
 11
351.815613
 21
126.923126
  0
LINE
  8
0
  6
CENTER
 10
298.126221
 20
54.266876
 11
404.318817
 21
54.266876
  0
LINE
  8
0
  6
CONTINUOUS
 10
409.815613
 20
11.966875
 11
409.815613
 21
4.966875
  0
LINE
  8
0
  6
CONTINUOUS
 10
293.815613
 20
11.966875
 11
293.815613
 21
4.966875
  0
LINE
  8
0
  6
CONTINUOUS
 10
293.815613
 20
4.966875
 11
409.815613
 21
4.966875
  0
LINE
  8
0
  6
CONTINUOUS
 10
391.815613
 20
13.966875
 11
407.815613
 21
13.966875
  0
LINE
  8
0
  6
CONTINUOUS
 10
314.815613
 20
16.966875
 11
314.815613
 21
115.355507
  0
LINE
  8
0
  6
CONTINUOUS
 10
388.815613
 20
16.966875
 11
388.815613
 21
115.355637
  0
LINE
  8
0
  6
CONTINUOUS
 10
393.815613
 20
57.466873
 11
393.815613
 21
102.466873
  0
LINE
  8
0
  6
CONTINUOUS
 10
392.815613
 20
103.466873
 11
390.815613
 21
103.466873
  0
LINE
  8
0
  6
CONTINUOUS
 10
392.815613
 20
56.466873
 11
390.815613
 21
56.466873
  0
LINE
  8
0
  6
CONTINUOUS
 10
351.815613
 20
117.966873
 11
386.850525
 21
117.355347
  0
LINE
  8
0
  6
CONTINUOUS
 10
316.780731
 20
117.355202
 11
351.815613
 21
117.966873
  0
ARC
  8
0
  6
CONTINUOUS
 10
390.815613
 20
105.466873
 40
2.000000
 50
180.000000
 51
270.000000
  0
ARC
  8
0
  6
CONTINUOUS
 10
386.815613
 20
115.355637
 40
2.000000
 50
0.000000
 51
89.000137
  0
ARC
  8
0
  6
CONTINUOUS
 10
316.815613
 20
115.355515
 40
2.000000
 50
91.000641
 51
180.000000
  0
ARC
  8
0
  6
CONTINUOUS
 10
390.815613
 20
54.466881
 40
2.000000
 50
90.000000
 51
180.000000
  0
ARC
  8
0
  6
CONTINUOUS
 10
392.815613
 20
102.466866
 40
1.000000
 50
0.000000
 51
90.000000
  0
ARC
  8
0
  6
CONTINUOUS
 10
392.815613
 20
57.466869
 40
1.000000
 50
-90.000000
 51
0.000000
  0
LINE
  8
0
  6
CONTINUOUS
 10
316.065613
 20
94.466873
 11
387.815613
 21
94.466873
  0
ARC
  8
0
  6
CONTINUOUS
 10
407.815613
 20
11.966865
 40
2.000000
 50
0.000000
 51
90.000000
  0
ARC
  8
0
  6
CONTINUOUS
 10
295.815613
 20
11.966885
 40
2.000000
 50
90.000000
 51
180.000000
  0
LINE
  8
0
  6
CENTER
 10
399.815613
 20
17.923124
 11
399.815613
 21
0.673125
  0
LINE
  8
0
  6
CENTER
 10
303.815613
 20
17.923124
 11
303.815613
 21
-0.076875
  0
LINE
  8
0
  6
DASHED
 10
308.065613
 20
13.966875
 11
308.065613
 21
4.966875
  0
LINE
  8
0
  6
DASHED
 10
299.565613
 20
13.966875
 11
299.565613
 21
4.966875
  0
LINE
  8
0
  6
DASHED
 10
404.065613
 20
13.966875
 11
404.065613
 21
4.966875
  0
LINE
  8
0
  6
DASHED
 10
395.565613
 20
13.966875
 11
395.565613
 21
4.966875
  0
ARC
  8
0
  6
CONTINUOUS
 10
351.815613
 20
54.266876
 40
45.000000
 50
159.637695
 51
214.692093
  0
ARC
  8
0
  6
CONTINUOUS
 10
351.815613
 20
54.266876
 40
45.000000
 50
-34.692108
 51
20.437799
  0
LINE
  8
0
  6
CONTINUOUS
 10
309.815613
 20
57.466873
 11
309.815613
 21
102.466873
  0
LINE
  8
0
  6
CONTINUOUS
 10
310.815613
 20
103.466873
 11
312.815613
 21
103.466873
  0
LINE
  8
0
  6
CONTINUOUS
 10
310.815613
 20
56.466873
 11
312.815613
 21
56.466873
  0
ARC
  8
0
  6
CONTINUOUS
 10
312.815613
 20
105.466873
 40
2.000000
 50
-90.000000
 51
0.000000
  0
ARC
  8
0
  6
CONTINUOUS
 10
312.815613
 20
54.466881
 40
2.000000
 50
0.000000
 51
90.000000
  0
ARC
  8
0
  6
CONTINUOUS
 10
310.815613
 20
102.466866
 40
1.000000
 50
90.000000
 51
180.000000
  0
ARC
  8
0
  6
CONTINUOUS
 10
310.815613
 20
57.466869
 40
1.000000
 50
180.000000
 51
270.000000
  0
LINE
  8
0
  6
CENTER
 10
398.815521
 20
79.966873
 11
269.565613
 21
79.966873
  0
LINE
  8
0
  6
CONTINUOUS
 10
311.815613
 20
13.966875
 11
295.815613
 21
13.966875
  0
ARC
  8
0
  6
CONTINUOUS
 10
311.815613
 20
16.966875
 40
3.000000
 50
-90.000000
 51
0.000000
  0
ARC
  8
0
  6
CONTINUOUS
 10
391.815613
 20
16.966875
 40
3.000000
 50
180.000000
 51
270.000000
  0
LINE
  8
0
  6
CONTINUOUS
 10
150.815628
 20
76.966896
 11
150.815628
 21
82.966896
  0
LINE
  8
0
  6
CONTINUOUS
 10
156.815628
 20
76.966911
 11
156.815628
 21
82.966911
  0
LINE
  8
0
  6
CONTINUOUS
 10
156.815628
 20
76.966911
 11
150.815628
 21
76.966896
  0
LINE
  8
0
  6
CONTINUOUS
 10
156.815628
 20
82.966911
 11
150.815628
 21
82.966896
  0
ARC
  8
0
  6
CONTINUOUS
 10
145.315628
 20
79.966873
 40
9.000000
 50
19.471210
 51
340.528809
  0
LINE
  8
0
  6
CONTINUOUS
 10
277.815613
 20
70.966873
 11
277.815613
 21
88.966873
  0
LINE
  8
0
  6
CONTINUOUS
 10
307.815613
 20
88.966873
 11
277.815613
 21
88.966873
  0
LINE
  8
0
  6
CONTINUOUS
 10
307.815613
 20
70.966873
 11
277.815613
 21
70.966873
  0
LINE
  8
0
  6
CONTINUOUS
 10
307.815613
 20
89.966873
 11
307.815613
 21
69.966873
  0
LINE
  8
0
  6
CONTINUOUS
 10
309.815613
 20
89.966873
 11
307.815613
 21
89.966873
  0
LINE
  8
0
  6
CONTINUOUS
 10
309.815613
 20
69.966873
 11
307.815613
 21
69.966873
  0
ARC
  8
0
  6
CONTINUOUS
 10
301.815613
 20
79.966873
 40
3.000000
 50
-90.000000
 51
90.000000
  0
LINE
  8
0
  6
CONTINUOUS
 10
301.815613
 20
82.966873
 11
277.815613
 21
82.966873
  0
LINE
  8
0
  6
CONTINUOUS
 10
301.815613
 20
76.966873
 11
277.815613
 21
76.966873
  0
LINE
  8
0
  6
CONTINUOUS
 10
15.815625
 20
248.635620
 11
15.815625
 21
260.635620
  0
LINE
  8
0
  6
CONTINUOUS
 10
22.815624
 20
248.635620
 11
22.815624
 21
260.635620
  0
LINE
  8
0
  6
CONTINUOUS
 10
16.815624
 20
261.635620
 11
21.815624
 21
261.635620
  0
LINE
  8
0
  6
CONTINUOUS
 10
21.815624
 20
247.635620
 11
16.815624
 21
247.635620
  0
ARC
  8
0
  6
CONTINUOUS
 10
21.815624
 20
260.635620
 40
1.000000
 50
0.000000
 51
90.000000
  0
ARC
  8
0
  6
CONTINUOUS
 10
16.815624
 20
260.635620
 40
1.000000
 50
90.000000
 51
180.000000
  0
ARC
  8
0
  6
CONTINUOUS
 10
16.815624
 20
248.635620
 40
1.000000
 50
180.000000
 51
270.000000
  0
ARC
  8
0
  6
CONTINUOUS
 10
21.815624
 20
248.635620
 40
1.000000
 50
-90.000000
 51
0.000000
  0
LINE
  8
0
  6
CONTINUOUS
 10
20.315624
 20
251.135620
 11
20.315624
 21
258.135620
  0
LINE
  8
0
  6
CONTINUOUS
 10
18.315624
 20
251.135620
 11
18.315624
 21
258.135620
  0
ARC
  8
0
  6
CONTINUOUS
 10
19.315624
 20
258.135620
 40
1.000000
 50
90.000000
 51
180.000000
  0
ARC
  8
0
  6
CONTINUOUS
 10
19.315624
 20
258.135620
 40
1.000000
 50
0.000000
 51
90.000000
  0
ARC
  8
0
  6
CONTINUOUS
 10
19.315624
 20
251.135620
 40
1.000000
 50
180.000000
 51
270.000000
  0
ARC
  8
0
  6
CONTINUOUS
 10
19.315624
 20
251.135620
 40
1.000000
 50
-90.000000
 51
0.000000
  0
LINE
  8
0
  6
CENTER
 10
145.315628
 20
321.809998
 11
145.315628
 21
174.342499
  0
LINE
  8
0
  6
CENTER
 10
183.315628
 20
311.144989
 11
183.315628
 21
292.382507
  0
LINE
  8
0
  6
CENTER
 10
-11.670625
 20
254.635620
 11
209.456879
 21
254.635620
  0
LINE
  8
0
  6
CONTINUOUS
 10
194.974731
 20
302.810150
 11
195.815628
 21
254.635620
  0
LINE
  8
0
  6
CONTINUOUS
 10
184.976257
 20
312.635620
 11
145.315628
 21
312.635620
  0
LINE
  8
0
  6
CONTINUOUS
 10
96.815628
 20
291.635620
 11
193.204391
 21
291.635620
  0
ARC
  8
0
  6
CONTINUOUS
 10
184.976257
 20
302.635620
 40
10.000000
 50
1.000000
 51
90.000000
  0
ARC
  8
0
  6
CONTINUOUS
 10
193.204391
 20
289.635620
 40
2.000000
 50
1.000000
 51
90.000000
  0
LINE
  8
0
  6
CENTER
 10
173.720306
 20
302.635620
 11
194.062820
 21
302.635620
  0
CIRCLE
  8
0
  6
CONTINUOUS
 10
183.315628
 20
302.635620
 40
4.250000
  0
LINE
  8
0
  6
CONTINUOUS
 10
1.815625
 20
219.635620
 11
1.815625
 21
289.635620
  0
LINE
  8
0
  6
CONTINUOUS
 10
6.357074
 20
299.635620
 11
22.315624
 21
299.635620
  0
LINE
  8
0
  6
CONTINUOUS
 10
2.315625
 20
296.635620
 11
2.315625
 21
212.635620
  0
LINE
  8
0
  6
CONTINUOUS
 10
22.315624
 20
283.635620
 11
4.065625
 21
283.635620
  0
ARC
  8
0
  6
CONTINUOUS
 10
1.815624
 20
290.135620
 40
0.500000
 50
-90.000000
 51
0.000000
  0
LINE
  8
0
  6
CONTINUOUS
 10
2.892968
 20
297.635620
 11
2.315625
 21
296.635620
  0
ARC
  8
0
  6
CONTINUOUS
 10
6.357088
 20
295.635620
 40
4.000000
 50
90.000000
 51
150.000397
  0
LINE
  8
0
  6
CONTINUOUS
 10
6.357074
 20
209.635620
 11
22.315624
 21
209.635620
  0
ARC
  8
0
  6
CONTINUOUS
 10
1.815624
 20
219.135620
 40
0.500000
 50
0.000000
 51
90.000000
  0
LINE
  8
0
  6
CONTINUOUS
 10
2.892968
 20
211.635635
 11
2.315625
 21
212.635620
  0
ARC
  8
0
  6
CONTINUOUS
 10
6.357088
 20
213.635620
 40
4.000000
 50
-150.000397
 51
-90.000000
  0
LINE
  8
0
  6
CONTINUOUS
 10
22.315624
 20
209.635620
 11
22.315624
 21
247.769608
  0
LINE
  8
0
  6
CENTER
 10
107.315628
 20
311.342499
 11
107.315628
 21
292.382507
  0
LINE
  8
0
  6
CONTINUOUS
 10
95.656517
 20
302.810150
 11
95.470535
 21
292.155518
  0
ARC
  8
0
  6
CONTINUOUS
 10
105.654991
 20
302.635620
 40
10.000000
 50
90.000000
 51
179.000000
  0
ARC
  8
0
  6
CONTINUOUS
 10
97.426857
 20
289.635620
 40
2.000000
 50
90.000000
 51
179.000000
  0
LINE
  8
0
  6
CENTER
 10
116.642815
 20
302.635620
 11
97.090317
 21
302.635620
  0
CIRCLE
  8
0
  6
CONTINUOUS
 10
107.315628
 20
302.635620
 40
4.250000
  0
LINE
  8
0
  6
CONTINUOUS
 10
94.815628
 20
293.635620
 11
94.815628
 21
297.635620
  0
LINE
  8
0
  6
CONTINUOUS
 10
92.815628
 20
299.635620
 11
22.315624
 21
299.635620
  0
ARC
  8
0
  6
CONTINUOUS
 10
92.815628
 20
297.635620
 40
2.000000
 50
0.000000
 51
90.000000
  0
ARC
  8
0
  6
CONTINUOUS
 10
96.815628
 20
293.635620
 40
2.000000
 50
180.000000
 51
270.000000
  0
LINE
  8
0
  6
CONTINUOUS
 10
95.427162
 20
289.670532
 11
95.321823
 21
283.635620
  0
LINE
  8
0
  6
CONTINUOUS
 10
22.315624
 20
283.635620
 11
101.658173
 21
283.635620
  0
LINE
  8
0
  6
CONTINUOUS
 10
22.315624
 20
225.635620
 11
4.065625
 21
225.635620
  0
LINE
  8
0
  6
CONTINUOUS
 10
22.315624
 20
225.635620
 11
101.658173
 21
225.635620
  0
LINE
  8
0
  6
CONTINUOUS
 10
92.815628
 20
209.635620
 11
22.315624
 21
209.635620
  0
ARC
  8
0
  6
CONTINUOUS
 10
92.815628
 20
211.635620
 40
2.000000
 50
-90.000000
 51
0.000000
  0
LINE
  8
0
  6
CENTER
 10
183.315628
 20
197.779999
 11
183.315628
 21
216.838745
  0
LINE
  8
0
  6
CONTINUOUS
 10
194.974731
 20
206.461105
 11
195.815628
 21
254.635620
  0
LINE
  8
0
  6
CONTINUOUS
 10
184.976257
 20
196.635620
 11
156.815628
 21
196.635620
  0
LINE
  8
0
  6
CONTINUOUS
 10
96.815628
 20
217.635620
 11
193.204391
 21
217.635620
  0
ARC
  8
0
  6
CONTINUOUS
 10
184.976257
 20
206.635620
 40
10.000000
 50
-90.000000
 51
-1.000000
  0
ARC
  8
0
  6
CONTINUOUS
 10
193.204391
 20
219.635620
 40
2.000000
 50
-90.000000
 51
-1.000000
  0
LINE
  8
0
  6
CENTER
 10
174.214066
 20
206.635620
 11
194.260315
 21
206.635620
  0
CIRCLE
  8
0
  6
CONTINUOUS
 10
183.315628
 20
206.635620
 40
4.250000
  0
LINE
  8
0
  6
CENTER
 10
107.315628
 20
197.286255
 11
107.315628
 21
216.641251
  0
LINE
  8
0
  6
CONTINUOUS
 10
95.656517
 20
206.461105
 11
95.470535
 21
217.115738
  0
ARC
  8
0
  6
CONTINUOUS
 10
105.654991
 20
206.635620
 40
10.000000
 50
-179.000000
 51
-90.000000
  0
ARC
  8
0
  6
CONTINUOUS
 10
97.426857
 20
219.635620
 40
2.000000
 50
-179.000000
 51
-90.000000
  0
LINE
  8
0
  6
CENTER
 10
117.136566
 20
206.635620
 11
96.892815
 21
206.635620
  0
CIRCLE
  8
0
  6
CONTINUOUS
 10
107.315628
 20
206.635620
 40
4.250000
  0
LINE
  8
0
  6
CONTINUOUS
 10
94.815628
 20
215.635620
 11
94.815628
 21
211.635620
  0
ARC
  8
0
  6
CONTINUOUS
 10
96.815628
 20
215.635620
 40
2.000000
 50
-270.000000
 51
-180.000000
  0
LINE
  8
0
  6
CONTINUOUS
 10
95.427162
 20
219.600723
 11
95.321823
 21
225.635620
  0
LINE
  8
0
  6
CONTINUOUS
 10
128.315628
 20
286.635620
 11
128.315628
 21
222.635620
  0
LINE
  8
0
  6
CONTINUOUS
 10
162.315628
 20
286.635620
 11
162.315628
 21
222.635620
  0
LINE
  8
0
  6
CONTINUOUS
 10
101.658173
 20
281.635620
 11
101.658173
 21
227.635620
  0
LINE
  8
0
  6
CONTINUOUS
 10
167.815628
 20
296.635620
 11
122.815628
 21
296.635620
  0
LINE
  8
0
  6
CONTINUOUS
 10
121.815628
 20
295.635620
 11
121.815628
 21
293.635620
  0
LINE
  8
0
  6
CONTINUOUS
 10
168.815628
 20
295.635620
 11
168.815628
 21
293.635620
  0
ARC
  8
0
  6
CONTINUOUS
 10
119.815628
 20
293.635620
 40
2.000000
 50
-90.000000
 51
0.000000
  0
ARC
  8
0
  6
CONTINUOUS
 10
170.815613
 20
293.635620
 40
2.000000
 50
180.000000
 51
270.000000
  0
ARC
  8
0
  6
CONTINUOUS
 10
122.815636
 20
295.635620
 40
1.000000
 50
90.000000
 51
180.000000
  0
ARC
  8
0
  6
CONTINUOUS
 10
167.815628
 20
295.635620
 40
1.000000
 50
0.000000
 51
90.000000
  0
LINE
  8
0
  6
CONTINUOUS
 10
145.315628
 20
312.635620
 11
105.654991
 21
312.635620
  0
LINE
  8
0
  6
CONTINUOUS
 10
167.815628
 20
212.635620
 11
122.815628
 21
212.635620
  0
LINE
  8
0
  6
CONTINUOUS
 10
121.815628
 20
213.635620
 11
121.815628
 21
215.635620
  0
LINE
  8
0
  6
CONTINUOUS
 10
168.815628
 20
213.635620
 11
168.815628
 21
215.635620
  0
ARC
  8
0
  6
CONTINUOUS
 10
119.815628
 20
215.635620
 40
2.000000
 50
0.000000
 51
90.000000
  0
ARC
  8
0
  6
CONTINUOUS
 10
170.815613
 20
215.635620
 40
2.000000
 50
-270.000000
 51
-180.000000
  0
ARC
  8
0
  6
CONTINUOUS
 10
122.815636
 20
213.635620
 40
1.000000
 50
-180.000000
 51
-90.000000
  0
ARC
  8
0
  6
CONTINUOUS
 10
167.815628
 20
213.635620
 40
1.000000
 50
-90.000000
 51
0.000000
  0
LINE
  8
0
  6
CONTINUOUS
 10
156.815628
 20
180.635620
 11
136.315628
 21
180.635620
  0
LINE
  8
0
  6
CONTINUOUS
 10
136.315628
 20
210.635620
 11
136.315628
 21
180.635620
  0
LINE
  8
0
  6
CONTINUOUS
 10
154.315628
 20
210.635620
 11
154.315628
 21
207.635620
  0
LINE
  8
0
  6
CONTINUOUS
 10
135.315628
 20
210.635620
 11
155.315628
 21
210.635620
  0
LINE
  8
0
  6
CONTINUOUS
 10
135.315628
 20
212.635620
 11
135.315628
 21
210.635620
  0
LINE
  8
0
  6
CONTINUOUS
 10
155.315628
 20
212.635620
 11
155.315628
 21
210.635620
  0
LINE
  8
0
  6
CONTINUOUS
 10
156.815628
 20
180.635620
 11
156.815628
 21
207.635620
  0
LINE
  8
0
  6
CONTINUOUS
 10
156.815628
 20
207.635620
 11
153.800629
 21
207.635620
  0
LINE
  8
0
  6
CONTINUOUS
 10
153.800629
 20
180.635620
 11
153.800629
 21
207.635620
  0
LINE
  8
0
  6
CONTINUOUS
 10
136.315628
 20
196.635620
 11
105.654991
 21
196.635620
  0
LINE
  8
0
  6
CONTINUOUS
 10
22.315624
 20
261.501648
 11
22.315624
 21
299.635620
  0
TEXT
  8
0
 10
-11.000000
 20
-5.000000
 40
4.000000
 41
1.000000
  1
HLM-18R-160~240-S40
 50
0.000000
  0
ENDSEC
  0
EOF
