  0
SECTION
  2
HEADER
  9
$CLAYER
  8
1
  9
$LTSCALE
 40
3.0
  0
ENDSEC
  0
SECTION
  2
TABLES
  0
TABLE
  2
LTYPE
 70
     4
  0
LTYPE
  2
CONTINUOUS
  3
solid line
 70
    64
 72
    65
 73
     0
 40
0.0
  0
LTYPE
  2
DASHED
  3
__ __ __ __ __ __ __ __ __ __ __ __ __ __ __
 70
    64
 72
    65
 73
     2
 40
0.75
 49
0.5
 49
-0.25
  0
LTYPE
  2
CENTER
  3
____ _ ____ _ ____ _ ____ _ ____ _ ____ _ ____
 70
    64
 72
    65
 73
     4
 40
2.0
 49
1.25
 49
-0.25
 49
0.25
 49
-0.25
  0
LTYPE
  2
PHANTOM
  3
_____ _ _ _____ _ _ _____ _ _ _____ _ _ ____
 70
    64
 72
    65
 73
     6
 40
2.5
 49
1.25
 49
-0.25
 49
0.25
 49
-0.25
 49
0.25
 49
-0.25
  0
ENDTAB
  0
TABLE
  2
LAYER
 70
     1
  0
LAYER
  2
0
 70
    64
 62
     7
  6
CONTINUOUS
  0
ENDTAB
  0
TABLE
  2
STYLE
 70
     1
  0
STYLE
  2
STANDARD
 70
     0
 40
0.000000
 41
1.000000
 50
0.000000
 71
     0
 42
3.000000
  3
txt
  4
BIGFONT
  0
ENDTAB
  0
ENDSEC
  0
SECTION
  2
BLOCKS
  0
ENDSEC
  0
SECTION
  2
ENTITIES
  0
LINE
  8
0
  6
CONTINUOUS
 10
2.556250
 20
20.277500
 11
2.556250
 21
90.277496
  0
LINE
  8
0
  6
CONTINUOUS
 10
7.097699
 20
100.277496
 11
23.056250
 21
100.277496
  0
LINE
  8
0
  6
CONTINUOUS
 10
3.056250
 20
97.277496
 11
3.056250
 21
13.277500
  0
LINE
  8
0
  6
CONTINUOUS
 10
23.056250
 20
89.686798
 11
4.806250
 21
89.686798
  0
ARC
  8
0
  6
CONTINUOUS
 10
2.556249
 20
90.777496
 40
0.500000
 50
-90.000000
 51
0.000000
  0
LINE
  8
0
  6
CONTINUOUS
 10
3.633593
 20
98.277489
 11
3.056250
 21
97.277496
  0
ARC
  8
0
  6
CONTINUOUS
 10
7.097713
 20
96.277512
 40
4.000000
 50
90.000000
 51
150.000397
  0
LINE
  8
0
  6
CONTINUOUS
 10
7.097699
 20
10.277500
 11
23.056250
 21
10.277500
  0
LINE
  8
0
  6
CONTINUOUS
 10
23.056250
 20
20.868200
 11
4.806250
 21
20.868200
  0
ARC
  8
0
  6
CONTINUOUS
 10
2.556249
 20
19.777500
 40
0.500000
 50
0.000000
 51
90.000000
  0
LINE
  8
0
  6
CONTINUOUS
 10
3.633593
 20
12.277510
 11
3.056250
 21
13.277500
  0
ARC
  8
0
  6
CONTINUOUS
 10
7.097713
 20
14.277490
 40
4.000000
 50
-150.000397
 51
-90.000000
  0
LINE
  8
0
  6
CONTINUOUS
 10
23.056250
 20
10.277500
 11
23.056250
 21
100.277496
  0
LINE
  8
0
  6
CENTER
 10
-8.304375
 20
55.277500
 11
118.845749
 21
55.277500
  0
LINE
  8
0
  6
CONTINUOUS
 10
196.556244
 20
12.977500
 11
196.556244
 21
5.977500
  0
LINE
  8
0
  6
CONTINUOUS
 10
23.056250
 20
10.277500
 11
95.556252
 21
10.277500
  0
LINE
  8
0
  6
CONTINUOUS
 10
23.056250
 20
100.277496
 11
102.398804
 21
100.277496
  0
LINE
  8
0
  6
CENTER
 10
146.056244
 20
128.964996
 11
146.056244
 21
-1.241600
  0
LINE
  8
0
  6
CENTER
 10
110.543549
 20
80.977501
 11
181.483124
 21
80.977501
  0
LINE
  8
0
  6
CONTINUOUS
 10
95.556252
 20
5.977500
 11
196.556244
 21
5.977500
  0
LINE
  8
0
  6
CONTINUOUS
 10
130.635147
 20
118.977501
 11
161.477356
 21
118.977501
  0
LINE
  8
0
  6
CONTINUOUS
 10
97.556252
 20
14.977500
 11
194.556244
 21
14.977500
  0
LINE
  8
0
  6
CENTER
 10
184.056244
 20
20.465000
 11
184.056244
 21
-0.785000
  0
LINE
  8
0
  6
CENTER
 10
108.056252
 20
20.715000
 11
108.056252
 21
-1.285000
  0
LINE
  8
0
  6
CONTINUOUS
 10
194.427643
 20
96.970680
 11
164.348755
 21
118.070793
  0
LINE
  8
0
  6
CONTINUOUS
 10
97.684837
 20
96.970680
 11
127.763748
 21
118.070778
  0
ARC
  8
0
  6
CONTINUOUS
 10
161.477448
 20
113.977493
 40
5.000000
 50
54.950878
 51
90.000000
  0
ARC
  8
0
  6
CONTINUOUS
 10
130.635147
 20
113.977501
 40
5.000000
 50
90.000000
 51
125.049698
  0
ARC
  8
0
  6
CONTINUOUS
 10
100.556267
 20
92.877434
 40
5.000000
 50
125.049797
 51
180.000000
  0
ARC
  8
0
  6
CONTINUOUS
 10
191.556244
 20
92.877380
 40
5.000000
 50
0.000000
 51
54.950901
  0
LINE
  8
0
  6
CONTINUOUS
 10
196.556244
 20
12.977500
 11
196.556244
 21
92.877403
  0
ARC
  8
0
  6
CONTINUOUS
 10
194.556244
 20
12.977490
 40
2.000000
 50
0.000000
 51
90.000000
  0
LINE
  8
0
  6
CONTINUOUS
 10
95.556252
 20
92.877434
 11
95.556252
 21
92.877403
  0
ARC
  8
0
  6
CONTINUOUS
 10
97.556259
 20
12.977500
 40
2.000000
 50
90.000000
 51
180.000000
  0
LINE
  8
0
  6
DASHED
 10
188.306244
 20
14.977500
 11
188.306244
 21
5.977500
  0
LINE
  8
0
  6
DASHED
 10
179.806244
 20
14.977500
 11
179.806244
 21
5.977500
  0
LINE
  8
0
  6
DASHED
 10
112.306252
 20
14.977500
 11
112.306252
 21
5.977500
  0
LINE
  8
0
  6
DASHED
 10
103.806252
 20
14.977500
 11
103.806252
 21
5.977500
  0
CIRCLE
  8
0
  6
CONTINUOUS
 10
146.056244
 20
80.977501
 40
23.500000
  0
LINE
  8
0
  6
CONTINUOUS
 10
98.056252
 20
81.669693
 11
98.056252
 21
50.284985
  0
LINE
  8
0
  6
CONTINUOUS
 10
194.056244
 20
81.669861
 11
194.056244
 21
50.285149
  0
ARC
  8
0
  6
CONTINUOUS
 10
146.056244
 20
65.977501
 40
50.500000
 50
198.103806
 51
341.896210
  0
LINE
  8
0
  6
CONTINUOUS
 10
95.556267
 20
92.877411
 11
95.556198
 21
5.977500
  0
ARC
  8
0
  6
CONTINUOUS
 10
146.056244
 20
65.977501
 40
50.500000
 50
18.103790
 51
161.896194
  0
LINE
  8
0
  6
CONTINUOUS
 10
23.056250
 20
89.686798
 11
93.939163
 21
89.686798
  0
LINE
  8
0
  6
CONTINUOUS
 10
23.056250
 20
20.868200
 11
93.939163
 21
20.868200
  0
LINE
  8
0
  6
CONTINUOUS
 10
139.681244
 20
43.530720
 11
139.681244
 21
37.977501
  0
LINE
  8
0
  6
CONTINUOUS
 10
142.868744
 20
45.547813
 11
142.868744
 21
47.540001
  0
LINE
  8
0
  6
CONTINUOUS
 10
149.243744
 20
45.547813
 11
149.243744
 21
47.540001
  0
LINE
  8
0
  6
CONTINUOUS
 10
145.433655
 20
46.369591
 11
145.433655
 21
39.023399
  0
LINE
  8
0
  6
CONTINUOUS
 10
146.629044
 20
46.369591
 11
146.629044
 21
39.023399
  0
LINE
  8
0
  6
CONTINUOUS
 10
152.904343
 20
46.369591
 11
152.904343
 21
38.973591
  0
LINE
  8
0
  6
CONTINUOUS
 10
154.000046
 20
42.447472
 11
154.000046
 21
38.973591
  0
LINE
  8
0
  6
CONTINUOUS
 10
138.168747
 20
46.269981
 11
135.096848
 21
46.269981
  0
LINE
  8
0
  6
CONTINUOUS
 10
135.096848
 20
46.269981
 11
134.377045
 21
45.377487
  0
LINE
  8
0
  6
CONTINUOUS
 10
134.463654
 20
47.540001
 11
133.306244
 21
46.058006
  0
LINE
  8
0
  6
CONTINUOUS
 10
134.377045
 20
39.868420
 11
135.108353
 21
39.098110
  0
LINE
  8
0
  6
CONTINUOUS
 10
133.306244
 20
39.218361
 11
134.536057
 21
37.977501
  0
LINE
  8
0
  6
CONTINUOUS
 10
133.306244
 20
46.058006
 11
133.306244
 21
39.218361
  0
LINE
  8
0
  6
CONTINUOUS
 10
134.377045
 20
45.377487
 11
134.377045
 21
39.868420
  0
LINE
  8
0
  6
CONTINUOUS
 10
138.759857
 20
45.698540
 11
138.156647
 21
46.269981
  0
LINE
  8
0
  6
CONTINUOUS
 10
138.750244
 20
47.540001
 11
139.681244
 21
46.506859
  0
LINE
  8
0
  6
CONTINUOUS
 10
138.759857
 20
45.547813
 11
139.681244
 21
45.547813
  0
LINE
  8
0
  6
CONTINUOUS
 10
134.463654
 20
47.540001
 11
138.750244
 21
47.540001
  0
LINE
  8
0
  6
CONTINUOUS
 10
138.759857
 20
42.484821
 11
137.091446
 21
42.484821
  0
LINE
  8
0
  6
CONTINUOUS
 10
138.759857
 20
41.488731
 11
138.759857
 21
42.285610
  0
LINE
  8
0
  6
CONTINUOUS
 10
136.767654
 20
39.098110
 11
135.108353
 21
39.098110
  0
ARC
  8
0
  6
CONTINUOUS
 10
136.767654
 20
41.090290
 40
1.992187
 50
-89.999786
 51
0.000109
  0
LINE
  8
0
  6
CONTINUOUS
 10
138.759857
 20
38.739769
 11
138.759857
 21
37.977501
  0
LINE
  8
0
  6
CONTINUOUS
 10
139.681244
 20
46.506859
 11
139.681244
 21
45.547813
  0
LINE
  8
0
  6
CONTINUOUS
 10
138.759857
 20
42.484821
 11
138.759857
 21
41.090290
  0
LINE
  8
0
  6
CONTINUOUS
 10
137.091446
 20
43.530720
 11
137.091446
 21
42.484821
  0
LINE
  8
0
  6
CONTINUOUS
 10
138.759857
 20
37.977501
 11
139.681244
 21
37.977501
  0
LINE
  8
0
  6
CONTINUOUS
 10
138.759857
 20
38.739769
 11
137.851349
 21
37.977501
  0
LINE
  8
0
  6
CONTINUOUS
 10
146.629044
 20
39.023399
 11
147.027451
 21
39.023399
  0
LINE
  8
0
  6
CONTINUOUS
 10
144.960556
 20
39.023399
 11
144.960556
 21
37.977501
  0
LINE
  8
0
  6
CONTINUOUS
 10
147.027451
 20
39.023399
 11
147.027451
 21
37.977501
  0
LINE
  8
0
  6
CONTINUOUS
 10
148.578751
 20
45.547813
 11
149.243744
 21
45.547813
  0
LINE
  8
0
  6
CONTINUOUS
 10
142.868744
 20
45.547813
 11
143.576355
 21
45.547813
  0
LINE
  8
0
  6
CONTINUOUS
 10
142.868744
 20
47.540001
 11
149.243744
 21
47.540001
  0
LINE
  8
0
  6
CONTINUOUS
 10
144.960556
 20
37.977501
 11
147.027451
 21
37.977501
  0
LINE
  8
0
  6
CONTINUOUS
 10
144.960556
 20
39.023399
 11
145.433655
 21
39.023399
  0
ARC
  8
0
  6
CONTINUOUS
 10
156.253754
 20
44.987511
 40
2.552490
 50
-73.981873
 51
90.003510
  0
ARC
  8
0
  6
CONTINUOUS
 10
156.253754
 20
44.987511
 40
1.557193
 50
-82.585274
 51
62.411850
  0
LINE
  8
0
  6
CONTINUOUS
 10
152.431244
 20
47.540001
 11
156.253754
 21
47.540001
  0
LINE
  8
0
  6
CONTINUOUS
 10
152.431244
 20
47.540001
 11
152.431244
 21
46.369591
  0
LINE
  8
0
  6
CONTINUOUS
 10
154.000046
 20
46.369591
 11
154.000046
 21
43.443340
  0
LINE
  8
0
  6
CONTINUOUS
 10
156.958054
 20
42.534119
 11
158.537949
 21
38.973591
  0
LINE
  8
0
  6
CONTINUOUS
 10
156.040543
 20
42.447472
 11
157.535645
 21
38.973591
  0
LINE
  8
0
  6
CONTINUOUS
 10
152.431244
 20
38.973591
 11
152.904343
 21
38.973591
  0
LINE
  8
0
  6
CONTINUOUS
 10
154.000046
 20
38.973591
 11
154.435852
 21
38.973591
  0
LINE
  8
0
  6
CONTINUOUS
 10
154.435852
 20
37.977501
 11
152.431244
 21
37.977501
  0
LINE
  8
0
  6
CONTINUOUS
 10
157.337051
 20
38.973591
 11
157.535645
 21
38.973591
  0
LINE
  8
0
  6
CONTINUOUS
 10
158.537949
 20
38.973591
 11
158.806244
 21
38.973591
  0
LINE
  8
0
  6
CONTINUOUS
 10
157.337051
 20
37.977501
 11
158.806244
 21
37.977501
  0
LINE
  8
0
  6
CONTINUOUS
 10
158.806244
 20
38.973591
 11
158.806244
 21
37.977501
  0
LINE
  8
0
  6
CONTINUOUS
 10
157.337051
 20
38.973591
 11
157.337051
 21
37.977501
  0
LINE
  8
0
  6
CONTINUOUS
 10
154.435852
 20
38.973591
 11
154.435852
 21
37.977501
  0
LINE
  8
0
  6
CONTINUOUS
 10
152.431244
 20
38.973591
 11
152.431244
 21
37.977501
  0
LINE
  8
0
  6
CONTINUOUS
 10
143.918747
 20
46.369591
 11
143.576355
 21
45.547813
  0
LINE
  8
0
  6
CONTINUOUS
 10
148.290054
 20
46.369591
 11
148.578751
 21
45.547813
  0
LINE
  8
0
  6
CONTINUOUS
 10
146.629044
 20
46.369591
 11
148.290054
 21
46.369591
  0
LINE
  8
0
  6
CONTINUOUS
 10
145.433655
 20
46.369591
 11
143.918747
 21
46.369591
  0
LINE
  8
0
  6
CONTINUOUS
 10
152.431244
 20
46.369591
 11
152.904343
 21
46.369591
  0
LINE
  8
0
  6
CONTINUOUS
 10
154.000046
 20
46.369591
 11
156.974945
 21
46.367653
  0
LINE
  8
0
  6
CONTINUOUS
 10
138.759857
 20
45.698540
 11
138.759857
 21
45.547813
  0
LINE
  8
0
  6
CONTINUOUS
 10
134.536057
 20
37.977501
 11
137.851349
 21
37.977501
  0
LINE
  8
0
  6
CONTINUOUS
 10
154.000046
 20
43.443340
 11
156.454742
 21
43.443340
  0
LINE
  8
0
  6
CONTINUOUS
 10
154.000046
 20
42.447472
 11
156.040543
 21
42.447472
  0
LINE
  8
0
  6
CONTINUOUS
 10
137.091446
 20
43.530720
 11
139.681244
 21
43.530720
  0
LINE
  8
0
  6
CENTER
 10
352.556244
 20
-4.316250
 11
352.556244
 21
141.870621
  0
LINE
  8
0
  6
CENTER
 10
298.866852
 20
55.277500
 11
405.059448
 21
55.277500
  0
LINE
  8
0
  6
CONTINUOUS
 10
410.556244
 20
12.977500
 11
410.556244
 21
5.977500
  0
LINE
  8
0
  6
CONTINUOUS
 10
294.556244
 20
12.977500
 11
294.556244
 21
5.977500
  0
LINE
  8
0
  6
CONTINUOUS
 10
294.556244
 20
5.977500
 11
410.556244
 21
5.977500
  0
LINE
  8
0
  6
CONTINUOUS
 10
392.556244
 20
14.977500
 11
408.556244
 21
14.977500
  0
LINE
  8
0
  6
CONTINUOUS
 10
315.556244
 20
17.977501
 11
315.556244
 21
116.366127
  0
LINE
  8
0
  6
CONTINUOUS
 10
389.556244
 20
17.977501
 11
389.556244
 21
116.366257
  0
LINE
  8
0
  6
CONTINUOUS
 10
394.556244
 20
58.477497
 11
394.556244
 21
103.477501
  0
LINE
  8
0
  6
CONTINUOUS
 10
393.556244
 20
104.477501
 11
391.556244
 21
104.477501
  0
LINE
  8
0
  6
CONTINUOUS
 10
393.556244
 20
57.477497
 11
391.556244
 21
57.477497
  0
LINE
  8
0
  6
CONTINUOUS
 10
352.556244
 20
118.977501
 11
387.591156
 21
118.365967
  0
LINE
  8
0
  6
CONTINUOUS
 10
317.521362
 20
118.365829
 11
352.556244
 21
118.977501
  0
ARC
  8
0
  6
CONTINUOUS
 10
391.556244
 20
106.477501
 40
2.000000
 50
180.000000
 51
270.000000
  0
ARC
  8
0
  6
CONTINUOUS
 10
387.556244
 20
116.366257
 40
2.000000
 50
0.000000
 51
89.000137
  0
ARC
  8
0
  6
CONTINUOUS
 10
317.556244
 20
116.366142
 40
2.000000
 50
91.000641
 51
180.000000
  0
ARC
  8
0
  6
CONTINUOUS
 10
391.556244
 20
55.477509
 40
2.000000
 50
90.000000
 51
180.000000
  0
ARC
  8
0
  6
CONTINUOUS
 10
393.556244
 20
103.477493
 40
1.000000
 50
0.000000
 51
90.000000
  0
ARC
  8
0
  6
CONTINUOUS
 10
393.556244
 20
58.477493
 40
1.000000
 50
-90.000000
 51
0.000000
  0
LINE
  8
0
  6
CONTINUOUS
 10
316.806244
 20
95.477501
 11
388.556244
 21
95.477501
  0
ARC
  8
0
  6
CONTINUOUS
 10
408.556244
 20
12.977490
 40
2.000000
 50
0.000000
 51
90.000000
  0
ARC
  8
0
  6
CONTINUOUS
 10
296.556244
 20
12.977510
 40
2.000000
 50
90.000000
 51
180.000000
  0
LINE
  8
0
  6
CENTER
 10
400.556244
 20
18.933750
 11
400.556244
 21
1.683750
  0
LINE
  8
0
  6
CENTER
 10
304.556244
 20
18.933750
 11
304.556244
 21
0.933750
  0
LINE
  8
0
  6
DASHED
 10
308.806244
 20
14.977500
 11
308.806244
 21
5.977500
  0
LINE
  8
0
  6
DASHED
 10
300.306244
 20
14.977500
 11
300.306244
 21
5.977500
  0
LINE
  8
0
  6
DASHED
 10
404.806244
 20
14.977500
 11
404.806244
 21
5.977500
  0
LINE
  8
0
  6
DASHED
 10
396.306244
 20
14.977500
 11
396.306244
 21
5.977500
  0
ARC
  8
0
  6
CONTINUOUS
 10
352.556244
 20
55.277500
 40
45.000000
 50
159.637695
 51
214.692093
  0
ARC
  8
0
  6
CONTINUOUS
 10
352.556244
 20
55.277500
 40
45.000000
 50
-34.692108
 51
20.437799
  0
LINE
  8
0
  6
CONTINUOUS
 10
310.556244
 20
58.477497
 11
310.556244
 21
103.477501
  0
LINE
  8
0
  6
CONTINUOUS
 10
311.556244
 20
104.477501
 11
313.556244
 21
104.477501
  0
LINE
  8
0
  6
CONTINUOUS
 10
311.556244
 20
57.477497
 11
313.556244
 21
57.477497
  0
ARC
  8
0
  6
CONTINUOUS
 10
313.556244
 20
106.477501
 40
2.000000
 50
-90.000000
 51
0.000000
  0
ARC
  8
0
  6
CONTINUOUS
 10
313.556244
 20
55.477509
 40
2.000000
 50
0.000000
 51
90.000000
  0
ARC
  8
0
  6
CONTINUOUS
 10
311.556244
 20
103.477493
 40
1.000000
 50
90.000000
 51
180.000000
  0
ARC
  8
0
  6
CONTINUOUS
 10
311.556244
 20
58.477493
 40
1.000000
 50
180.000000
 51
270.000000
  0
LINE
  8
0
  6
CENTER
 10
399.556152
 20
80.977501
 11
270.306244
 21
80.977501
  0
LINE
  8
0
  6
CONTINUOUS
 10
312.556244
 20
14.977500
 11
296.556244
 21
14.977500
  0
ARC
  8
0
  6
CONTINUOUS
 10
312.556244
 20
17.977501
 40
3.000000
 50
-90.000000
 51
0.000000
  0
ARC
  8
0
  6
CONTINUOUS
 10
392.556244
 20
17.977501
 40
3.000000
 50
180.000000
 51
270.000000
  0
LINE
  8
0
  6
CONTINUOUS
 10
151.556244
 20
77.977524
 11
151.556244
 21
83.977524
  0
LINE
  8
0
  6
CONTINUOUS
 10
157.556244
 20
77.977539
 11
157.556244
 21
83.977539
  0
LINE
  8
0
  6
CONTINUOUS
 10
157.556244
 20
77.977539
 11
151.556244
 21
77.977524
  0
LINE
  8
0
  6
CONTINUOUS
 10
157.556244
 20
83.977539
 11
151.556244
 21
83.977524
  0
ARC
  8
0
  6
CONTINUOUS
 10
146.056244
 20
80.977501
 40
9.000000
 50
19.471210
 51
340.528809
  0
LINE
  8
0
  6
CONTINUOUS
 10
278.556244
 20
71.977501
 11
278.556244
 21
89.977501
  0
LINE
  8
0
  6
CONTINUOUS
 10
308.556244
 20
89.977501
 11
278.556244
 21
89.977501
  0
LINE
  8
0
  6
CONTINUOUS
 10
308.556244
 20
71.977501
 11
278.556244
 21
71.977501
  0
LINE
  8
0
  6
CONTINUOUS
 10
308.556244
 20
90.977501
 11
308.556244
 21
70.977501
  0
LINE
  8
0
  6
CONTINUOUS
 10
310.556244
 20
90.977501
 11
308.556244
 21
90.977501
  0
LINE
  8
0
  6
CONTINUOUS
 10
310.556244
 20
70.977501
 11
308.556244
 21
70.977501
  0
ARC
  8
0
  6
CONTINUOUS
 10
302.556244
 20
80.977501
 40
3.000000
 50
-90.000000
 51
90.000000
  0
LINE
  8
0
  6
CONTINUOUS
 10
302.556244
 20
83.977501
 11
278.556244
 21
83.977501
  0
LINE
  8
0
  6
CONTINUOUS
 10
302.556244
 20
77.977501
 11
278.556244
 21
77.977501
  0
LINE
  8
0
  6
CENTER
 10
146.056244
 20
342.755005
 11
146.056244
 21
195.287506
  0
LINE
  8
0
  6
CENTER
 10
184.056244
 20
332.089996
 11
184.056244
 21
313.327515
  0
LINE
  8
0
  6
CENTER
 10
-10.930000
 20
275.580627
 11
210.197495
 21
275.580627
  0
LINE
  8
0
  6
CONTINUOUS
 10
195.715363
 20
323.755157
 11
196.556244
 21
275.580627
  0
LINE
  8
0
  6
CONTINUOUS
 10
185.716888
 20
333.580627
 11
146.056244
 21
333.580627
  0
LINE
  8
0
  6
CONTINUOUS
 10
97.556252
 20
312.580627
 11
193.945023
 21
312.580627
  0
ARC
  8
0
  6
CONTINUOUS
 10
185.716888
 20
323.580627
 40
10.000000
 50
1.000000
 51
90.000000
  0
ARC
  8
0
  6
CONTINUOUS
 10
193.945023
 20
310.580627
 40
2.000000
 50
1.000000
 51
90.000000
  0
LINE
  8
0
  6
CENTER
 10
174.460938
 20
323.580627
 11
194.803436
 21
323.580627
  0
CIRCLE
  8
0
  6
CONTINUOUS
 10
184.056244
 20
323.580627
 40
4.250000
  0
LINE
  8
0
  6
CONTINUOUS
 10
2.556250
 20
240.580627
 11
2.556250
 21
310.580627
  0
LINE
  8
0
  6
CONTINUOUS
 10
7.097699
 20
320.580627
 11
23.056250
 21
320.580627
  0
LINE
  8
0
  6
CONTINUOUS
 10
3.056250
 20
317.580627
 11
3.056250
 21
233.580627
  0
LINE
  8
0
  6
CONTINUOUS
 10
23.056250
 20
304.580627
 11
4.806250
 21
304.580627
  0
ARC
  8
0
  6
CONTINUOUS
 10
2.556249
 20
311.080627
 40
0.500000
 50
-90.000000
 51
0.000000
  0
LINE
  8
0
  6
CONTINUOUS
 10
3.633593
 20
318.580627
 11
3.056250
 21
317.580627
  0
ARC
  8
0
  6
CONTINUOUS
 10
7.097713
 20
316.580627
 40
4.000000
 50
90.000000
 51
150.000397
  0
LINE
  8
0
  6
CONTINUOUS
 10
7.097699
 20
230.580627
 11
23.056250
 21
230.580627
  0
ARC
  8
0
  6
CONTINUOUS
 10
2.556249
 20
240.080627
 40
0.500000
 50
0.000000
 51
90.000000
  0
LINE
  8
0
  6
CONTINUOUS
 10
3.633593
 20
232.580627
 11
3.056250
 21
233.580627
  0
ARC
  8
0
  6
CONTINUOUS
 10
7.097713
 20
234.580612
 40
4.000000
 50
-150.000397
 51
-90.000000
  0
LINE
  8
0
  6
CONTINUOUS
 10
23.056250
 20
230.580627
 11
23.056250
 21
250.580612
  0
LINE
  8
0
  6
CENTER
 10
108.056252
 20
332.287506
 11
108.056252
 21
313.327515
  0
LINE
  8
0
  6
CONTINUOUS
 10
96.397141
 20
323.755157
 11
96.211159
 21
313.100525
  0
ARC
  8
0
  6
CONTINUOUS
 10
106.395615
 20
323.580627
 40
10.000000
 50
90.000000
 51
179.000000
  0
ARC
  8
0
  6
CONTINUOUS
 10
98.167480
 20
310.580627
 40
2.000000
 50
90.000000
 51
179.000000
  0
LINE
  8
0
  6
CENTER
 10
117.383438
 20
323.580627
 11
97.830940
 21
323.580627
  0
CIRCLE
  8
0
  6
CONTINUOUS
 10
108.056252
 20
323.580627
 40
4.250000
  0
LINE
  8
0
  6
CONTINUOUS
 10
95.556252
 20
314.580627
 11
95.556252
 21
318.580627
  0
LINE
  8
0
  6
CONTINUOUS
 10
93.556252
 20
320.580627
 11
23.056250
 21
320.580627
  0
ARC
  8
0
  6
CONTINUOUS
 10
93.556252
 20
318.580627
 40
2.000000
 50
0.000000
 51
90.000000
  0
ARC
  8
0
  6
CONTINUOUS
 10
97.556252
 20
314.580627
 40
2.000000
 50
180.000000
 51
270.000000
  0
LINE
  8
0
  6
CONTINUOUS
 10
96.167786
 20
310.615540
 11
96.062447
 21
304.580627
  0
LINE
  8
0
  6
CONTINUOUS
 10
23.056250
 20
304.580627
 11
102.398804
 21
304.580627
  0
LINE
  8
0
  6
CONTINUOUS
 10
23.056250
 20
246.580627
 11
4.806250
 21
246.580627
  0
LINE
  8
0
  6
CONTINUOUS
 10
23.056250
 20
246.580627
 11
102.398804
 21
246.580627
  0
LINE
  8
0
  6
CONTINUOUS
 10
93.556252
 20
230.580627
 11
23.056250
 21
230.580627
  0
ARC
  8
0
  6
CONTINUOUS
 10
93.556252
 20
232.580627
 40
2.000000
 50
-90.000000
 51
0.000000
  0
LINE
  8
0
  6
CENTER
 10
184.056244
 20
218.725006
 11
184.056244
 21
237.783752
  0
LINE
  8
0
  6
CONTINUOUS
 10
195.715363
 20
227.406097
 11
196.556244
 21
275.580627
  0
LINE
  8
0
  6
CONTINUOUS
 10
185.716888
 20
217.580627
 11
157.556244
 21
217.580627
  0
LINE
  8
0
  6
CONTINUOUS
 10
97.556252
 20
238.580627
 11
193.945023
 21
238.580627
  0
ARC
  8
0
  6
CONTINUOUS
 10
185.716888
 20
227.580627
 40
10.000000
 50
-90.000000
 51
-1.000000
  0
ARC
  8
0
  6
CONTINUOUS
 10
193.945023
 20
240.580627
 40
2.000000
 50
-90.000000
 51
-1.000000
  0
LINE
  8
0
  6
CENTER
 10
174.954681
 20
227.580627
 11
195.000931
 21
227.580627
  0
CIRCLE
  8
0
  6
CONTINUOUS
 10
184.056244
 20
227.580627
 40
4.250000
  0
LINE
  8
0
  6
CENTER
 10
108.056252
 20
218.231247
 11
108.056252
 21
237.586243
  0
LINE
  8
0
  6
CONTINUOUS
 10
96.397141
 20
227.406097
 11
96.211159
 21
238.060745
  0
ARC
  8
0
  6
CONTINUOUS
 10
106.395615
 20
227.580627
 40
10.000000
 50
-179.000000
 51
-90.000000
  0
ARC
  8
0
  6
CONTINUOUS
 10
98.167480
 20
240.580627
 40
2.000000
 50
-179.000000
 51
-90.000000
  0
LINE
  8
0
  6
CENTER
 10
117.877190
 20
227.580627
 11
97.633438
 21
227.580627
  0
CIRCLE
  8
0
  6
CONTINUOUS
 10
108.056252
 20
227.580627
 40
4.250000
  0
LINE
  8
0
  6
CONTINUOUS
 10
95.556252
 20
236.580627
 11
95.556252
 21
232.580627
  0
ARC
  8
0
  6
CONTINUOUS
 10
97.556252
 20
236.580627
 40
2.000000
 50
-270.000000
 51
-180.000000
  0
LINE
  8
0
  6
CONTINUOUS
 10
96.167786
 20
240.545715
 11
96.062447
 21
246.580627
  0
LINE
  8
0
  6
CONTINUOUS
 10
129.056244
 20
307.580627
 11
129.056244
 21
243.580627
  0
LINE
  8
0
  6
CONTINUOUS
 10
163.056244
 20
307.580627
 11
163.056244
 21
243.580627
  0
LINE
  8
0
  6
CONTINUOUS
 10
102.398804
 20
302.580627
 11
102.398804
 21
248.580627
  0
LINE
  8
0
  6
CONTINUOUS
 10
168.556259
 20
317.580627
 11
123.556252
 21
317.580627
  0
LINE
  8
0
  6
CONTINUOUS
 10
122.556252
 20
316.580627
 11
122.556252
 21
314.580627
  0
LINE
  8
0
  6
CONTINUOUS
 10
169.556259
 20
316.580627
 11
169.556259
 21
314.580627
  0
ARC
  8
0
  6
CONTINUOUS
 10
120.556252
 20
314.580627
 40
2.000000
 50
-90.000000
 51
0.000000
  0
ARC
  8
0
  6
CONTINUOUS
 10
171.556244
 20
314.580627
 40
2.000000
 50
180.000000
 51
270.000000
  0
ARC
  8
0
  6
CONTINUOUS
 10
123.556259
 20
316.580627
 40
1.000000
 50
90.000000
 51
180.000000
  0
ARC
  8
0
  6
CONTINUOUS
 10
168.556259
 20
316.580627
 40
1.000000
 50
0.000000
 51
90.000000
  0
LINE
  8
0
  6
CONTINUOUS
 10
146.056244
 20
333.580627
 11
106.395615
 21
333.580627
  0
LINE
  8
0
  6
CONTINUOUS
 10
168.556259
 20
233.580627
 11
123.556252
 21
233.580627
  0
LINE
  8
0
  6
CONTINUOUS
 10
122.556252
 20
234.580627
 11
122.556252
 21
236.580627
  0
LINE
  8
0
  6
CONTINUOUS
 10
169.556259
 20
234.580627
 11
169.556259
 21
236.580627
  0
ARC
  8
0
  6
CONTINUOUS
 10
120.556252
 20
236.580627
 40
2.000000
 50
0.000000
 51
90.000000
  0
ARC
  8
0
  6
CONTINUOUS
 10
171.556244
 20
236.580627
 40
2.000000
 50
-270.000000
 51
-180.000000
  0
ARC
  8
0
  6
CONTINUOUS
 10
123.556259
 20
234.580627
 40
1.000000
 50
-180.000000
 51
-90.000000
  0
ARC
  8
0
  6
CONTINUOUS
 10
168.556259
 20
234.580627
 40
1.000000
 50
-90.000000
 51
0.000000
  0
LINE
  8
0
  6
CONTINUOUS
 10
157.556244
 20
201.580627
 11
137.056244
 21
201.580627
  0
LINE
  8
0
  6
CONTINUOUS
 10
137.056244
 20
231.580627
 11
137.056244
 21
201.580627
  0
LINE
  8
0
  6
CONTINUOUS
 10
155.056244
 20
231.580627
 11
155.056244
 21
228.580627
  0
LINE
  8
0
  6
CONTINUOUS
 10
136.056244
 20
231.580627
 11
156.056244
 21
231.580627
  0
LINE
  8
0
  6
CONTINUOUS
 10
136.056244
 20
233.580627
 11
136.056244
 21
231.580627
  0
LINE
  8
0
  6
CONTINUOUS
 10
156.056244
 20
233.580627
 11
156.056244
 21
231.580627
  0
LINE
  8
0
  6
CONTINUOUS
 10
157.556244
 20
201.580627
 11
157.556244
 21
228.580627
  0
LINE
  8
0
  6
CONTINUOUS
 10
157.556244
 20
228.580627
 11
154.541245
 21
228.580627
  0
LINE
  8
0
  6
CONTINUOUS
 10
154.541245
 20
201.580627
 11
154.541245
 21
228.580627
  0
LINE
  8
0
  6
CONTINUOUS
 10
137.056244
 20
217.580627
 11
106.395615
 21
217.580627
  0
LINE
  8
0
  6
CONTINUOUS
 10
23.056250
 20
300.580597
 11
23.056250
 21
320.580627
  0
LINE
  8
0
  6
CONTINUOUS
 10
13.056250
 20
283.080597
 11
14.056250
 21
283.080597
  0
ARC
  8
0
  6
CONTINUOUS
 10
13.056270
 20
282.080597
 40
1.000000
 50
90.000000
 51
180.000000
  0
LINE
  8
0
  6
CONTINUOUS
 10
8.556265
 20
279.580597
 11
8.556265
 21
271.580597
  0
LINE
  8
0
  6
CONTINUOUS
 10
8.556265
 20
279.580597
 11
12.056265
 21
281.080597
  0
LINE
  8
0
  6
CONTINUOUS
 10
8.556250
 20
271.580597
 11
12.056250
 21
270.080597
  0
LINE
  8
0
  6
CONTINUOUS
 10
12.056265
 20
282.080597
 11
12.056265
 21
269.080597
  0
LINE
  8
0
  6
CONTINUOUS
 10
13.056250
 20
268.080597
 11
14.056250
 21
268.080597
  0
ARC
  8
0
  6
CONTINUOUS
 10
13.056270
 20
269.080597
 40
1.000000
 50
-180.000000
 51
-90.000000
  0
LINE
  8
0
  6
CONTINUOUS
 10
14.056250
 20
252.580612
 11
14.056250
 21
298.580597
  0
LINE
  8
0
  6
CONTINUOUS
 10
16.056250
 20
300.580597
 11
14.056250
 21
298.580597
  0
LINE
  8
0
  6
CONTINUOUS
 10
16.056250
 20
300.580597
 11
62.056240
 21
300.580597
  0
LINE
  8
0
  6
CONTINUOUS
 10
56.556252
 20
296.080597
 11
56.556252
 21
300.580597
  0
ARC
  8
0
  6
CONTINUOUS
 10
59.556252
 20
296.080597
 40
3.000000
 50
180.000000
 51
270.000000
  0
LINE
  8
0
  6
CONTINUOUS
 10
59.556252
 20
293.080597
 11
64.056236
 21
293.080597
  0
CIRCLE
  8
0
  6
CONTINUOUS
 10
60.556252
 20
297.080597
 40
2.250000
  0
LINE
  8
0
  6
CONTINUOUS
 10
64.056244
 20
252.580612
 11
64.056236
 21
298.580597
  0
LINE
  8
0
  6
CONTINUOUS
 10
62.056240
 20
300.580597
 11
64.056236
 21
298.580597
  0
LINE
  8
0
  6
CONTINUOUS
 10
62.056244
 20
250.580612
 11
64.056244
 21
252.580612
  0
LINE
  8
0
  6
CONTINUOUS
 10
62.056244
 20
250.580612
 11
16.056250
 21
250.580612
  0
LINE
  8
0
  6
CONTINUOUS
 10
14.056250
 20
252.580612
 11
16.056250
 21
250.580612
  0
LINE
  8
0
  6
CONTINUOUS
 10
18.556250
 20
258.080597
 11
14.056260
 21
258.080597
  0
CIRCLE
  8
0
  6
CONTINUOUS
 10
17.556250
 20
254.080612
 40
2.250000
  0
ARC
  8
0
  6
CONTINUOUS
 10
18.556250
 20
255.080612
 40
3.000000
 50
0.000000
 51
90.000000
  0
LINE
  8
0
  6
CONTINUOUS
 10
21.556250
 20
255.080612
 11
21.556250
 21
250.580612
  0
LINE
  8
0
  6
CENTER
 10
39.056252
 20
243.114822
 11
39.056252
 21
307.246857
  0
LINE
  8
0
  6
CONTINUOUS
 10
16.470469
 20
299.580627
 11
15.056256
 21
298.166412
  0
LINE
  8
0
  6
CONTINUOUS
 10
15.056256
 20
258.080627
 11
15.056256
 21
298.166412
  0
LINE
  8
0
  6
CONTINUOUS
 10
56.556252
 20
299.580627
 11
16.470469
 21
299.580627
  0
LINE
  8
0
  6
CONTINUOUS
 10
63.056244
 20
293.080627
 11
63.056244
 21
252.994843
  0
LINE
  8
0
  6
CONTINUOUS
 10
21.556250
 20
251.580627
 11
61.642033
 21
251.580627
  0
LINE
  8
0
  6
CONTINUOUS
 10
61.642033
 20
251.580627
 11
63.056244
 21
252.994843
  0
LINE
  8
0
  6
CONTINUOUS
 10
15.556250
 20
101.777496
 11
62.056252
 21
101.777496
  0
LINE
  8
0
  6
CONTINUOUS
 10
64.056236
 20
131.777496
 11
64.056252
 21
103.777496
  0
LINE
  8
0
  6
CONTINUOUS
 10
14.056250
 20
131.777496
 11
14.056250
 21
103.777496
  0
LINE
  8
0
  6
CONTINUOUS
 10
12.056250
 20
113.777496
 11
64.056252
 21
113.777496
  0
LINE
  8
0
  6
CONTINUOUS
 10
62.056252
 20
101.777496
 11
64.056252
 21
103.777496
  0
LINE
  8
0
  6
CONTINUOUS
 10
14.056250
 20
103.777496
 11
16.056250
 21
101.777496
  0
LINE
  8
0
  6
CONTINUOUS
 10
14.056250
 20
103.777496
 11
64.056252
 21
103.777496
  0
LINE
  8
0
  6
CONTINUOUS
 10
15.056250
 20
132.777496
 11
63.056240
 21
132.777496
  0
LINE
  8
0
  6
CONTINUOUS
 10
63.056240
 20
132.777496
 11
64.056236
 21
131.777496
  0
LINE
  8
0
  6
CONTINUOUS
 10
15.056250
 20
132.777496
 11
14.056250
 21
131.777496
  0
LINE
  8
0
  6
CONTINUOUS
 10
14.056250
 20
131.777496
 11
64.056236
 21
131.777496
  0
LINE
  8
0
  6
CENTER
 10
6.112502
 20
123.277496
 11
18.187500
 21
123.277496
  0
LINE
  8
0
  6
CONTINUOUS
 10
12.056258
 20
129.777496
 11
12.056250
 21
113.777496
  0
LINE
  8
0
  6
CONTINUOUS
 10
13.056250
 20
130.777496
 11
14.056250
 21
130.777496
  0
ARC
  8
0
  6
CONTINUOUS
 10
13.056260
 20
129.777496
 40
1.000000
 50
90.000000
 51
180.000000
  0
LINE
  8
0
  6
CONTINUOUS
 10
8.556258
 20
127.277496
 11
8.556258
 21
119.277496
  0
LINE
  8
0
  6
CONTINUOUS
 10
8.556258
 20
127.277496
 11
12.056258
 21
128.777496
  0
LINE
  8
0
  6
CONTINUOUS
 10
8.556250
 20
119.277496
 11
12.056250
 21
117.777496
  0
LINE
  8
0
  6
CENTER
 10
39.056252
 20
97.083748
 11
39.056252
 21
138.164993
  0
LINE
  8
0
  6
CONTINUOUS
 10
15.556250
 20
101.777496
 11
15.556250
 21
100.277496
  0
LINE
  8
0
  6
CONTINUOUS
 10
61.556252
 20
101.777496
 11
61.556252
 21
100.277496
  0
LINE
  8
0
  6
CONTINUOUS
 10
377.556244
 20
131.777496
 11
377.556244
 21
118.541130
  0
LINE
  8
0
  6
CONTINUOUS
 10
327.556244
 20
131.777496
 11
327.556244
 21
118.541023
  0
LINE
  8
0
  6
CONTINUOUS
 10
328.556244
 20
132.777496
 11
376.556244
 21
132.777496
  0
LINE
  8
0
  6
CONTINUOUS
 10
376.556244
 20
132.777496
 11
377.556244
 21
131.777496
  0
LINE
  8
0
  6
CONTINUOUS
 10
328.556244
 20
132.777496
 11
327.556244
 21
131.777496
  0
LINE
  8
0
  6
CONTINUOUS
 10
327.556244
 20
131.777496
 11
377.556244
 21
131.777496
  0
TEXT
  8
0
 10
-10.000000
 20
-4.000000
 40
4.000000
 41
1.000000
  1
HLM-18R-160~240-S40T
 50
0.000000
  0
ENDSEC
  0
EOF
