  0
SECTION
  2
HEADER
  9
$CLAYER
  8
1
  9
$LTSCALE
 40
3.0
  0
ENDSEC
  0
SECTION
  2
TABLES
  0
TABLE
  2
LTYPE
 70
     4
  0
LTYPE
  2
CONTINUOUS
  3
solid line
 70
    64
 72
    65
 73
     0
 40
0.0
  0
LTYPE
  2
DASHED
  3
__ __ __ __ __ __ __ __ __ __ __ __ __ __ __
 70
    64
 72
    65
 73
     2
 40
0.75
 49
0.5
 49
-0.25
  0
LTYPE
  2
CENTER
  3
____ _ ____ _ ____ _ ____ _ ____ _ ____ _ ____
 70
    64
 72
    65
 73
     4
 40
2.0
 49
1.25
 49
-0.25
 49
0.25
 49
-0.25
  0
LTYPE
  2
PHANTOM
  3
_____ _ _ _____ _ _ _____ _ _ _____ _ _ ____
 70
    64
 72
    65
 73
     6
 40
2.5
 49
1.25
 49
-0.25
 49
0.25
 49
-0.25
 49
0.25
 49
-0.25
  0
ENDTAB
  0
TABLE
  2
LAYER
 70
     1
  0
LAYER
  2
0
 70
    64
 62
     7
  6
CONTINUOUS
  0
ENDTAB
  0
TABLE
  2
STYLE
 70
     1
  0
STYLE
  2
STANDARD
 70
     0
 40
0.000000
 41
1.000000
 50
0.000000
 71
     0
 42
3.000000
  3
txt
  4
BIGFONT
  0
ENDTAB
  0
ENDSEC
  0
SECTION
  2
BLOCKS
  0
ENDSEC
  0
SECTION
  2
ENTITIES
  0
LINE
  8
0
  6
CONTINUOUS
 10
54.321239
 20
95.364998
 11
63.821239
 21
95.364998
  0
LINE
  8
0
  6
CONTINUOUS
 10
63.821239
 20
84.774300
 11
54.321239
 21
84.774300
  0
LINE
  8
0
  6
CONTINUOUS
 10
54.321239
 20
5.365000
 11
63.821239
 21
5.365000
  0
LINE
  8
0
  6
CONTINUOUS
 10
63.821239
 20
15.955700
 11
54.321239
 21
15.955700
  0
LINE
  8
0
  6
CONTINUOUS
 10
54.321239
 20
97.364998
 11
54.321239
 21
3.365000
  0
LINE
  8
0
  6
CONTINUOUS
 10
54.321239
 20
79.364998
 11
10.346240
 21
79.364998
  0
LINE
  8
0
  6
CONTINUOUS
 10
54.321239
 20
21.365000
 11
10.346239
 21
21.365000
  0
LINE
  8
0
  6
CONTINUOUS
 10
11.821238
 20
97.364998
 11
54.321239
 21
97.364998
  0
LINE
  8
0
  6
CONTINUOUS
 10
11.821238
 20
3.365000
 11
54.321239
 21
3.365000
  0
ARC
  8
0
  6
CONTINUOUS
 10
11.821263
 20
92.365028
 40
5.000000
 50
90.000000
 51
180.000000
  0
ARC
  8
0
  6
CONTINUOUS
 10
11.821237
 20
8.365000
 40
5.000000
 50
180.000000
 51
270.000000
  0
LINE
  8
0
  6
CONTINUOUS
 10
6.821263
 20
92.365013
 11
6.821238
 21
8.364990
  0
LINE
  8
0
  6
CONTINUOUS
 10
63.821239
 20
5.365000
 11
63.821239
 21
95.364998
  0
LINE
  8
0
  6
CENTER
 10
-7.162812
 20
50.365002
 11
159.610748
 21
50.365002
  0
LINE
  8
0
  6
CONTINUOUS
 10
237.321243
 20
8.065000
 11
237.321243
 21
1.065000
  0
LINE
  8
0
  6
CONTINUOUS
 10
63.821239
 20
5.365000
 11
136.321243
 21
5.365000
  0
LINE
  8
0
  6
CONTINUOUS
 10
63.821239
 20
95.364998
 11
143.163757
 21
95.364998
  0
LINE
  8
0
  6
CENTER
 10
186.821243
 20
124.052498
 11
186.821243
 21
-6.154100
  0
LINE
  8
0
  6
CENTER
 10
151.308548
 20
76.065002
 11
220.191254
 21
76.065002
  0
LINE
  8
0
  6
CONTINUOUS
 10
136.321243
 20
1.065000
 11
237.321243
 21
1.065000
  0
LINE
  8
0
  6
CONTINUOUS
 10
171.400146
 20
114.065002
 11
202.242355
 21
114.065002
  0
LINE
  8
0
  6
CONTINUOUS
 10
138.321243
 20
10.065000
 11
235.321243
 21
10.065000
  0
LINE
  8
0
  6
CENTER
 10
224.821243
 20
15.552500
 11
224.821243
 21
-5.697500
  0
LINE
  8
0
  6
CENTER
 10
148.821243
 20
15.802500
 11
148.821243
 21
-6.197500
  0
LINE
  8
0
  6
CONTINUOUS
 10
235.192657
 20
92.058182
 11
205.113754
 21
113.158287
  0
LINE
  8
0
  6
CONTINUOUS
 10
138.449844
 20
92.058182
 11
168.528748
 21
113.158279
  0
ARC
  8
0
  6
CONTINUOUS
 10
202.242447
 20
109.064987
 40
5.000000
 50
54.950878
 51
90.000000
  0
ARC
  8
0
  6
CONTINUOUS
 10
171.400146
 20
109.065002
 40
5.000000
 50
90.000000
 51
125.049698
  0
ARC
  8
0
  6
CONTINUOUS
 10
141.321243
 20
87.964928
 40
5.000000
 50
125.049797
 51
180.000000
  0
ARC
  8
0
  6
CONTINUOUS
 10
232.321243
 20
87.964882
 40
5.000000
 50
0.000000
 51
54.950901
  0
LINE
  8
0
  6
CONTINUOUS
 10
237.321243
 20
8.065000
 11
237.321243
 21
87.964897
  0
ARC
  8
0
  6
CONTINUOUS
 10
235.321243
 20
8.064990
 40
2.000000
 50
0.000000
 51
90.000000
  0
LINE
  8
0
  6
CONTINUOUS
 10
136.321243
 20
87.964928
 11
136.321243
 21
87.964897
  0
ARC
  8
0
  6
CONTINUOUS
 10
138.321243
 20
8.065000
 40
2.000000
 50
90.000000
 51
180.000000
  0
LINE
  8
0
  6
DASHED
 10
229.071243
 20
10.065000
 11
229.071243
 21
1.065000
  0
LINE
  8
0
  6
DASHED
 10
220.571243
 20
10.065000
 11
220.571243
 21
1.065000
  0
LINE
  8
0
  6
DASHED
 10
153.071243
 20
10.065000
 11
153.071243
 21
1.065000
  0
LINE
  8
0
  6
DASHED
 10
144.571243
 20
10.065000
 11
144.571243
 21
1.065000
  0
CIRCLE
  8
0
  6
CONTINUOUS
 10
186.821243
 20
76.065002
 40
23.500000
  0
LINE
  8
0
  6
CONTINUOUS
 10
138.821243
 20
76.757187
 11
138.821243
 21
45.372482
  0
LINE
  8
0
  6
CONTINUOUS
 10
234.821243
 20
76.757362
 11
234.821243
 21
45.372650
  0
ARC
  8
0
  6
CONTINUOUS
 10
186.821243
 20
61.064999
 40
50.500000
 50
198.103806
 51
341.896210
  0
LINE
  8
0
  6
CONTINUOUS
 10
136.321243
 20
87.964912
 11
136.321152
 21
1.065000
  0
ARC
  8
0
  6
CONTINUOUS
 10
186.821243
 20
61.064999
 40
50.500000
 50
18.103790
 51
161.896194
  0
LINE
  8
0
  6
CONTINUOUS
 10
63.821239
 20
84.774300
 11
134.704147
 21
84.774300
  0
LINE
  8
0
  6
CONTINUOUS
 10
63.821239
 20
15.955700
 11
134.704147
 21
15.955700
  0
LINE
  8
0
  6
CONTINUOUS
 10
180.446243
 20
38.618221
 11
180.446243
 21
33.064999
  0
LINE
  8
0
  6
CONTINUOUS
 10
183.633743
 20
40.635311
 11
183.633743
 21
42.627502
  0
LINE
  8
0
  6
CONTINUOUS
 10
190.008743
 20
40.635311
 11
190.008743
 21
42.627502
  0
LINE
  8
0
  6
CONTINUOUS
 10
186.198654
 20
41.457092
 11
186.198654
 21
34.110901
  0
LINE
  8
0
  6
CONTINUOUS
 10
187.394043
 20
41.457092
 11
187.394043
 21
34.110901
  0
LINE
  8
0
  6
CONTINUOUS
 10
193.669357
 20
41.457092
 11
193.669357
 21
34.061089
  0
LINE
  8
0
  6
CONTINUOUS
 10
194.765045
 20
37.534969
 11
194.765045
 21
34.061089
  0
LINE
  8
0
  6
CONTINUOUS
 10
178.933746
 20
41.357479
 11
175.861847
 21
41.357479
  0
LINE
  8
0
  6
CONTINUOUS
 10
175.861847
 20
41.357479
 11
175.142044
 21
40.464989
  0
LINE
  8
0
  6
CONTINUOUS
 10
175.228653
 20
42.627502
 11
174.071243
 21
41.145508
  0
LINE
  8
0
  6
CONTINUOUS
 10
175.142044
 20
34.955921
 11
175.873352
 21
34.185612
  0
LINE
  8
0
  6
CONTINUOUS
 10
174.071243
 20
34.305859
 11
175.301056
 21
33.064999
  0
LINE
  8
0
  6
CONTINUOUS
 10
174.071243
 20
41.145508
 11
174.071243
 21
34.305859
  0
LINE
  8
0
  6
CONTINUOUS
 10
175.142044
 20
40.464989
 11
175.142044
 21
34.955921
  0
LINE
  8
0
  6
CONTINUOUS
 10
179.524857
 20
40.786041
 11
178.921646
 21
41.357479
  0
LINE
  8
0
  6
CONTINUOUS
 10
179.515244
 20
42.627502
 11
180.446243
 21
41.594360
  0
LINE
  8
0
  6
CONTINUOUS
 10
179.524857
 20
40.635311
 11
180.446243
 21
40.635311
  0
LINE
  8
0
  6
CONTINUOUS
 10
175.228653
 20
42.627502
 11
179.515244
 21
42.627502
  0
LINE
  8
0
  6
CONTINUOUS
 10
179.524857
 20
37.572319
 11
177.856445
 21
37.572319
  0
LINE
  8
0
  6
CONTINUOUS
 10
179.524857
 20
36.576229
 11
179.524857
 21
37.373112
  0
LINE
  8
0
  6
CONTINUOUS
 10
177.532654
 20
34.185612
 11
175.873352
 21
34.185612
  0
ARC
  8
0
  6
CONTINUOUS
 10
177.532654
 20
36.177792
 40
1.992187
 50
-89.999786
 51
0.000109
  0
LINE
  8
0
  6
CONTINUOUS
 10
179.524857
 20
33.827271
 11
179.524857
 21
33.064999
  0
LINE
  8
0
  6
CONTINUOUS
 10
180.446243
 20
41.594360
 11
180.446243
 21
40.635311
  0
LINE
  8
0
  6
CONTINUOUS
 10
179.524857
 20
37.572319
 11
179.524857
 21
36.177792
  0
LINE
  8
0
  6
CONTINUOUS
 10
177.856445
 20
38.618221
 11
177.856445
 21
37.572319
  0
LINE
  8
0
  6
CONTINUOUS
 10
179.524857
 20
33.064999
 11
180.446243
 21
33.064999
  0
LINE
  8
0
  6
CONTINUOUS
 10
179.524857
 20
33.827271
 11
178.616348
 21
33.064999
  0
LINE
  8
0
  6
CONTINUOUS
 10
187.394043
 20
34.110901
 11
187.792450
 21
34.110901
  0
LINE
  8
0
  6
CONTINUOUS
 10
185.725555
 20
34.110901
 11
185.725555
 21
33.064999
  0
LINE
  8
0
  6
CONTINUOUS
 10
187.792450
 20
34.110901
 11
187.792450
 21
33.064999
  0
LINE
  8
0
  6
CONTINUOUS
 10
189.343750
 20
40.635311
 11
190.008743
 21
40.635311
  0
LINE
  8
0
  6
CONTINUOUS
 10
183.633743
 20
40.635311
 11
184.341354
 21
40.635311
  0
LINE
  8
0
  6
CONTINUOUS
 10
183.633743
 20
42.627502
 11
190.008743
 21
42.627502
  0
LINE
  8
0
  6
CONTINUOUS
 10
185.725555
 20
33.064999
 11
187.792450
 21
33.064999
  0
LINE
  8
0
  6
CONTINUOUS
 10
185.725555
 20
34.110901
 11
186.198654
 21
34.110901
  0
ARC
  8
0
  6
CONTINUOUS
 10
197.018753
 20
40.075008
 40
2.552490
 50
-73.981873
 51
90.003510
  0
ARC
  8
0
  6
CONTINUOUS
 10
197.018753
 20
40.075008
 40
1.557193
 50
-82.585274
 51
62.411850
  0
LINE
  8
0
  6
CONTINUOUS
 10
193.196243
 20
42.627502
 11
197.018753
 21
42.627502
  0
LINE
  8
0
  6
CONTINUOUS
 10
193.196243
 20
42.627502
 11
193.196243
 21
41.457092
  0
LINE
  8
0
  6
CONTINUOUS
 10
194.765045
 20
41.457092
 11
194.765045
 21
38.530842
  0
LINE
  8
0
  6
CONTINUOUS
 10
197.723053
 20
37.621620
 11
199.302948
 21
34.061089
  0
LINE
  8
0
  6
CONTINUOUS
 10
196.805557
 20
37.534969
 11
198.300644
 21
34.061089
  0
LINE
  8
0
  6
CONTINUOUS
 10
193.196243
 20
34.061089
 11
193.669357
 21
34.061089
  0
LINE
  8
0
  6
CONTINUOUS
 10
194.765045
 20
34.061089
 11
195.200851
 21
34.061089
  0
LINE
  8
0
  6
CONTINUOUS
 10
195.200851
 20
33.064999
 11
193.196243
 21
33.064999
  0
LINE
  8
0
  6
CONTINUOUS
 10
198.102051
 20
34.061089
 11
198.300644
 21
34.061089
  0
LINE
  8
0
  6
CONTINUOUS
 10
199.302948
 20
34.061089
 11
199.571243
 21
34.061089
  0
LINE
  8
0
  6
CONTINUOUS
 10
198.102051
 20
33.064999
 11
199.571243
 21
33.064999
  0
LINE
  8
0
  6
CONTINUOUS
 10
199.571243
 20
34.061089
 11
199.571243
 21
33.064999
  0
LINE
  8
0
  6
CONTINUOUS
 10
198.102051
 20
34.061089
 11
198.102051
 21
33.064999
  0
LINE
  8
0
  6
CONTINUOUS
 10
195.200851
 20
34.061089
 11
195.200851
 21
33.064999
  0
LINE
  8
0
  6
CONTINUOUS
 10
193.196243
 20
34.061089
 11
193.196243
 21
33.064999
  0
LINE
  8
0
  6
CONTINUOUS
 10
184.683746
 20
41.457092
 11
184.341354
 21
40.635311
  0
LINE
  8
0
  6
CONTINUOUS
 10
189.055054
 20
41.457092
 11
189.343750
 21
40.635311
  0
LINE
  8
0
  6
CONTINUOUS
 10
187.394043
 20
41.457092
 11
189.055054
 21
41.457092
  0
LINE
  8
0
  6
CONTINUOUS
 10
186.198654
 20
41.457092
 11
184.683746
 21
41.457092
  0
LINE
  8
0
  6
CONTINUOUS
 10
193.196243
 20
41.457092
 11
193.669357
 21
41.457092
  0
LINE
  8
0
  6
CONTINUOUS
 10
194.765045
 20
41.457092
 11
197.739944
 21
41.455154
  0
LINE
  8
0
  6
CONTINUOUS
 10
179.524857
 20
40.786041
 11
179.524857
 21
40.635311
  0
LINE
  8
0
  6
CONTINUOUS
 10
175.301056
 20
33.064999
 11
178.616348
 21
33.064999
  0
LINE
  8
0
  6
CONTINUOUS
 10
194.765045
 20
38.530842
 11
197.219757
 21
38.530842
  0
LINE
  8
0
  6
CONTINUOUS
 10
194.765045
 20
37.534969
 11
196.805557
 21
37.534969
  0
LINE
  8
0
  6
CONTINUOUS
 10
177.856445
 20
38.618221
 11
180.446243
 21
38.618221
  0
LINE
  8
0
  6
CENTER
 10
386.821259
 20
-9.228750
 11
386.821259
 21
151.579056
  0
LINE
  8
0
  6
CENTER
 10
333.131836
 20
50.365002
 11
438.050934
 21
50.365002
  0
LINE
  8
0
  6
CONTINUOUS
 10
444.821259
 20
8.065000
 11
444.821259
 21
1.065000
  0
LINE
  8
0
  6
CONTINUOUS
 10
328.821259
 20
8.065000
 11
328.821259
 21
1.065000
  0
LINE
  8
0
  6
CONTINUOUS
 10
328.821259
 20
1.065000
 11
444.821259
 21
1.065000
  0
LINE
  8
0
  6
CONTINUOUS
 10
426.821259
 20
10.065000
 11
442.821259
 21
10.065000
  0
LINE
  8
0
  6
CONTINUOUS
 10
349.821259
 20
13.065000
 11
349.821259
 21
111.453629
  0
LINE
  8
0
  6
CONTINUOUS
 10
423.821259
 20
13.065000
 11
423.821259
 21
111.453758
  0
LINE
  8
0
  6
CONTINUOUS
 10
428.821259
 20
53.564999
 11
428.821259
 21
98.565002
  0
LINE
  8
0
  6
CONTINUOUS
 10
427.821259
 20
99.565002
 11
425.821259
 21
99.565002
  0
LINE
  8
0
  6
CONTINUOUS
 10
427.821259
 20
52.564999
 11
425.821259
 21
52.564999
  0
LINE
  8
0
  6
CONTINUOUS
 10
386.821259
 20
114.065002
 11
421.856140
 21
113.453468
  0
LINE
  8
0
  6
CONTINUOUS
 10
351.786346
 20
113.453331
 11
386.821259
 21
114.065002
  0
ARC
  8
0
  6
CONTINUOUS
 10
425.821259
 20
101.565002
 40
2.000000
 50
180.000000
 51
270.000000
  0
ARC
  8
0
  6
CONTINUOUS
 10
421.821259
 20
111.453758
 40
2.000000
 50
0.000000
 51
89.000137
  0
ARC
  8
0
  6
CONTINUOUS
 10
351.821259
 20
111.453644
 40
2.000000
 50
91.000641
 51
180.000000
  0
ARC
  8
0
  6
CONTINUOUS
 10
425.821259
 20
50.565006
 40
2.000000
 50
90.000000
 51
180.000000
  0
ARC
  8
0
  6
CONTINUOUS
 10
427.821259
 20
98.564987
 40
1.000000
 50
0.000000
 51
90.000000
  0
ARC
  8
0
  6
CONTINUOUS
 10
427.821259
 20
53.564995
 40
1.000000
 50
-90.000000
 51
0.000000
  0
LINE
  8
0
  6
CONTINUOUS
 10
351.718048
 20
90.565002
 11
422.172760
 21
90.565002
  0
ARC
  8
0
  6
CONTINUOUS
 10
442.821259
 20
8.064990
 40
2.000000
 50
0.000000
 51
90.000000
  0
ARC
  8
0
  6
CONTINUOUS
 10
330.821259
 20
8.065010
 40
2.000000
 50
90.000000
 51
180.000000
  0
LINE
  8
0
  6
CENTER
 10
434.821259
 20
14.021250
 11
434.821259
 21
-3.228750
  0
LINE
  8
0
  6
CENTER
 10
338.821259
 20
14.021250
 11
338.821259
 21
-3.978750
  0
LINE
  8
0
  6
DASHED
 10
343.071259
 20
10.065000
 11
343.071259
 21
1.065000
  0
LINE
  8
0
  6
DASHED
 10
334.571259
 20
10.065000
 11
334.571259
 21
1.065000
  0
LINE
  8
0
  6
DASHED
 10
439.071259
 20
10.065000
 11
439.071259
 21
1.065000
  0
LINE
  8
0
  6
DASHED
 10
430.571259
 20
10.065000
 11
430.571259
 21
1.065000
  0
ARC
  8
0
  6
CONTINUOUS
 10
386.821259
 20
50.365002
 40
45.000000
 50
159.637695
 51
214.692093
  0
ARC
  8
0
  6
CONTINUOUS
 10
386.821259
 20
50.365002
 40
45.000000
 50
-34.692108
 51
20.437799
  0
LINE
  8
0
  6
CONTINUOUS
 10
344.821259
 20
53.564999
 11
344.821259
 21
98.565002
  0
LINE
  8
0
  6
CONTINUOUS
 10
345.821259
 20
99.565002
 11
347.821259
 21
99.565002
  0
LINE
  8
0
  6
CONTINUOUS
 10
345.821259
 20
52.564999
 11
347.821259
 21
52.564999
  0
ARC
  8
0
  6
CONTINUOUS
 10
347.821259
 20
101.565002
 40
2.000000
 50
-90.000000
 51
0.000000
  0
ARC
  8
0
  6
CONTINUOUS
 10
347.821259
 20
50.565006
 40
2.000000
 50
0.000000
 51
90.000000
  0
ARC
  8
0
  6
CONTINUOUS
 10
345.821259
 20
98.564987
 40
1.000000
 50
90.000000
 51
180.000000
  0
ARC
  8
0
  6
CONTINUOUS
 10
345.821259
 20
53.564995
 40
1.000000
 50
180.000000
 51
270.000000
  0
LINE
  8
0
  6
CENTER
 10
441.082825
 20
76.065002
 11
304.571259
 21
76.065002
  0
LINE
  8
0
  6
CONTINUOUS
 10
346.821259
 20
10.065000
 11
330.821259
 21
10.065000
  0
ARC
  8
0
  6
CONTINUOUS
 10
346.821259
 20
13.065000
 40
3.000000
 50
-90.000000
 51
0.000000
  0
ARC
  8
0
  6
CONTINUOUS
 10
426.821259
 20
13.065000
 40
3.000000
 50
180.000000
 51
270.000000
  0
LINE
  8
0
  6
CONTINUOUS
 10
433.821259
 20
76.465500
 11
433.821259
 21
24.264481
  0
LINE
  8
0
  6
CONTINUOUS
 10
339.821259
 20
24.264500
 11
339.821259
 21
67.065002
  0
LINE
  8
0
  6
CONTINUOUS
 10
431.770935
 20
81.415253
 11
428.821259
 21
84.364983
  0
LINE
  8
0
  6
CONTINUOUS
 10
341.871552
 20
19.314751
 11
349.490540
 21
11.695720
  0
LINE
  8
0
  6
CONTINUOUS
 10
431.771057
 20
19.314751
 11
424.151947
 21
11.695670
  0
ARC
  8
0
  6
CONTINUOUS
 10
346.821259
 20
24.264549
 40
7.000000
 50
180.000000
 51
225.000397
  0
ARC
  8
0
  6
CONTINUOUS
 10
426.821259
 20
24.264460
 40
7.000000
 50
-44.999599
 51
0.000000
  0
ARC
  8
0
  6
CONTINUOUS
 10
426.821259
 20
76.465477
 40
7.000000
 50
0.000000
 51
45.000229
  0
LINE
  8
0
  6
CONTINUOUS
 10
312.821259
 20
67.065002
 11
312.821259
 21
85.065002
  0
LINE
  8
0
  6
CONTINUOUS
 10
342.821259
 20
85.065002
 11
312.821259
 21
85.065002
  0
LINE
  8
0
  6
CONTINUOUS
 10
342.821259
 20
67.065002
 11
312.821259
 21
67.065002
  0
LINE
  8
0
  6
CONTINUOUS
 10
342.821259
 20
86.065002
 11
342.821259
 21
66.065002
  0
LINE
  8
0
  6
CONTINUOUS
 10
344.821259
 20
86.065002
 11
342.821259
 21
86.065002
  0
LINE
  8
0
  6
CONTINUOUS
 10
344.821259
 20
66.065002
 11
342.821259
 21
66.065002
  0
ARC
  8
0
  6
CONTINUOUS
 10
336.821259
 20
76.065002
 40
3.000000
 50
-90.000000
 51
90.000000
  0
LINE
  8
0
  6
CONTINUOUS
 10
336.821259
 20
79.065002
 11
312.821259
 21
79.065002
  0
LINE
  8
0
  6
CONTINUOUS
 10
336.821259
 20
73.065002
 11
312.821259
 21
73.065002
  0
LINE
  8
0
  6
CONTINUOUS
 10
192.321243
 20
73.065018
 11
192.321243
 21
79.065018
  0
LINE
  8
0
  6
CONTINUOUS
 10
198.321243
 20
73.065041
 11
198.321243
 21
79.065041
  0
LINE
  8
0
  6
CONTINUOUS
 10
198.321243
 20
73.065041
 11
192.321243
 21
73.065018
  0
LINE
  8
0
  6
CONTINUOUS
 10
198.321243
 20
79.065041
 11
192.321243
 21
79.065018
  0
ARC
  8
0
  6
CONTINUOUS
 10
186.821243
 20
76.065002
 40
9.000000
 50
19.471210
 51
340.528809
  0
LINE
  8
0
  6
CENTER
 10
186.821243
 20
317.043762
 11
186.821243
 21
169.576248
  0
LINE
  8
0
  6
CENTER
 10
224.821243
 20
306.378754
 11
224.821243
 21
287.616241
  0
LINE
  8
0
  6
CENTER
 10
-4.857500
 20
249.869370
 11
250.962494
 21
249.869370
  0
LINE
  8
0
  6
CONTINUOUS
 10
236.480362
 20
298.043884
 11
237.321243
 21
249.869370
  0
LINE
  8
0
  6
CONTINUOUS
 10
226.481888
 20
307.869385
 11
186.821243
 21
307.869385
  0
LINE
  8
0
  6
CONTINUOUS
 10
138.321243
 20
286.869385
 11
234.710022
 21
286.869385
  0
ARC
  8
0
  6
CONTINUOUS
 10
226.481888
 20
297.869385
 40
10.000000
 50
1.000000
 51
90.000000
  0
ARC
  8
0
  6
CONTINUOUS
 10
234.710022
 20
284.869385
 40
2.000000
 50
1.000000
 51
90.000000
  0
LINE
  8
0
  6
CENTER
 10
215.225937
 20
297.869385
 11
235.568436
 21
297.869385
  0
CIRCLE
  8
0
  6
CONTINUOUS
 10
224.821243
 20
297.869385
 40
4.250000
  0
LINE
  8
0
  6
CENTER
 10
148.821243
 20
306.576263
 11
148.821243
 21
287.616241
  0
LINE
  8
0
  6
CONTINUOUS
 10
137.162140
 20
298.043884
 11
136.976166
 21
287.389252
  0
ARC
  8
0
  6
CONTINUOUS
 10
147.160614
 20
297.869385
 40
10.000000
 50
90.000000
 51
179.000000
  0
ARC
  8
0
  6
CONTINUOUS
 10
138.932480
 20
284.869385
 40
2.000000
 50
90.000000
 51
179.000000
  0
LINE
  8
0
  6
CENTER
 10
158.148438
 20
297.869385
 11
138.595932
 21
297.869385
  0
CIRCLE
  8
0
  6
CONTINUOUS
 10
148.821243
 20
297.869385
 40
4.250000
  0
LINE
  8
0
  6
CONTINUOUS
 10
136.321243
 20
288.869385
 11
136.321243
 21
292.869385
  0
LINE
  8
0
  6
CONTINUOUS
 10
134.321243
 20
294.869385
 11
63.821251
 21
294.869385
  0
ARC
  8
0
  6
CONTINUOUS
 10
134.321243
 20
292.869385
 40
2.000000
 50
0.000000
 51
90.000000
  0
ARC
  8
0
  6
CONTINUOUS
 10
138.321243
 20
288.869385
 40
2.000000
 50
180.000000
 51
270.000000
  0
LINE
  8
0
  6
CONTINUOUS
 10
136.932785
 20
284.904266
 11
136.827454
 21
278.869385
  0
LINE
  8
0
  6
CONTINUOUS
 10
63.821251
 20
278.869385
 11
143.163803
 21
278.869385
  0
LINE
  8
0
  6
CONTINUOUS
 10
63.821251
 20
220.869370
 11
143.163803
 21
220.869370
  0
LINE
  8
0
  6
CONTINUOUS
 10
134.321243
 20
204.869370
 11
63.821251
 21
204.869370
  0
ARC
  8
0
  6
CONTINUOUS
 10
134.321243
 20
206.869370
 40
2.000000
 50
-90.000000
 51
0.000000
  0
LINE
  8
0
  6
CENTER
 10
224.821243
 20
193.013748
 11
224.821243
 21
212.072495
  0
LINE
  8
0
  6
CONTINUOUS
 10
236.480362
 20
201.694855
 11
237.321243
 21
249.869370
  0
LINE
  8
0
  6
CONTINUOUS
 10
226.481888
 20
191.869370
 11
198.321243
 21
191.869370
  0
LINE
  8
0
  6
CONTINUOUS
 10
138.321243
 20
212.869370
 11
234.710022
 21
212.869370
  0
ARC
  8
0
  6
CONTINUOUS
 10
226.481888
 20
201.869370
 40
10.000000
 50
-90.000000
 51
-1.000000
  0
ARC
  8
0
  6
CONTINUOUS
 10
234.710022
 20
214.869370
 40
2.000000
 50
-90.000000
 51
-1.000000
  0
LINE
  8
0
  6
CENTER
 10
215.719681
 20
201.869370
 11
235.765945
 21
201.869370
  0
CIRCLE
  8
0
  6
CONTINUOUS
 10
224.821243
 20
201.869370
 40
4.250000
  0
LINE
  8
0
  6
CENTER
 10
148.821243
 20
192.520004
 11
148.821243
 21
211.875000
  0
LINE
  8
0
  6
CONTINUOUS
 10
137.162140
 20
201.694855
 11
136.976166
 21
212.349487
  0
ARC
  8
0
  6
CONTINUOUS
 10
147.160614
 20
201.869370
 40
10.000000
 50
-179.000000
 51
-90.000000
  0
ARC
  8
0
  6
CONTINUOUS
 10
138.932480
 20
214.869370
 40
2.000000
 50
-179.000000
 51
-90.000000
  0
LINE
  8
0
  6
CENTER
 10
158.642181
 20
201.869370
 11
138.398438
 21
201.869370
  0
CIRCLE
  8
0
  6
CONTINUOUS
 10
148.821243
 20
201.869370
 40
4.250000
  0
LINE
  8
0
  6
CONTINUOUS
 10
136.321243
 20
210.869370
 11
136.321243
 21
206.869370
  0
ARC
  8
0
  6
CONTINUOUS
 10
138.321243
 20
210.869370
 40
2.000000
 50
-270.000000
 51
-180.000000
  0
LINE
  8
0
  6
CONTINUOUS
 10
136.932785
 20
214.834473
 11
136.827454
 21
220.869370
  0
LINE
  8
0
  6
CONTINUOUS
 10
169.821243
 20
281.869385
 11
169.821243
 21
217.869370
  0
LINE
  8
0
  6
CONTINUOUS
 10
203.821243
 20
281.869385
 11
203.821243
 21
217.869370
  0
LINE
  8
0
  6
CONTINUOUS
 10
143.163803
 20
276.869385
 11
143.163803
 21
222.869370
  0
LINE
  8
0
  6
CONTINUOUS
 10
209.321259
 20
291.869385
 11
164.321243
 21
291.869385
  0
LINE
  8
0
  6
CONTINUOUS
 10
163.321243
 20
290.869385
 11
163.321243
 21
288.869385
  0
LINE
  8
0
  6
CONTINUOUS
 10
210.321259
 20
290.869385
 11
210.321259
 21
288.869385
  0
ARC
  8
0
  6
CONTINUOUS
 10
161.321243
 20
288.869385
 40
2.000000
 50
-90.000000
 51
0.000000
  0
ARC
  8
0
  6
CONTINUOUS
 10
212.321243
 20
288.869385
 40
2.000000
 50
180.000000
 51
270.000000
  0
ARC
  8
0
  6
CONTINUOUS
 10
164.321259
 20
290.869385
 40
1.000000
 50
90.000000
 51
180.000000
  0
ARC
  8
0
  6
CONTINUOUS
 10
209.321259
 20
290.869385
 40
1.000000
 50
0.000000
 51
90.000000
  0
LINE
  8
0
  6
CONTINUOUS
 10
186.821243
 20
307.869385
 11
147.160614
 21
307.869385
  0
LINE
  8
0
  6
CONTINUOUS
 10
209.321259
 20
207.869370
 11
164.321243
 21
207.869370
  0
LINE
  8
0
  6
CONTINUOUS
 10
163.321243
 20
208.869370
 11
163.321243
 21
210.869370
  0
LINE
  8
0
  6
CONTINUOUS
 10
210.321259
 20
208.869370
 11
210.321259
 21
210.869370
  0
ARC
  8
0
  6
CONTINUOUS
 10
161.321243
 20
210.869370
 40
2.000000
 50
0.000000
 51
90.000000
  0
ARC
  8
0
  6
CONTINUOUS
 10
212.321243
 20
210.869370
 40
2.000000
 50
-270.000000
 51
-180.000000
  0
ARC
  8
0
  6
CONTINUOUS
 10
164.321259
 20
208.869370
 40
1.000000
 50
-180.000000
 51
-90.000000
  0
ARC
  8
0
  6
CONTINUOUS
 10
209.321259
 20
208.869370
 40
1.000000
 50
-90.000000
 51
0.000000
  0
LINE
  8
0
  6
CONTINUOUS
 10
198.321243
 20
175.869370
 11
177.821243
 21
175.869370
  0
LINE
  8
0
  6
CONTINUOUS
 10
177.821243
 20
205.869370
 11
177.821243
 21
175.869370
  0
LINE
  8
0
  6
CONTINUOUS
 10
195.821243
 20
205.869370
 11
195.821243
 21
202.869370
  0
LINE
  8
0
  6
CONTINUOUS
 10
176.821243
 20
205.869370
 11
196.821243
 21
205.869370
  0
LINE
  8
0
  6
CONTINUOUS
 10
176.821243
 20
207.869370
 11
176.821243
 21
205.869370
  0
LINE
  8
0
  6
CONTINUOUS
 10
196.821243
 20
207.869370
 11
196.821243
 21
205.869370
  0
LINE
  8
0
  6
CONTINUOUS
 10
198.321243
 20
175.869370
 11
198.321243
 21
202.869370
  0
LINE
  8
0
  6
CONTINUOUS
 10
198.321243
 20
202.869370
 11
195.306244
 21
202.869370
  0
LINE
  8
0
  6
CONTINUOUS
 10
195.306244
 20
175.869370
 11
195.306244
 21
202.869370
  0
LINE
  8
0
  6
CONTINUOUS
 10
177.821243
 20
191.869370
 11
147.160614
 21
191.869370
  0
LINE
  8
0
  6
CONTINUOUS
 10
54.321251
 20
294.869385
 11
63.821251
 21
294.869385
  0
LINE
  8
0
  6
CONTINUOUS
 10
63.821251
 20
278.869385
 11
54.321251
 21
278.869385
  0
LINE
  8
0
  6
CONTINUOUS
 10
54.321251
 20
204.869370
 11
63.821251
 21
204.869370
  0
LINE
  8
0
  6
CONTINUOUS
 10
63.821251
 20
204.869370
 11
63.821251
 21
224.869354
  0
LINE
  8
0
  6
CONTINUOUS
 10
63.821251
 20
220.869370
 11
54.321251
 21
220.869370
  0
LINE
  8
0
  6
CONTINUOUS
 10
63.821251
 20
274.869354
 11
63.821251
 21
294.869385
  0
LINE
  8
0
  6
CONTINUOUS
 10
54.321251
 20
296.869385
 11
54.321251
 21
249.869370
  0
LINE
  8
0
  6
CONTINUOUS
 10
54.321251
 20
278.869385
 11
10.346220
 21
278.869385
  0
LINE
  8
0
  6
CONTINUOUS
 10
54.321251
 20
220.869370
 11
10.346220
 21
220.869370
  0
LINE
  8
0
  6
CONTINUOUS
 10
11.821230
 20
296.869385
 11
54.321251
 21
296.869385
  0
LINE
  8
0
  6
CONTINUOUS
 10
11.821230
 20
202.869370
 11
54.321251
 21
202.869370
  0
ARC
  8
0
  6
CONTINUOUS
 10
11.821260
 20
291.869385
 40
5.000000
 50
90.000000
 51
180.000000
  0
ARC
  8
0
  6
CONTINUOUS
 10
11.821230
 20
207.869370
 40
5.000000
 50
180.000000
 51
270.000000
  0
LINE
  8
0
  6
CONTINUOUS
 10
6.821260
 20
291.869385
 11
6.821230
 21
207.869370
  0
LINE
  8
0
  6
CONTINUOUS
 10
54.321251
 20
249.869370
 11
54.321251
 21
202.869370
  0
LINE
  8
0
  6
CONTINUOUS
 10
54.821251
 20
226.869354
 11
54.821251
 21
272.869354
  0
LINE
  8
0
  6
CONTINUOUS
 10
56.821251
 20
274.869354
 11
54.821251
 21
272.869354
  0
LINE
  8
0
  6
CONTINUOUS
 10
56.821251
 20
274.869354
 11
102.821243
 21
274.869354
  0
LINE
  8
0
  6
CONTINUOUS
 10
97.321251
 20
270.369354
 11
97.321251
 21
274.869354
  0
ARC
  8
0
  6
CONTINUOUS
 10
100.321251
 20
270.369354
 40
3.000000
 50
180.000000
 51
270.000000
  0
LINE
  8
0
  6
CONTINUOUS
 10
100.321251
 20
267.369354
 11
104.821243
 21
267.369354
  0
CIRCLE
  8
0
  6
CONTINUOUS
 10
101.321251
 20
271.369354
 40
2.250000
  0
LINE
  8
0
  6
CONTINUOUS
 10
104.821243
 20
226.869354
 11
104.821243
 21
272.869354
  0
LINE
  8
0
  6
CONTINUOUS
 10
102.821243
 20
274.869354
 11
104.821243
 21
272.869354
  0
LINE
  8
0
  6
CONTINUOUS
 10
102.821243
 20
224.869354
 11
104.821243
 21
226.869354
  0
LINE
  8
0
  6
CONTINUOUS
 10
102.821243
 20
224.869354
 11
56.821251
 21
224.869354
  0
LINE
  8
0
  6
CONTINUOUS
 10
54.821251
 20
226.869354
 11
56.821251
 21
224.869354
  0
LINE
  8
0
  6
CONTINUOUS
 10
59.321251
 20
232.369354
 11
54.821259
 21
232.369354
  0
CIRCLE
  8
0
  6
CONTINUOUS
 10
58.321251
 20
228.369354
 40
2.250000
  0
ARC
  8
0
  6
CONTINUOUS
 10
59.321251
 20
229.369354
 40
3.000000
 50
0.000000
 51
90.000000
  0
LINE
  8
0
  6
CONTINUOUS
 10
62.321251
 20
229.369354
 11
62.321251
 21
224.869354
  0
LINE
  8
0
  6
CENTER
 10
79.821251
 20
217.403580
 11
79.821251
 21
281.535614
  0
LINE
  8
0
  6
CONTINUOUS
 10
55.821255
 20
232.369370
 11
55.821255
 21
267.369385
  0
LINE
  8
0
  6
CONTINUOUS
 10
97.321251
 20
273.869385
 11
62.321270
 21
273.869385
  0
LINE
  8
0
  6
CONTINUOUS
 10
103.821243
 20
267.369385
 11
103.821243
 21
232.369370
  0
LINE
  8
0
  6
CONTINUOUS
 10
62.321251
 20
225.869370
 11
97.321228
 21
225.869370
  0
LINE
  8
0
  6
CONTINUOUS
 10
59.321270
 20
267.369385
 11
54.821270
 21
267.369385
  0
ARC
  8
0
  6
CONTINUOUS
 10
59.321270
 20
270.369385
 40
3.000000
 50
-90.000000
 51
0.000000
  0
LINE
  8
0
  6
CONTINUOUS
 10
62.321270
 20
270.369385
 11
62.321270
 21
274.869354
  0
CIRCLE
  8
0
  6
CONTINUOUS
 10
58.321270
 20
271.369385
 40
2.250000
  0
LINE
  8
0
  6
CONTINUOUS
 10
100.321228
 20
232.369370
 11
104.821228
 21
232.369370
  0
ARC
  8
0
  6
CONTINUOUS
 10
100.321228
 20
229.369370
 40
3.000000
 50
90.000000
 51
180.000000
  0
LINE
  8
0
  6
CONTINUOUS
 10
97.321228
 20
229.369370
 11
97.321228
 21
224.869385
  0
CIRCLE
  8
0
  6
CONTINUOUS
 10
101.321228
 20
228.369370
 40
2.250000
  0
LINE
  8
0
  6
CONTINUOUS
 10
56.321239
 20
96.864998
 11
102.821243
 21
96.864998
  0
LINE
  8
0
  6
CONTINUOUS
 10
104.821220
 20
140.865005
 11
104.821243
 21
98.864998
  0
LINE
  8
0
  6
CONTINUOUS
 10
54.821239
 20
140.865005
 11
54.821239
 21
98.864998
  0
LINE
  8
0
  6
CONTINUOUS
 10
54.821239
 20
108.864998
 11
104.821243
 21
108.864998
  0
LINE
  8
0
  6
CONTINUOUS
 10
102.821243
 20
96.864998
 11
104.821243
 21
98.864998
  0
LINE
  8
0
  6
CONTINUOUS
 10
54.821239
 20
98.864998
 11
56.821239
 21
96.864998
  0
LINE
  8
0
  6
CONTINUOUS
 10
54.821239
 20
98.864998
 11
104.821243
 21
98.864998
  0
LINE
  8
0
  6
CONTINUOUS
 10
54.821239
 20
109.864998
 11
104.821228
 21
109.864998
  0
LINE
  8
0
  6
CONTINUOUS
 10
55.821239
 20
141.865005
 11
103.821220
 21
141.865005
  0
LINE
  8
0
  6
CONTINUOUS
 10
103.821220
 20
141.865005
 11
104.821220
 21
140.865005
  0
LINE
  8
0
  6
CONTINUOUS
 10
55.821239
 20
141.865005
 11
54.821239
 21
140.865005
  0
LINE
  8
0
  6
CONTINUOUS
 10
54.821239
 20
140.865005
 11
104.821220
 21
140.865005
  0
LINE
  8
0
  6
CENTER
 10
79.821243
 20
90.475487
 11
79.821243
 21
147.175491
  0
LINE
  8
0
  6
CENTER
 10
52.446239
 20
124.864998
 11
57.071239
 21
124.864998
  0
LINE
  8
0
  6
CONTINUOUS
 10
56.321239
 20
96.864998
 11
56.321239
 21
95.364998
  0
LINE
  8
0
  6
CONTINUOUS
 10
102.321243
 20
96.864998
 11
102.321243
 21
95.364998
  0
LINE
  8
0
  6
CONTINUOUS
 10
53.946239
 20
135.365005
 11
55.946239
 21
135.365005
  0
LINE
  8
0
  6
CONTINUOUS
 10
53.946239
 20
114.364998
 11
55.946239
 21
114.364998
  0
LINE
  8
0
  6
CONTINUOUS
 10
411.821228
 20
140.865005
 11
411.821259
 21
113.628632
  0
LINE
  8
0
  6
CONTINUOUS
 10
361.821259
 20
140.865005
 11
361.821259
 21
113.628532
  0
LINE
  8
0
  6
CONTINUOUS
 10
362.821259
 20
141.865005
 11
410.821228
 21
141.865005
  0
LINE
  8
0
  6
CONTINUOUS
 10
410.821228
 20
141.865005
 11
411.821228
 21
140.865005
  0
LINE
  8
0
  6
CONTINUOUS
 10
362.821259
 20
141.865005
 11
361.821259
 21
140.865005
  0
LINE
  8
0
  6
CONTINUOUS
 10
361.821259
 20
140.865005
 11
411.821228
 21
140.865005
  0
TEXT
  8
0
 10
-7.000000
 20
-9.000000
 40
4.000000
 41
1.000000
  1
HLM-18R-10~240-S90K
 50
0.000000
  0
ENDSEC
  0
EOF
