  0
SECTION
  2
HEADER
  9
$CLAYER
  8
1
  9
$LTSCALE
 40
3.0
  0
ENDSEC
  0
SECTION
  2
TABLES
  0
TABLE
  2
LTYPE
 70
     4
  0
LTYPE
  2
CONTINUOUS
  3
solid line
 70
    64
 72
    65
 73
     0
 40
0.0
  0
LTYPE
  2
DASHED
  3
__ __ __ __ __ __ __ __ __ __ __ __ __ __ __
 70
    64
 72
    65
 73
     2
 40
0.75
 49
0.5
 49
-0.25
  0
LTYPE
  2
CENTER
  3
____ _ ____ _ ____ _ ____ _ ____ _ ____ _ ____
 70
    64
 72
    65
 73
     4
 40
2.0
 49
1.25
 49
-0.25
 49
0.25
 49
-0.25
  0
LTYPE
  2
PHANTOM
  3
_____ _ _ _____ _ _ _____ _ _ _____ _ _ ____
 70
    64
 72
    65
 73
     6
 40
2.5
 49
1.25
 49
-0.25
 49
0.25
 49
-0.25
 49
0.25
 49
-0.25
  0
ENDTAB
  0
TABLE
  2
LAYER
 70
     1
  0
LAYER
  2
0
 70
    64
 62
     7
  6
CONTINUOUS
  0
ENDTAB
  0
TABLE
  2
STYLE
 70
     1
  0
STYLE
  2
STANDARD
 70
     0
 40
0.000000
 41
1.000000
 50
0.000000
 71
     0
 42
3.000000
  3
txt
  4
BIGFONT
  0
ENDTAB
  0
ENDSEC
  0
SECTION
  2
BLOCKS
  0
ENDSEC
  0
SECTION
  2
ENTITIES
  0
LINE
  8
0
  6
CONTINUOUS
 10
52.613739
 20
102.026253
 11
62.113739
 21
102.026253
  0
LINE
  8
0
  6
CONTINUOUS
 10
62.113739
 20
91.435547
 11
52.613739
 21
91.435547
  0
LINE
  8
0
  6
CONTINUOUS
 10
52.613739
 20
12.026250
 11
62.113739
 21
12.026250
  0
LINE
  8
0
  6
CONTINUOUS
 10
62.113739
 20
22.616949
 11
52.613739
 21
22.616949
  0
LINE
  8
0
  6
CONTINUOUS
 10
52.613739
 20
104.026253
 11
52.613739
 21
10.026250
  0
LINE
  8
0
  6
CONTINUOUS
 10
52.613739
 20
86.026253
 11
8.638740
 21
86.026253
  0
LINE
  8
0
  6
CONTINUOUS
 10
52.613739
 20
28.026251
 11
8.638739
 21
28.026251
  0
LINE
  8
0
  6
CONTINUOUS
 10
62.613739
 20
103.526253
 11
62.613739
 21
102.026253
  0
LINE
  8
0
  6
CONTINUOUS
 10
55.613739
 20
103.526253
 11
55.613739
 21
102.026253
  0
LINE
  8
0
  6
CONTINUOUS
 10
55.613739
 20
103.526253
 11
62.613739
 21
103.526253
  0
LINE
  8
0
  6
CONTINUOUS
 10
60.013741
 20
116.526253
 11
60.013741
 21
103.526253
  0
LINE
  8
0
  6
CONTINUOUS
 10
58.213741
 20
117.151253
 11
58.213741
 21
103.526253
  0
LINE
  8
0
  6
CONTINUOUS
 10
56.413738
 20
115.088753
 11
56.413738
 21
103.526253
  0
LINE
  8
0
  6
CONTINUOUS
 10
61.813740
 20
115.901253
 11
61.813740
 21
103.526253
  0
LINE
  8
0
  6
CONTINUOUS
 10
58.213741
 20
117.151253
 11
60.013741
 21
116.526253
  0
LINE
  8
0
  6
CONTINUOUS
 10
56.413738
 20
115.088753
 11
58.213741
 21
115.713753
  0
LINE
  8
0
  6
CONTINUOUS
 10
61.813740
 20
115.901253
 11
60.014751
 21
115.453537
  0
LINE
  8
0
  6
CONTINUOUS
 10
10.113738
 20
104.026253
 11
52.613739
 21
104.026253
  0
LINE
  8
0
  6
CONTINUOUS
 10
10.113738
 20
10.026250
 11
52.613739
 21
10.026250
  0
ARC
  8
0
  6
CONTINUOUS
 10
10.113763
 20
99.026283
 40
5.000000
 50
90.000000
 51
180.000000
  0
ARC
  8
0
  6
CONTINUOUS
 10
10.113737
 20
15.026250
 40
5.000000
 50
180.000000
 51
270.000000
  0
LINE
  8
0
  6
CONTINUOUS
 10
5.113763
 20
99.026260
 11
5.113738
 21
15.026240
  0
LINE
  8
0
  6
CONTINUOUS
 10
62.113739
 20
12.026250
 11
62.113739
 21
102.026253
  0
LINE
  8
0
  6
CENTER
 10
-8.870312
 20
57.026249
 11
157.903244
 21
57.026249
  0
LINE
  8
0
  6
CONTINUOUS
 10
235.613754
 20
14.726250
 11
235.613754
 21
7.726250
  0
LINE
  8
0
  6
CONTINUOUS
 10
62.113739
 20
12.026250
 11
134.613754
 21
12.026250
  0
LINE
  8
0
  6
CONTINUOUS
 10
62.113739
 20
102.026253
 11
141.456253
 21
102.026253
  0
LINE
  8
0
  6
CENTER
 10
185.113754
 20
130.713745
 11
185.113754
 21
0.507150
  0
LINE
  8
0
  6
CENTER
 10
149.601044
 20
82.726250
 11
213.689743
 21
82.726250
  0
LINE
  8
0
  6
CONTINUOUS
 10
134.613754
 20
7.726250
 11
235.613754
 21
7.726250
  0
LINE
  8
0
  6
CONTINUOUS
 10
169.692657
 20
120.726250
 11
200.534851
 21
120.726250
  0
LINE
  8
0
  6
CONTINUOUS
 10
136.613754
 20
16.726250
 11
233.613754
 21
16.726250
  0
LINE
  8
0
  6
CENTER
 10
223.113754
 20
22.213751
 11
223.113754
 21
0.963750
  0
LINE
  8
0
  6
CENTER
 10
147.113754
 20
22.463751
 11
147.113754
 21
0.463750
  0
LINE
  8
0
  6
CONTINUOUS
 10
233.485153
 20
98.719429
 11
203.406250
 21
119.819542
  0
LINE
  8
0
  6
CONTINUOUS
 10
136.742355
 20
98.719429
 11
166.821243
 21
119.819527
  0
ARC
  8
0
  6
CONTINUOUS
 10
200.534943
 20
115.726242
 40
5.000000
 50
54.950878
 51
90.000000
  0
ARC
  8
0
  6
CONTINUOUS
 10
169.692657
 20
115.726250
 40
5.000000
 50
90.000000
 51
125.049698
  0
ARC
  8
0
  6
CONTINUOUS
 10
139.613754
 20
94.626183
 40
5.000000
 50
125.049797
 51
180.000000
  0
ARC
  8
0
  6
CONTINUOUS
 10
230.613754
 20
94.626129
 40
5.000000
 50
0.000000
 51
54.950901
  0
LINE
  8
0
  6
CONTINUOUS
 10
235.613754
 20
14.726250
 11
235.613754
 21
94.626152
  0
ARC
  8
0
  6
CONTINUOUS
 10
233.613754
 20
14.726240
 40
2.000000
 50
0.000000
 51
90.000000
  0
LINE
  8
0
  6
CONTINUOUS
 10
134.613754
 20
94.626183
 11
134.613754
 21
94.626152
  0
ARC
  8
0
  6
CONTINUOUS
 10
136.613754
 20
14.726250
 40
2.000000
 50
90.000000
 51
180.000000
  0
LINE
  8
0
  6
DASHED
 10
227.363754
 20
16.726250
 11
227.363754
 21
7.726250
  0
LINE
  8
0
  6
DASHED
 10
218.863754
 20
16.726250
 11
218.863754
 21
7.726250
  0
LINE
  8
0
  6
DASHED
 10
151.363754
 20
16.726250
 11
151.363754
 21
7.726250
  0
LINE
  8
0
  6
DASHED
 10
142.863754
 20
16.726250
 11
142.863754
 21
7.726250
  0
CIRCLE
  8
0
  6
CONTINUOUS
 10
185.113754
 20
82.726250
 40
23.500000
  0
LINE
  8
0
  6
CONTINUOUS
 10
137.113754
 20
83.418442
 11
137.113754
 21
52.033733
  0
LINE
  8
0
  6
CONTINUOUS
 10
233.113754
 20
83.418610
 11
233.113754
 21
52.033897
  0
ARC
  8
0
  6
CONTINUOUS
 10
185.113754
 20
67.726250
 40
50.500000
 50
198.103806
 51
341.896210
  0
LINE
  8
0
  6
CONTINUOUS
 10
134.613754
 20
94.626160
 11
134.613647
 21
7.726250
  0
ARC
  8
0
  6
CONTINUOUS
 10
185.113754
 20
67.726250
 40
50.500000
 50
18.103790
 51
161.896194
  0
LINE
  8
0
  6
CONTINUOUS
 10
62.113739
 20
91.435547
 11
132.996643
 21
91.435547
  0
LINE
  8
0
  6
CONTINUOUS
 10
62.113739
 20
22.616949
 11
132.996643
 21
22.616949
  0
LINE
  8
0
  6
CONTINUOUS
 10
178.738754
 20
45.279469
 11
178.738754
 21
39.726250
  0
LINE
  8
0
  6
CONTINUOUS
 10
181.926254
 20
47.296562
 11
181.926254
 21
49.288750
  0
LINE
  8
0
  6
CONTINUOUS
 10
188.301254
 20
47.296562
 11
188.301254
 21
49.288750
  0
LINE
  8
0
  6
CONTINUOUS
 10
184.491150
 20
48.118340
 11
184.491150
 21
40.772148
  0
LINE
  8
0
  6
CONTINUOUS
 10
185.686554
 20
48.118340
 11
185.686554
 21
40.772148
  0
LINE
  8
0
  6
CONTINUOUS
 10
191.961853
 20
48.118340
 11
191.961853
 21
40.722340
  0
LINE
  8
0
  6
CONTINUOUS
 10
193.057556
 20
44.196220
 11
193.057556
 21
40.722340
  0
LINE
  8
0
  6
CONTINUOUS
 10
177.226257
 20
48.018730
 11
174.154343
 21
48.018730
  0
LINE
  8
0
  6
CONTINUOUS
 10
174.154343
 20
48.018730
 11
173.434555
 21
47.126236
  0
LINE
  8
0
  6
CONTINUOUS
 10
173.521149
 20
49.288750
 11
172.363754
 21
47.806755
  0
LINE
  8
0
  6
CONTINUOUS
 10
173.434555
 20
41.617168
 11
174.165848
 21
40.846859
  0
LINE
  8
0
  6
CONTINUOUS
 10
172.363754
 20
40.967110
 11
173.593552
 21
39.726250
  0
LINE
  8
0
  6
CONTINUOUS
 10
172.363754
 20
47.806755
 11
172.363754
 21
40.967110
  0
LINE
  8
0
  6
CONTINUOUS
 10
173.434555
 20
47.126236
 11
173.434555
 21
41.617168
  0
LINE
  8
0
  6
CONTINUOUS
 10
177.817352
 20
47.447289
 11
177.214157
 21
48.018730
  0
LINE
  8
0
  6
CONTINUOUS
 10
177.807755
 20
49.288750
 11
178.738754
 21
48.255608
  0
LINE
  8
0
  6
CONTINUOUS
 10
177.817352
 20
47.296562
 11
178.738754
 21
47.296562
  0
LINE
  8
0
  6
CONTINUOUS
 10
173.521149
 20
49.288750
 11
177.807755
 21
49.288750
  0
LINE
  8
0
  6
CONTINUOUS
 10
177.817352
 20
44.233570
 11
176.148956
 21
44.233570
  0
LINE
  8
0
  6
CONTINUOUS
 10
177.817352
 20
43.237480
 11
177.817352
 21
44.034359
  0
LINE
  8
0
  6
CONTINUOUS
 10
175.825150
 20
40.846859
 11
174.165848
 21
40.846859
  0
ARC
  8
0
  6
CONTINUOUS
 10
175.825150
 20
42.839039
 40
1.992187
 50
-89.999786
 51
0.000109
  0
LINE
  8
0
  6
CONTINUOUS
 10
177.817352
 20
40.488522
 11
177.817352
 21
39.726250
  0
LINE
  8
0
  6
CONTINUOUS
 10
178.738754
 20
48.255608
 11
178.738754
 21
47.296562
  0
LINE
  8
0
  6
CONTINUOUS
 10
177.817352
 20
44.233570
 11
177.817352
 21
42.839039
  0
LINE
  8
0
  6
CONTINUOUS
 10
176.148956
 20
45.279469
 11
176.148956
 21
44.233570
  0
LINE
  8
0
  6
CONTINUOUS
 10
177.817352
 20
39.726250
 11
178.738754
 21
39.726250
  0
LINE
  8
0
  6
CONTINUOUS
 10
177.817352
 20
40.488522
 11
176.908844
 21
39.726250
  0
LINE
  8
0
  6
CONTINUOUS
 10
185.686554
 20
40.772148
 11
186.084946
 21
40.772148
  0
LINE
  8
0
  6
CONTINUOUS
 10
184.018051
 20
40.772148
 11
184.018051
 21
39.726250
  0
LINE
  8
0
  6
CONTINUOUS
 10
186.084946
 20
40.772148
 11
186.084946
 21
39.726250
  0
LINE
  8
0
  6
CONTINUOUS
 10
187.636246
 20
47.296562
 11
188.301254
 21
47.296562
  0
LINE
  8
0
  6
CONTINUOUS
 10
181.926254
 20
47.296562
 11
182.633850
 21
47.296562
  0
LINE
  8
0
  6
CONTINUOUS
 10
181.926254
 20
49.288750
 11
188.301254
 21
49.288750
  0
LINE
  8
0
  6
CONTINUOUS
 10
184.018051
 20
39.726250
 11
186.084946
 21
39.726250
  0
LINE
  8
0
  6
CONTINUOUS
 10
184.018051
 20
40.772148
 11
184.491150
 21
40.772148
  0
ARC
  8
0
  6
CONTINUOUS
 10
195.311249
 20
46.736259
 40
2.552490
 50
-73.981873
 51
90.003510
  0
ARC
  8
0
  6
CONTINUOUS
 10
195.311249
 20
46.736259
 40
1.557193
 50
-82.585274
 51
62.411850
  0
LINE
  8
0
  6
CONTINUOUS
 10
191.488754
 20
49.288750
 11
195.311249
 21
49.288750
  0
LINE
  8
0
  6
CONTINUOUS
 10
191.488754
 20
49.288750
 11
191.488754
 21
48.118340
  0
LINE
  8
0
  6
CONTINUOUS
 10
193.057556
 20
48.118340
 11
193.057556
 21
45.192089
  0
LINE
  8
0
  6
CONTINUOUS
 10
196.015549
 20
44.282871
 11
197.595444
 21
40.722340
  0
LINE
  8
0
  6
CONTINUOUS
 10
195.098053
 20
44.196220
 11
196.593155
 21
40.722340
  0
LINE
  8
0
  6
CONTINUOUS
 10
191.488754
 20
40.722340
 11
191.961853
 21
40.722340
  0
LINE
  8
0
  6
CONTINUOUS
 10
193.057556
 20
40.722340
 11
193.493347
 21
40.722340
  0
LINE
  8
0
  6
CONTINUOUS
 10
193.493347
 20
39.726250
 11
191.488754
 21
39.726250
  0
LINE
  8
0
  6
CONTINUOUS
 10
196.394547
 20
40.722340
 11
196.593155
 21
40.722340
  0
LINE
  8
0
  6
CONTINUOUS
 10
197.595444
 20
40.722340
 11
197.863754
 21
40.722340
  0
LINE
  8
0
  6
CONTINUOUS
 10
196.394547
 20
39.726250
 11
197.863754
 21
39.726250
  0
LINE
  8
0
  6
CONTINUOUS
 10
197.863754
 20
40.722340
 11
197.863754
 21
39.726250
  0
LINE
  8
0
  6
CONTINUOUS
 10
196.394547
 20
40.722340
 11
196.394547
 21
39.726250
  0
LINE
  8
0
  6
CONTINUOUS
 10
193.493347
 20
40.722340
 11
193.493347
 21
39.726250
  0
LINE
  8
0
  6
CONTINUOUS
 10
191.488754
 20
40.722340
 11
191.488754
 21
39.726250
  0
LINE
  8
0
  6
CONTINUOUS
 10
182.976257
 20
48.118340
 11
182.633850
 21
47.296562
  0
LINE
  8
0
  6
CONTINUOUS
 10
187.347549
 20
48.118340
 11
187.636246
 21
47.296562
  0
LINE
  8
0
  6
CONTINUOUS
 10
185.686554
 20
48.118340
 11
187.347549
 21
48.118340
  0
LINE
  8
0
  6
CONTINUOUS
 10
184.491150
 20
48.118340
 11
182.976257
 21
48.118340
  0
LINE
  8
0
  6
CONTINUOUS
 10
191.488754
 20
48.118340
 11
191.961853
 21
48.118340
  0
LINE
  8
0
  6
CONTINUOUS
 10
193.057556
 20
48.118340
 11
196.032455
 21
48.116402
  0
LINE
  8
0
  6
CONTINUOUS
 10
177.817352
 20
47.447289
 11
177.817352
 21
47.296562
  0
LINE
  8
0
  6
CONTINUOUS
 10
173.593552
 20
39.726250
 11
176.908844
 21
39.726250
  0
LINE
  8
0
  6
CONTINUOUS
 10
193.057556
 20
45.192089
 11
195.512253
 21
45.192089
  0
LINE
  8
0
  6
CONTINUOUS
 10
193.057556
 20
44.196220
 11
195.098053
 21
44.196220
  0
LINE
  8
0
  6
CONTINUOUS
 10
176.148956
 20
45.279469
 11
178.738754
 21
45.279469
  0
LINE
  8
0
  6
CENTER
 10
385.113739
 20
-2.567500
 11
385.113739
 21
129.682495
  0
LINE
  8
0
  6
CENTER
 10
331.424347
 20
57.026249
 11
437.616943
 21
57.026249
  0
LINE
  8
0
  6
CONTINUOUS
 10
443.113739
 20
14.726250
 11
443.113739
 21
7.726250
  0
LINE
  8
0
  6
CONTINUOUS
 10
327.113739
 20
14.726250
 11
327.113739
 21
7.726250
  0
LINE
  8
0
  6
CONTINUOUS
 10
327.113739
 20
7.726250
 11
443.113739
 21
7.726250
  0
LINE
  8
0
  6
CONTINUOUS
 10
425.113739
 20
16.726250
 11
441.113739
 21
16.726250
  0
LINE
  8
0
  6
CONTINUOUS
 10
348.113739
 20
19.726250
 11
348.113739
 21
118.114883
  0
LINE
  8
0
  6
CONTINUOUS
 10
422.113739
 20
19.726250
 11
422.113739
 21
118.115013
  0
LINE
  8
0
  6
CONTINUOUS
 10
427.113739
 20
60.226246
 11
427.113739
 21
105.226250
  0
LINE
  8
0
  6
CONTINUOUS
 10
426.113739
 20
106.226250
 11
424.113739
 21
106.226250
  0
LINE
  8
0
  6
CONTINUOUS
 10
426.113739
 20
59.226246
 11
424.113739
 21
59.226246
  0
LINE
  8
0
  6
CONTINUOUS
 10
385.113739
 20
120.726250
 11
420.148651
 21
120.114723
  0
LINE
  8
0
  6
CONTINUOUS
 10
350.078857
 20
120.114578
 11
385.113739
 21
120.726250
  0
ARC
  8
0
  6
CONTINUOUS
 10
424.113739
 20
108.226250
 40
2.000000
 50
180.000000
 51
270.000000
  0
ARC
  8
0
  6
CONTINUOUS
 10
420.113739
 20
118.115013
 40
2.000000
 50
0.000000
 51
89.000137
  0
ARC
  8
0
  6
CONTINUOUS
 10
350.113739
 20
118.114891
 40
2.000000
 50
91.000641
 51
180.000000
  0
ARC
  8
0
  6
CONTINUOUS
 10
424.113739
 20
57.226257
 40
2.000000
 50
90.000000
 51
180.000000
  0
ARC
  8
0
  6
CONTINUOUS
 10
426.113739
 20
105.226242
 40
1.000000
 50
0.000000
 51
90.000000
  0
ARC
  8
0
  6
CONTINUOUS
 10
426.113739
 20
60.226246
 40
1.000000
 50
-90.000000
 51
0.000000
  0
LINE
  8
0
  6
CONTINUOUS
 10
350.010559
 20
97.226250
 11
420.465240
 21
97.226250
  0
ARC
  8
0
  6
CONTINUOUS
 10
441.113739
 20
14.726240
 40
2.000000
 50
0.000000
 51
90.000000
  0
ARC
  8
0
  6
CONTINUOUS
 10
329.113739
 20
14.726260
 40
2.000000
 50
90.000000
 51
180.000000
  0
LINE
  8
0
  6
CENTER
 10
433.113739
 20
20.682501
 11
433.113739
 21
3.432500
  0
LINE
  8
0
  6
CENTER
 10
337.113739
 20
20.682501
 11
337.113739
 21
2.682500
  0
LINE
  8
0
  6
DASHED
 10
341.363739
 20
16.726250
 11
341.363739
 21
7.726250
  0
LINE
  8
0
  6
DASHED
 10
332.863739
 20
16.726250
 11
332.863739
 21
7.726250
  0
LINE
  8
0
  6
DASHED
 10
437.363739
 20
16.726250
 11
437.363739
 21
7.726250
  0
LINE
  8
0
  6
DASHED
 10
428.863739
 20
16.726250
 11
428.863739
 21
7.726250
  0
ARC
  8
0
  6
CONTINUOUS
 10
385.113739
 20
57.026249
 40
45.000000
 50
159.637695
 51
214.692093
  0
ARC
  8
0
  6
CONTINUOUS
 10
385.113739
 20
57.026249
 40
45.000000
 50
-34.692108
 51
20.437799
  0
LINE
  8
0
  6
CONTINUOUS
 10
343.113739
 20
60.226246
 11
343.113739
 21
105.226250
  0
LINE
  8
0
  6
CONTINUOUS
 10
344.113739
 20
106.226250
 11
346.113739
 21
106.226250
  0
LINE
  8
0
  6
CONTINUOUS
 10
344.113739
 20
59.226246
 11
346.113739
 21
59.226246
  0
ARC
  8
0
  6
CONTINUOUS
 10
346.113739
 20
108.226250
 40
2.000000
 50
-90.000000
 51
0.000000
  0
ARC
  8
0
  6
CONTINUOUS
 10
346.113739
 20
57.226257
 40
2.000000
 50
0.000000
 51
90.000000
  0
ARC
  8
0
  6
CONTINUOUS
 10
344.113739
 20
105.226242
 40
1.000000
 50
90.000000
 51
180.000000
  0
ARC
  8
0
  6
CONTINUOUS
 10
344.113739
 20
60.226246
 40
1.000000
 50
180.000000
 51
270.000000
  0
LINE
  8
0
  6
CENTER
 10
434.321442
 20
82.726250
 11
302.863739
 21
82.726250
  0
LINE
  8
0
  6
CONTINUOUS
 10
345.113739
 20
16.726250
 11
329.113739
 21
16.726250
  0
ARC
  8
0
  6
CONTINUOUS
 10
345.113739
 20
19.726250
 40
3.000000
 50
-90.000000
 51
0.000000
  0
ARC
  8
0
  6
CONTINUOUS
 10
425.113739
 20
19.726250
 40
3.000000
 50
180.000000
 51
270.000000
  0
LINE
  8
0
  6
CONTINUOUS
 10
432.113739
 20
83.126747
 11
432.113739
 21
30.925730
  0
LINE
  8
0
  6
CONTINUOUS
 10
338.113739
 20
30.925751
 11
338.113739
 21
73.726250
  0
LINE
  8
0
  6
CONTINUOUS
 10
430.063446
 20
88.076500
 11
427.113739
 21
91.026230
  0
LINE
  8
0
  6
CONTINUOUS
 10
340.164062
 20
25.976000
 11
347.783051
 21
18.356970
  0
LINE
  8
0
  6
CONTINUOUS
 10
430.063538
 20
25.976000
 11
422.444458
 21
18.356920
  0
ARC
  8
0
  6
CONTINUOUS
 10
345.113739
 20
30.925800
 40
7.000000
 50
180.000000
 51
225.000397
  0
ARC
  8
0
  6
CONTINUOUS
 10
425.113739
 20
30.925711
 40
7.000000
 50
-44.999599
 51
0.000000
  0
ARC
  8
0
  6
CONTINUOUS
 10
425.113739
 20
83.126732
 40
7.000000
 50
0.000000
 51
45.000229
  0
LINE
  8
0
  6
CONTINUOUS
 10
311.113739
 20
73.726250
 11
311.113739
 21
91.726250
  0
LINE
  8
0
  6
CONTINUOUS
 10
341.113739
 20
91.726250
 11
311.113739
 21
91.726250
  0
LINE
  8
0
  6
CONTINUOUS
 10
341.113739
 20
73.726250
 11
311.113739
 21
73.726250
  0
LINE
  8
0
  6
CONTINUOUS
 10
341.113739
 20
92.726250
 11
341.113739
 21
72.726250
  0
LINE
  8
0
  6
CONTINUOUS
 10
343.113739
 20
92.726250
 11
341.113739
 21
92.726250
  0
LINE
  8
0
  6
CONTINUOUS
 10
343.113739
 20
72.726250
 11
341.113739
 21
72.726250
  0
ARC
  8
0
  6
CONTINUOUS
 10
335.113739
 20
82.726250
 40
3.000000
 50
-90.000000
 51
90.000000
  0
LINE
  8
0
  6
CONTINUOUS
 10
335.113739
 20
85.726250
 11
311.113739
 21
85.726250
  0
LINE
  8
0
  6
CONTINUOUS
 10
335.113739
 20
79.726250
 11
311.113739
 21
79.726250
  0
LINE
  8
0
  6
CONTINUOUS
 10
190.613754
 20
79.726273
 11
190.613754
 21
85.726273
  0
LINE
  8
0
  6
CONTINUOUS
 10
196.613754
 20
79.726288
 11
196.613754
 21
85.726288
  0
LINE
  8
0
  6
CONTINUOUS
 10
196.613754
 20
79.726288
 11
190.613754
 21
79.726273
  0
LINE
  8
0
  6
CONTINUOUS
 10
196.613754
 20
85.726288
 11
190.613754
 21
85.726273
  0
ARC
  8
0
  6
CONTINUOUS
 10
185.113754
 20
82.726250
 40
9.000000
 50
19.471210
 51
340.528809
  0
LINE
  8
0
  6
CENTER
 10
185.113754
 20
323.704987
 11
185.113754
 21
176.237503
  0
LINE
  8
0
  6
CENTER
 10
223.113754
 20
313.040009
 11
223.113754
 21
294.277496
  0
LINE
  8
0
  6
CENTER
 10
-6.565000
 20
256.530640
 11
249.255005
 21
256.530640
  0
LINE
  8
0
  6
CONTINUOUS
 10
234.772858
 20
304.705139
 11
235.613754
 21
256.530640
  0
LINE
  8
0
  6
CONTINUOUS
 10
224.774384
 20
314.530640
 11
185.113754
 21
314.530640
  0
LINE
  8
0
  6
CONTINUOUS
 10
136.613754
 20
293.530640
 11
233.002518
 21
293.530640
  0
ARC
  8
0
  6
CONTINUOUS
 10
224.774384
 20
304.530640
 40
10.000000
 50
1.000000
 51
90.000000
  0
ARC
  8
0
  6
CONTINUOUS
 10
233.002518
 20
291.530640
 40
2.000000
 50
1.000000
 51
90.000000
  0
LINE
  8
0
  6
CENTER
 10
213.518433
 20
304.530640
 11
233.860931
 21
304.530640
  0
CIRCLE
  8
0
  6
CONTINUOUS
 10
223.113754
 20
304.530640
 40
4.250000
  0
LINE
  8
0
  6
CENTER
 10
147.113754
 20
313.237488
 11
147.113754
 21
294.277496
  0
LINE
  8
0
  6
CONTINUOUS
 10
135.454636
 20
304.705139
 11
135.268661
 21
294.050507
  0
ARC
  8
0
  6
CONTINUOUS
 10
145.453110
 20
304.530640
 40
10.000000
 50
90.000000
 51
179.000000
  0
ARC
  8
0
  6
CONTINUOUS
 10
137.224976
 20
291.530640
 40
2.000000
 50
90.000000
 51
179.000000
  0
LINE
  8
0
  6
CENTER
 10
156.440933
 20
304.530640
 11
136.888443
 21
304.530640
  0
CIRCLE
  8
0
  6
CONTINUOUS
 10
147.113754
 20
304.530640
 40
4.250000
  0
LINE
  8
0
  6
CONTINUOUS
 10
134.613754
 20
295.530640
 11
134.613754
 21
299.530640
  0
LINE
  8
0
  6
CONTINUOUS
 10
132.613754
 20
301.530640
 11
62.113750
 21
301.530640
  0
ARC
  8
0
  6
CONTINUOUS
 10
132.613754
 20
299.530640
 40
2.000000
 50
0.000000
 51
90.000000
  0
ARC
  8
0
  6
CONTINUOUS
 10
136.613754
 20
295.530640
 40
2.000000
 50
180.000000
 51
270.000000
  0
LINE
  8
0
  6
CONTINUOUS
 10
135.225281
 20
291.565521
 11
135.119949
 21
285.530640
  0
LINE
  8
0
  6
CONTINUOUS
 10
62.113750
 20
285.530640
 11
141.456299
 21
285.530640
  0
LINE
  8
0
  6
CONTINUOUS
 10
62.113750
 20
227.530624
 11
141.456299
 21
227.530624
  0
LINE
  8
0
  6
CONTINUOUS
 10
132.613754
 20
211.530624
 11
62.113750
 21
211.530624
  0
ARC
  8
0
  6
CONTINUOUS
 10
132.613754
 20
213.530624
 40
2.000000
 50
-90.000000
 51
0.000000
  0
LINE
  8
0
  6
CENTER
 10
223.113754
 20
199.675003
 11
223.113754
 21
218.733749
  0
LINE
  8
0
  6
CONTINUOUS
 10
234.772858
 20
208.356094
 11
235.613754
 21
256.530640
  0
LINE
  8
0
  6
CONTINUOUS
 10
224.774384
 20
198.530624
 11
196.613754
 21
198.530624
  0
LINE
  8
0
  6
CONTINUOUS
 10
136.613754
 20
219.530624
 11
233.002518
 21
219.530624
  0
ARC
  8
0
  6
CONTINUOUS
 10
224.774384
 20
208.530624
 40
10.000000
 50
-90.000000
 51
-1.000000
  0
ARC
  8
0
  6
CONTINUOUS
 10
233.002518
 20
221.530624
 40
2.000000
 50
-90.000000
 51
-1.000000
  0
LINE
  8
0
  6
CENTER
 10
214.012192
 20
208.530624
 11
234.058441
 21
208.530624
  0
CIRCLE
  8
0
  6
CONTINUOUS
 10
223.113754
 20
208.530624
 40
4.250000
  0
LINE
  8
0
  6
CENTER
 10
147.113754
 20
199.181244
 11
147.113754
 21
218.536255
  0
LINE
  8
0
  6
CONTINUOUS
 10
135.454636
 20
208.356094
 11
135.268661
 21
219.010742
  0
ARC
  8
0
  6
CONTINUOUS
 10
145.453110
 20
208.530624
 40
10.000000
 50
-179.000000
 51
-90.000000
  0
ARC
  8
0
  6
CONTINUOUS
 10
137.224976
 20
221.530624
 40
2.000000
 50
-179.000000
 51
-90.000000
  0
LINE
  8
0
  6
CENTER
 10
156.934692
 20
208.530624
 11
136.690933
 21
208.530624
  0
CIRCLE
  8
0
  6
CONTINUOUS
 10
147.113754
 20
208.530624
 40
4.250000
  0
LINE
  8
0
  6
CONTINUOUS
 10
134.613754
 20
217.530624
 11
134.613754
 21
213.530624
  0
ARC
  8
0
  6
CONTINUOUS
 10
136.613754
 20
217.530624
 40
2.000000
 50
-270.000000
 51
-180.000000
  0
LINE
  8
0
  6
CONTINUOUS
 10
135.225281
 20
221.495728
 11
135.119949
 21
227.530624
  0
LINE
  8
0
  6
CONTINUOUS
 10
168.113754
 20
288.530640
 11
168.113754
 21
224.530624
  0
LINE
  8
0
  6
CONTINUOUS
 10
202.113754
 20
288.530640
 11
202.113754
 21
224.530624
  0
LINE
  8
0
  6
CONTINUOUS
 10
141.456299
 20
283.530640
 11
141.456299
 21
229.530624
  0
LINE
  8
0
  6
CONTINUOUS
 10
207.613754
 20
298.530640
 11
162.613754
 21
298.530640
  0
LINE
  8
0
  6
CONTINUOUS
 10
161.613754
 20
297.530640
 11
161.613754
 21
295.530640
  0
LINE
  8
0
  6
CONTINUOUS
 10
208.613754
 20
297.530640
 11
208.613754
 21
295.530640
  0
ARC
  8
0
  6
CONTINUOUS
 10
159.613754
 20
295.530640
 40
2.000000
 50
-90.000000
 51
0.000000
  0
ARC
  8
0
  6
CONTINUOUS
 10
210.613739
 20
295.530640
 40
2.000000
 50
180.000000
 51
270.000000
  0
ARC
  8
0
  6
CONTINUOUS
 10
162.613754
 20
297.530640
 40
1.000000
 50
90.000000
 51
180.000000
  0
ARC
  8
0
  6
CONTINUOUS
 10
207.613754
 20
297.530640
 40
1.000000
 50
0.000000
 51
90.000000
  0
LINE
  8
0
  6
CONTINUOUS
 10
185.113754
 20
314.530640
 11
145.453110
 21
314.530640
  0
LINE
  8
0
  6
CONTINUOUS
 10
207.613754
 20
214.530624
 11
162.613754
 21
214.530624
  0
LINE
  8
0
  6
CONTINUOUS
 10
161.613754
 20
215.530624
 11
161.613754
 21
217.530624
  0
LINE
  8
0
  6
CONTINUOUS
 10
208.613754
 20
215.530624
 11
208.613754
 21
217.530624
  0
ARC
  8
0
  6
CONTINUOUS
 10
159.613754
 20
217.530624
 40
2.000000
 50
0.000000
 51
90.000000
  0
ARC
  8
0
  6
CONTINUOUS
 10
210.613739
 20
217.530624
 40
2.000000
 50
-270.000000
 51
-180.000000
  0
ARC
  8
0
  6
CONTINUOUS
 10
162.613754
 20
215.530624
 40
1.000000
 50
-180.000000
 51
-90.000000
  0
ARC
  8
0
  6
CONTINUOUS
 10
207.613754
 20
215.530624
 40
1.000000
 50
-90.000000
 51
0.000000
  0
LINE
  8
0
  6
CONTINUOUS
 10
196.613754
 20
182.530624
 11
176.113754
 21
182.530624
  0
LINE
  8
0
  6
CONTINUOUS
 10
176.113754
 20
212.530624
 11
176.113754
 21
182.530624
  0
LINE
  8
0
  6
CONTINUOUS
 10
194.113754
 20
212.530624
 11
194.113754
 21
209.530624
  0
LINE
  8
0
  6
CONTINUOUS
 10
175.113754
 20
212.530624
 11
195.113754
 21
212.530624
  0
LINE
  8
0
  6
CONTINUOUS
 10
175.113754
 20
214.530624
 11
175.113754
 21
212.530624
  0
LINE
  8
0
  6
CONTINUOUS
 10
195.113754
 20
214.530624
 11
195.113754
 21
212.530624
  0
LINE
  8
0
  6
CONTINUOUS
 10
196.613754
 20
182.530624
 11
196.613754
 21
209.530624
  0
LINE
  8
0
  6
CONTINUOUS
 10
196.613754
 20
209.530624
 11
193.598755
 21
209.530624
  0
LINE
  8
0
  6
CONTINUOUS
 10
193.598755
 20
182.530624
 11
193.598755
 21
209.530624
  0
LINE
  8
0
  6
CONTINUOUS
 10
176.113754
 20
198.530624
 11
145.453110
 21
198.530624
  0
LINE
  8
0
  6
CONTINUOUS
 10
52.613750
 20
301.530640
 11
62.113750
 21
301.530640
  0
LINE
  8
0
  6
CONTINUOUS
 10
62.113750
 20
285.530640
 11
52.613750
 21
285.530640
  0
LINE
  8
0
  6
CONTINUOUS
 10
52.613750
 20
211.530624
 11
62.113750
 21
211.530624
  0
LINE
  8
0
  6
CONTINUOUS
 10
62.113750
 20
211.530624
 11
62.113750
 21
249.664597
  0
LINE
  8
0
  6
CONTINUOUS
 10
62.113750
 20
227.530624
 11
52.613750
 21
227.530624
  0
LINE
  8
0
  6
CONTINUOUS
 10
55.613750
 20
250.530624
 11
55.613750
 21
262.530640
  0
LINE
  8
0
  6
CONTINUOUS
 10
62.613750
 20
250.530624
 11
62.613750
 21
262.530640
  0
LINE
  8
0
  6
CONTINUOUS
 10
56.613750
 20
263.530640
 11
61.613750
 21
263.530640
  0
LINE
  8
0
  6
CONTINUOUS
 10
61.613750
 20
249.530624
 11
56.613750
 21
249.530624
  0
ARC
  8
0
  6
CONTINUOUS
 10
61.613750
 20
262.530640
 40
1.000000
 50
0.000000
 51
90.000000
  0
ARC
  8
0
  6
CONTINUOUS
 10
56.613750
 20
262.530640
 40
1.000000
 50
90.000000
 51
180.000000
  0
ARC
  8
0
  6
CONTINUOUS
 10
56.613750
 20
250.530624
 40
1.000000
 50
180.000000
 51
270.000000
  0
ARC
  8
0
  6
CONTINUOUS
 10
61.613750
 20
250.530624
 40
1.000000
 50
-90.000000
 51
0.000000
  0
LINE
  8
0
  6
CONTINUOUS
 10
60.113750
 20
253.030624
 11
60.113750
 21
260.030640
  0
LINE
  8
0
  6
CONTINUOUS
 10
58.113750
 20
253.030624
 11
58.113750
 21
260.030640
  0
ARC
  8
0
  6
CONTINUOUS
 10
59.113750
 20
260.030640
 40
1.000000
 50
90.000000
 51
180.000000
  0
ARC
  8
0
  6
CONTINUOUS
 10
59.113750
 20
260.030640
 40
1.000000
 50
0.000000
 51
90.000000
  0
ARC
  8
0
  6
CONTINUOUS
 10
59.113750
 20
253.030624
 40
1.000000
 50
180.000000
 51
270.000000
  0
ARC
  8
0
  6
CONTINUOUS
 10
59.113750
 20
253.030624
 40
1.000000
 50
-90.000000
 51
0.000000
  0
LINE
  8
0
  6
CONTINUOUS
 10
62.113750
 20
263.396637
 11
62.113750
 21
301.530640
  0
LINE
  8
0
  6
CONTINUOUS
 10
52.613750
 20
303.530640
 11
52.613750
 21
209.530624
  0
LINE
  8
0
  6
CONTINUOUS
 10
52.613750
 20
285.530640
 11
8.638720
 21
285.530640
  0
LINE
  8
0
  6
CONTINUOUS
 10
52.613750
 20
227.530624
 11
8.638720
 21
227.530624
  0
LINE
  8
0
  6
CONTINUOUS
 10
10.113730
 20
303.530640
 11
52.613750
 21
303.530640
  0
LINE
  8
0
  6
CONTINUOUS
 10
10.113730
 20
209.530624
 11
52.613750
 21
209.530624
  0
ARC
  8
0
  6
CONTINUOUS
 10
10.113760
 20
298.530640
 40
5.000000
 50
90.000000
 51
180.000000
  0
ARC
  8
0
  6
CONTINUOUS
 10
10.113730
 20
214.530624
 40
5.000000
 50
180.000000
 51
270.000000
  0
LINE
  8
0
  6
CONTINUOUS
 10
5.113760
 20
298.530640
 11
5.113730
 21
214.530609
  0
TEXT
  8
0
 10
-8.000000
 20
-2.000000
 40
4.000000
 41
1.000000
  1
HLM-18R-10~240-S90W
 50
0.000000
  0
ENDSEC
  0
EOF
