  0
SECTION
  2
HEADER
  9
$CLAYER
  8
1
  9
$LTSCALE
 40
3.0
  0
ENDSEC
  0
SECTION
  2
TABLES
  0
TABLE
  2
LTYPE
 70
     4
  0
LTYPE
  2
CONTINUOUS
  3
solid line
 70
    64
 72
    65
 73
     0
 40
0.0
  0
LTYPE
  2
DASHED
  3
__ __ __ __ __ __ __ __ __ __ __ __ __ __ __
 70
    64
 72
    65
 73
     2
 40
0.75
 49
0.5
 49
-0.25
  0
LTYPE
  2
CENTER
  3
____ _ ____ _ ____ _ ____ _ ____ _ ____ _ ____
 70
    64
 72
    65
 73
     4
 40
2.0
 49
1.25
 49
-0.25
 49
0.25
 49
-0.25
  0
LTYPE
  2
PHANTOM
  3
_____ _ _ _____ _ _ _____ _ _ _____ _ _ ____
 70
    64
 72
    65
 73
     6
 40
2.5
 49
1.25
 49
-0.25
 49
0.25
 49
-0.25
 49
0.25
 49
-0.25
  0
ENDTAB
  0
TABLE
  2
LAYER
 70
     1
  0
LAYER
  2
0
 70
    64
 62
     7
  6
CONTINUOUS
  0
ENDTAB
  0
TABLE
  2
STYLE
 70
     1
  0
STYLE
  2
STANDARD
 70
     0
 40
0.000000
 41
1.000000
 50
0.000000
 71
     0
 42
3.000000
  3
txt
  4
BIGFONT
  0
ENDTAB
  0
ENDSEC
  0
SECTION
  2
BLOCKS
  0
ENDSEC
  0
SECTION
  2
ENTITIES
  0
LINE
  8
0
  6
CONTINUOUS
 10
53.762489
 20
102.026253
 11
63.262489
 21
102.026253
  0
LINE
  8
0
  6
CONTINUOUS
 10
63.262489
 20
91.435547
 11
53.762489
 21
91.435547
  0
LINE
  8
0
  6
CONTINUOUS
 10
53.762489
 20
12.026250
 11
63.262489
 21
12.026250
  0
LINE
  8
0
  6
CONTINUOUS
 10
63.262489
 20
22.616949
 11
53.762489
 21
22.616949
  0
LINE
  8
0
  6
CONTINUOUS
 10
53.762489
 20
104.026253
 11
53.762489
 21
10.026250
  0
LINE
  8
0
  6
CONTINUOUS
 10
53.762489
 20
86.026253
 11
9.787490
 21
86.026253
  0
LINE
  8
0
  6
CONTINUOUS
 10
53.762489
 20
28.026251
 11
9.787489
 21
28.026251
  0
LINE
  8
0
  6
CONTINUOUS
 10
11.262488
 20
104.026253
 11
53.762489
 21
104.026253
  0
LINE
  8
0
  6
CONTINUOUS
 10
11.262488
 20
10.026250
 11
53.762489
 21
10.026250
  0
ARC
  8
0
  6
CONTINUOUS
 10
11.262513
 20
99.026283
 40
5.000000
 50
90.000000
 51
180.000000
  0
ARC
  8
0
  6
CONTINUOUS
 10
11.262487
 20
15.026250
 40
5.000000
 50
180.000000
 51
270.000000
  0
LINE
  8
0
  6
CONTINUOUS
 10
6.262513
 20
99.026260
 11
6.262488
 21
15.026240
  0
LINE
  8
0
  6
CONTINUOUS
 10
63.262489
 20
12.026250
 11
63.262489
 21
102.026253
  0
LINE
  8
0
  6
CENTER
 10
-7.721562
 20
57.026249
 11
159.052002
 21
57.026249
  0
LINE
  8
0
  6
CONTINUOUS
 10
236.762497
 20
14.726250
 11
236.762497
 21
7.726250
  0
LINE
  8
0
  6
CONTINUOUS
 10
63.262489
 20
12.026250
 11
135.762497
 21
12.026250
  0
LINE
  8
0
  6
CONTINUOUS
 10
63.262489
 20
102.026253
 11
142.604996
 21
102.026253
  0
LINE
  8
0
  6
CENTER
 10
186.262497
 20
130.713745
 11
186.262497
 21
0.507150
  0
LINE
  8
0
  6
CENTER
 10
150.749802
 20
82.726250
 11
214.838501
 21
82.726250
  0
LINE
  8
0
  6
CONTINUOUS
 10
135.762497
 20
7.726250
 11
236.762497
 21
7.726250
  0
LINE
  8
0
  6
CONTINUOUS
 10
170.841400
 20
120.726250
 11
201.683594
 21
120.726250
  0
LINE
  8
0
  6
CONTINUOUS
 10
137.762497
 20
16.726250
 11
234.762497
 21
16.726250
  0
LINE
  8
0
  6
CENTER
 10
224.262497
 20
22.213751
 11
224.262497
 21
0.963750
  0
LINE
  8
0
  6
CENTER
 10
148.262497
 20
22.463751
 11
148.262497
 21
0.463750
  0
LINE
  8
0
  6
CONTINUOUS
 10
234.633896
 20
98.719429
 11
204.554993
 21
119.819542
  0
LINE
  8
0
  6
CONTINUOUS
 10
137.891098
 20
98.719429
 11
167.970001
 21
119.819527
  0
ARC
  8
0
  6
CONTINUOUS
 10
201.683701
 20
115.726242
 40
5.000000
 50
54.950878
 51
90.000000
  0
ARC
  8
0
  6
CONTINUOUS
 10
170.841400
 20
115.726250
 40
5.000000
 50
90.000000
 51
125.049698
  0
ARC
  8
0
  6
CONTINUOUS
 10
140.762497
 20
94.626183
 40
5.000000
 50
125.049797
 51
180.000000
  0
ARC
  8
0
  6
CONTINUOUS
 10
231.762497
 20
94.626129
 40
5.000000
 50
0.000000
 51
54.950901
  0
LINE
  8
0
  6
CONTINUOUS
 10
236.762497
 20
14.726250
 11
236.762497
 21
94.626152
  0
ARC
  8
0
  6
CONTINUOUS
 10
234.762497
 20
14.726240
 40
2.000000
 50
0.000000
 51
90.000000
  0
LINE
  8
0
  6
CONTINUOUS
 10
135.762497
 20
94.626183
 11
135.762497
 21
94.626152
  0
ARC
  8
0
  6
CONTINUOUS
 10
137.762497
 20
14.726250
 40
2.000000
 50
90.000000
 51
180.000000
  0
LINE
  8
0
  6
DASHED
 10
228.512497
 20
16.726250
 11
228.512497
 21
7.726250
  0
LINE
  8
0
  6
DASHED
 10
220.012497
 20
16.726250
 11
220.012497
 21
7.726250
  0
LINE
  8
0
  6
DASHED
 10
152.512497
 20
16.726250
 11
152.512497
 21
7.726250
  0
LINE
  8
0
  6
DASHED
 10
144.012497
 20
16.726250
 11
144.012497
 21
7.726250
  0
CIRCLE
  8
0
  6
CONTINUOUS
 10
186.262497
 20
82.726250
 40
23.500000
  0
LINE
  8
0
  6
CONTINUOUS
 10
138.262497
 20
83.418442
 11
138.262497
 21
52.033733
  0
LINE
  8
0
  6
CONTINUOUS
 10
234.262497
 20
83.418610
 11
234.262497
 21
52.033897
  0
ARC
  8
0
  6
CONTINUOUS
 10
186.262497
 20
67.726250
 40
50.500000
 50
198.103806
 51
341.896210
  0
LINE
  8
0
  6
CONTINUOUS
 10
135.762497
 20
94.626160
 11
135.762405
 21
7.726250
  0
ARC
  8
0
  6
CONTINUOUS
 10
186.262497
 20
67.726250
 40
50.500000
 50
18.103790
 51
161.896194
  0
LINE
  8
0
  6
CONTINUOUS
 10
63.262489
 20
91.435547
 11
134.145401
 21
91.435547
  0
LINE
  8
0
  6
CONTINUOUS
 10
63.262489
 20
22.616949
 11
134.145401
 21
22.616949
  0
LINE
  8
0
  6
CONTINUOUS
 10
179.887497
 20
45.279469
 11
179.887497
 21
39.726250
  0
LINE
  8
0
  6
CONTINUOUS
 10
183.074997
 20
47.296562
 11
183.074997
 21
49.288750
  0
LINE
  8
0
  6
CONTINUOUS
 10
189.449997
 20
47.296562
 11
189.449997
 21
49.288750
  0
LINE
  8
0
  6
CONTINUOUS
 10
185.639893
 20
48.118340
 11
185.639893
 21
40.772148
  0
LINE
  8
0
  6
CONTINUOUS
 10
186.835297
 20
48.118340
 11
186.835297
 21
40.772148
  0
LINE
  8
0
  6
CONTINUOUS
 10
193.110596
 20
48.118340
 11
193.110596
 21
40.722340
  0
LINE
  8
0
  6
CONTINUOUS
 10
194.206299
 20
44.196220
 11
194.206299
 21
40.722340
  0
LINE
  8
0
  6
CONTINUOUS
 10
178.375000
 20
48.018730
 11
175.303101
 21
48.018730
  0
LINE
  8
0
  6
CONTINUOUS
 10
175.303101
 20
48.018730
 11
174.583298
 21
47.126236
  0
LINE
  8
0
  6
CONTINUOUS
 10
174.669907
 20
49.288750
 11
173.512497
 21
47.806755
  0
LINE
  8
0
  6
CONTINUOUS
 10
174.583298
 20
41.617168
 11
175.314606
 21
40.846859
  0
LINE
  8
0
  6
CONTINUOUS
 10
173.512497
 20
40.967110
 11
174.742294
 21
39.726250
  0
LINE
  8
0
  6
CONTINUOUS
 10
173.512497
 20
47.806755
 11
173.512497
 21
40.967110
  0
LINE
  8
0
  6
CONTINUOUS
 10
174.583298
 20
47.126236
 11
174.583298
 21
41.617168
  0
LINE
  8
0
  6
CONTINUOUS
 10
178.966095
 20
47.447289
 11
178.362900
 21
48.018730
  0
LINE
  8
0
  6
CONTINUOUS
 10
178.956497
 20
49.288750
 11
179.887497
 21
48.255608
  0
LINE
  8
0
  6
CONTINUOUS
 10
178.966095
 20
47.296562
 11
179.887497
 21
47.296562
  0
LINE
  8
0
  6
CONTINUOUS
 10
174.669907
 20
49.288750
 11
178.956497
 21
49.288750
  0
LINE
  8
0
  6
CONTINUOUS
 10
178.966095
 20
44.233570
 11
177.297699
 21
44.233570
  0
LINE
  8
0
  6
CONTINUOUS
 10
178.966095
 20
43.237480
 11
178.966095
 21
44.034359
  0
LINE
  8
0
  6
CONTINUOUS
 10
176.973907
 20
40.846859
 11
175.314606
 21
40.846859
  0
ARC
  8
0
  6
CONTINUOUS
 10
176.973907
 20
42.839039
 40
1.992187
 50
-89.999786
 51
0.000109
  0
LINE
  8
0
  6
CONTINUOUS
 10
178.966095
 20
40.488522
 11
178.966095
 21
39.726250
  0
LINE
  8
0
  6
CONTINUOUS
 10
179.887497
 20
48.255608
 11
179.887497
 21
47.296562
  0
LINE
  8
0
  6
CONTINUOUS
 10
178.966095
 20
44.233570
 11
178.966095
 21
42.839039
  0
LINE
  8
0
  6
CONTINUOUS
 10
177.297699
 20
45.279469
 11
177.297699
 21
44.233570
  0
LINE
  8
0
  6
CONTINUOUS
 10
178.966095
 20
39.726250
 11
179.887497
 21
39.726250
  0
LINE
  8
0
  6
CONTINUOUS
 10
178.966095
 20
40.488522
 11
178.057602
 21
39.726250
  0
LINE
  8
0
  6
CONTINUOUS
 10
186.835297
 20
40.772148
 11
187.233704
 21
40.772148
  0
LINE
  8
0
  6
CONTINUOUS
 10
185.166794
 20
40.772148
 11
185.166794
 21
39.726250
  0
LINE
  8
0
  6
CONTINUOUS
 10
187.233704
 20
40.772148
 11
187.233704
 21
39.726250
  0
LINE
  8
0
  6
CONTINUOUS
 10
188.785004
 20
47.296562
 11
189.449997
 21
47.296562
  0
LINE
  8
0
  6
CONTINUOUS
 10
183.074997
 20
47.296562
 11
183.782593
 21
47.296562
  0
LINE
  8
0
  6
CONTINUOUS
 10
183.074997
 20
49.288750
 11
189.449997
 21
49.288750
  0
LINE
  8
0
  6
CONTINUOUS
 10
185.166794
 20
39.726250
 11
187.233704
 21
39.726250
  0
LINE
  8
0
  6
CONTINUOUS
 10
185.166794
 20
40.772148
 11
185.639893
 21
40.772148
  0
ARC
  8
0
  6
CONTINUOUS
 10
196.460007
 20
46.736259
 40
2.552490
 50
-73.981873
 51
90.003510
  0
ARC
  8
0
  6
CONTINUOUS
 10
196.460007
 20
46.736259
 40
1.557193
 50
-82.585274
 51
62.411850
  0
LINE
  8
0
  6
CONTINUOUS
 10
192.637497
 20
49.288750
 11
196.460007
 21
49.288750
  0
LINE
  8
0
  6
CONTINUOUS
 10
192.637497
 20
49.288750
 11
192.637497
 21
48.118340
  0
LINE
  8
0
  6
CONTINUOUS
 10
194.206299
 20
48.118340
 11
194.206299
 21
45.192089
  0
LINE
  8
0
  6
CONTINUOUS
 10
197.164307
 20
44.282871
 11
198.744202
 21
40.722340
  0
LINE
  8
0
  6
CONTINUOUS
 10
196.246796
 20
44.196220
 11
197.741898
 21
40.722340
  0
LINE
  8
0
  6
CONTINUOUS
 10
192.637497
 20
40.722340
 11
193.110596
 21
40.722340
  0
LINE
  8
0
  6
CONTINUOUS
 10
194.206299
 20
40.722340
 11
194.642105
 21
40.722340
  0
LINE
  8
0
  6
CONTINUOUS
 10
194.642105
 20
39.726250
 11
192.637497
 21
39.726250
  0
LINE
  8
0
  6
CONTINUOUS
 10
197.543304
 20
40.722340
 11
197.741898
 21
40.722340
  0
LINE
  8
0
  6
CONTINUOUS
 10
198.744202
 20
40.722340
 11
199.012497
 21
40.722340
  0
LINE
  8
0
  6
CONTINUOUS
 10
197.543304
 20
39.726250
 11
199.012497
 21
39.726250
  0
LINE
  8
0
  6
CONTINUOUS
 10
199.012497
 20
40.722340
 11
199.012497
 21
39.726250
  0
LINE
  8
0
  6
CONTINUOUS
 10
197.543304
 20
40.722340
 11
197.543304
 21
39.726250
  0
LINE
  8
0
  6
CONTINUOUS
 10
194.642105
 20
40.722340
 11
194.642105
 21
39.726250
  0
LINE
  8
0
  6
CONTINUOUS
 10
192.637497
 20
40.722340
 11
192.637497
 21
39.726250
  0
LINE
  8
0
  6
CONTINUOUS
 10
184.125000
 20
48.118340
 11
183.782593
 21
47.296562
  0
LINE
  8
0
  6
CONTINUOUS
 10
188.496307
 20
48.118340
 11
188.785004
 21
47.296562
  0
LINE
  8
0
  6
CONTINUOUS
 10
186.835297
 20
48.118340
 11
188.496307
 21
48.118340
  0
LINE
  8
0
  6
CONTINUOUS
 10
185.639893
 20
48.118340
 11
184.125000
 21
48.118340
  0
LINE
  8
0
  6
CONTINUOUS
 10
192.637497
 20
48.118340
 11
193.110596
 21
48.118340
  0
LINE
  8
0
  6
CONTINUOUS
 10
194.206299
 20
48.118340
 11
197.181198
 21
48.116402
  0
LINE
  8
0
  6
CONTINUOUS
 10
178.966095
 20
47.447289
 11
178.966095
 21
47.296562
  0
LINE
  8
0
  6
CONTINUOUS
 10
174.742294
 20
39.726250
 11
178.057602
 21
39.726250
  0
LINE
  8
0
  6
CONTINUOUS
 10
194.206299
 20
45.192089
 11
196.660995
 21
45.192089
  0
LINE
  8
0
  6
CONTINUOUS
 10
194.206299
 20
44.196220
 11
196.246796
 21
44.196220
  0
LINE
  8
0
  6
CONTINUOUS
 10
177.297699
 20
45.279469
 11
179.887497
 21
45.279469
  0
LINE
  8
0
  6
CENTER
 10
386.262512
 20
-2.567500
 11
386.262512
 21
146.465622
  0
LINE
  8
0
  6
CENTER
 10
332.573090
 20
57.026249
 11
438.765686
 21
57.026249
  0
LINE
  8
0
  6
CONTINUOUS
 10
444.262512
 20
14.726250
 11
444.262512
 21
7.726250
  0
LINE
  8
0
  6
CONTINUOUS
 10
328.262512
 20
14.726250
 11
328.262512
 21
7.726250
  0
LINE
  8
0
  6
CONTINUOUS
 10
328.262512
 20
7.726250
 11
444.262512
 21
7.726250
  0
LINE
  8
0
  6
CONTINUOUS
 10
426.262512
 20
16.726250
 11
442.262512
 21
16.726250
  0
LINE
  8
0
  6
CONTINUOUS
 10
349.262512
 20
19.726250
 11
349.262512
 21
118.114883
  0
LINE
  8
0
  6
CONTINUOUS
 10
423.262512
 20
19.726250
 11
423.262512
 21
118.115013
  0
LINE
  8
0
  6
CONTINUOUS
 10
428.262512
 20
60.226246
 11
428.262512
 21
105.226250
  0
LINE
  8
0
  6
CONTINUOUS
 10
427.262512
 20
106.226250
 11
425.262512
 21
106.226250
  0
LINE
  8
0
  6
CONTINUOUS
 10
427.262512
 20
59.226246
 11
425.262512
 21
59.226246
  0
LINE
  8
0
  6
CONTINUOUS
 10
386.262512
 20
120.726250
 11
421.297394
 21
120.114723
  0
LINE
  8
0
  6
CONTINUOUS
 10
351.227600
 20
120.114578
 11
386.262512
 21
120.726250
  0
ARC
  8
0
  6
CONTINUOUS
 10
425.262512
 20
108.226250
 40
2.000000
 50
180.000000
 51
270.000000
  0
ARC
  8
0
  6
CONTINUOUS
 10
421.262512
 20
118.115013
 40
2.000000
 50
0.000000
 51
89.000137
  0
ARC
  8
0
  6
CONTINUOUS
 10
351.262512
 20
118.114891
 40
2.000000
 50
91.000641
 51
180.000000
  0
ARC
  8
0
  6
CONTINUOUS
 10
425.262512
 20
57.226257
 40
2.000000
 50
90.000000
 51
180.000000
  0
ARC
  8
0
  6
CONTINUOUS
 10
427.262512
 20
105.226242
 40
1.000000
 50
0.000000
 51
90.000000
  0
ARC
  8
0
  6
CONTINUOUS
 10
427.262512
 20
60.226246
 40
1.000000
 50
-90.000000
 51
0.000000
  0
LINE
  8
0
  6
CONTINUOUS
 10
351.159302
 20
97.226250
 11
421.614014
 21
97.226250
  0
ARC
  8
0
  6
CONTINUOUS
 10
442.262512
 20
14.726240
 40
2.000000
 50
0.000000
 51
90.000000
  0
ARC
  8
0
  6
CONTINUOUS
 10
330.262512
 20
14.726260
 40
2.000000
 50
90.000000
 51
180.000000
  0
LINE
  8
0
  6
CENTER
 10
434.262512
 20
20.682501
 11
434.262512
 21
3.432500
  0
LINE
  8
0
  6
CENTER
 10
338.262512
 20
20.682501
 11
338.262512
 21
2.682500
  0
LINE
  8
0
  6
DASHED
 10
342.512512
 20
16.726250
 11
342.512512
 21
7.726250
  0
LINE
  8
0
  6
DASHED
 10
334.012512
 20
16.726250
 11
334.012512
 21
7.726250
  0
LINE
  8
0
  6
DASHED
 10
438.512512
 20
16.726250
 11
438.512512
 21
7.726250
  0
LINE
  8
0
  6
DASHED
 10
430.012512
 20
16.726250
 11
430.012512
 21
7.726250
  0
ARC
  8
0
  6
CONTINUOUS
 10
386.262512
 20
57.026249
 40
45.000000
 50
159.637695
 51
214.692093
  0
ARC
  8
0
  6
CONTINUOUS
 10
386.262512
 20
57.026249
 40
45.000000
 50
-34.692108
 51
20.437799
  0
LINE
  8
0
  6
CONTINUOUS
 10
344.262512
 20
60.226246
 11
344.262512
 21
105.226250
  0
LINE
  8
0
  6
CONTINUOUS
 10
345.262512
 20
106.226250
 11
347.262512
 21
106.226250
  0
LINE
  8
0
  6
CONTINUOUS
 10
345.262512
 20
59.226246
 11
347.262512
 21
59.226246
  0
ARC
  8
0
  6
CONTINUOUS
 10
347.262512
 20
108.226250
 40
2.000000
 50
-90.000000
 51
0.000000
  0
ARC
  8
0
  6
CONTINUOUS
 10
347.262512
 20
57.226257
 40
2.000000
 50
0.000000
 51
90.000000
  0
ARC
  8
0
  6
CONTINUOUS
 10
345.262512
 20
105.226242
 40
1.000000
 50
90.000000
 51
180.000000
  0
ARC
  8
0
  6
CONTINUOUS
 10
345.262512
 20
60.226246
 40
1.000000
 50
180.000000
 51
270.000000
  0
LINE
  8
0
  6
CENTER
 10
435.470215
 20
82.726250
 11
304.012512
 21
82.726250
  0
LINE
  8
0
  6
CONTINUOUS
 10
346.262512
 20
16.726250
 11
330.262512
 21
16.726250
  0
ARC
  8
0
  6
CONTINUOUS
 10
346.262512
 20
19.726250
 40
3.000000
 50
-90.000000
 51
0.000000
  0
ARC
  8
0
  6
CONTINUOUS
 10
426.262512
 20
19.726250
 40
3.000000
 50
180.000000
 51
270.000000
  0
LINE
  8
0
  6
CONTINUOUS
 10
433.262512
 20
83.126747
 11
433.262512
 21
30.925730
  0
LINE
  8
0
  6
CONTINUOUS
 10
339.262512
 20
30.925751
 11
339.262512
 21
73.726250
  0
LINE
  8
0
  6
CONTINUOUS
 10
431.212189
 20
88.076500
 11
428.262512
 21
91.026230
  0
LINE
  8
0
  6
CONTINUOUS
 10
341.312805
 20
25.976000
 11
348.931793
 21
18.356970
  0
LINE
  8
0
  6
CONTINUOUS
 10
431.212311
 20
25.976000
 11
423.593201
 21
18.356920
  0
ARC
  8
0
  6
CONTINUOUS
 10
346.262512
 20
30.925800
 40
7.000000
 50
180.000000
 51
225.000397
  0
ARC
  8
0
  6
CONTINUOUS
 10
426.262512
 20
30.925711
 40
7.000000
 50
-44.999599
 51
0.000000
  0
ARC
  8
0
  6
CONTINUOUS
 10
426.262512
 20
83.126732
 40
7.000000
 50
0.000000
 51
45.000229
  0
LINE
  8
0
  6
CONTINUOUS
 10
312.262512
 20
73.726250
 11
312.262512
 21
91.726250
  0
LINE
  8
0
  6
CONTINUOUS
 10
342.262512
 20
91.726250
 11
312.262512
 21
91.726250
  0
LINE
  8
0
  6
CONTINUOUS
 10
342.262512
 20
73.726250
 11
312.262512
 21
73.726250
  0
LINE
  8
0
  6
CONTINUOUS
 10
342.262512
 20
92.726250
 11
342.262512
 21
72.726250
  0
LINE
  8
0
  6
CONTINUOUS
 10
344.262512
 20
92.726250
 11
342.262512
 21
92.726250
  0
LINE
  8
0
  6
CONTINUOUS
 10
344.262512
 20
72.726250
 11
342.262512
 21
72.726250
  0
ARC
  8
0
  6
CONTINUOUS
 10
336.262512
 20
82.726250
 40
3.000000
 50
-90.000000
 51
90.000000
  0
LINE
  8
0
  6
CONTINUOUS
 10
336.262512
 20
85.726250
 11
312.262512
 21
85.726250
  0
LINE
  8
0
  6
CONTINUOUS
 10
336.262512
 20
79.726250
 11
312.262512
 21
79.726250
  0
LINE
  8
0
  6
CONTINUOUS
 10
191.762497
 20
79.726273
 11
191.762497
 21
85.726273
  0
LINE
  8
0
  6
CONTINUOUS
 10
197.762497
 20
79.726288
 11
197.762497
 21
85.726288
  0
LINE
  8
0
  6
CONTINUOUS
 10
197.762497
 20
79.726288
 11
191.762497
 21
79.726273
  0
LINE
  8
0
  6
CONTINUOUS
 10
197.762497
 20
85.726288
 11
191.762497
 21
85.726273
  0
ARC
  8
0
  6
CONTINUOUS
 10
186.262497
 20
82.726250
 40
9.000000
 50
19.471210
 51
340.528809
  0
LINE
  8
0
  6
CENTER
 10
186.262497
 20
323.704987
 11
186.262497
 21
176.237503
  0
LINE
  8
0
  6
CENTER
 10
224.262497
 20
313.040009
 11
224.262497
 21
294.277496
  0
LINE
  8
0
  6
CENTER
 10
-5.416250
 20
256.530640
 11
250.403748
 21
256.530640
  0
LINE
  8
0
  6
CONTINUOUS
 10
235.921616
 20
304.705139
 11
236.762497
 21
256.530640
  0
LINE
  8
0
  6
CONTINUOUS
 10
225.923141
 20
314.530640
 11
186.262497
 21
314.530640
  0
LINE
  8
0
  6
CONTINUOUS
 10
137.762497
 20
293.530640
 11
234.151260
 21
293.530640
  0
ARC
  8
0
  6
CONTINUOUS
 10
225.923141
 20
304.530640
 40
10.000000
 50
1.000000
 51
90.000000
  0
ARC
  8
0
  6
CONTINUOUS
 10
234.151260
 20
291.530640
 40
2.000000
 50
1.000000
 51
90.000000
  0
LINE
  8
0
  6
CENTER
 10
214.667191
 20
304.530640
 11
235.009689
 21
304.530640
  0
CIRCLE
  8
0
  6
CONTINUOUS
 10
224.262497
 20
304.530640
 40
4.250000
  0
LINE
  8
0
  6
CENTER
 10
148.262497
 20
313.237488
 11
148.262497
 21
294.277496
  0
LINE
  8
0
  6
CONTINUOUS
 10
136.603394
 20
304.705139
 11
136.417419
 21
294.050507
  0
ARC
  8
0
  6
CONTINUOUS
 10
146.601868
 20
304.530640
 40
10.000000
 50
90.000000
 51
179.000000
  0
ARC
  8
0
  6
CONTINUOUS
 10
138.373734
 20
291.530640
 40
2.000000
 50
90.000000
 51
179.000000
  0
LINE
  8
0
  6
CENTER
 10
157.589691
 20
304.530640
 11
138.037186
 21
304.530640
  0
CIRCLE
  8
0
  6
CONTINUOUS
 10
148.262497
 20
304.530640
 40
4.250000
  0
LINE
  8
0
  6
CONTINUOUS
 10
135.762497
 20
295.530640
 11
135.762497
 21
299.530640
  0
LINE
  8
0
  6
CONTINUOUS
 10
133.762497
 20
301.530640
 11
63.262501
 21
301.530640
  0
ARC
  8
0
  6
CONTINUOUS
 10
133.762497
 20
299.530640
 40
2.000000
 50
0.000000
 51
90.000000
  0
ARC
  8
0
  6
CONTINUOUS
 10
137.762497
 20
295.530640
 40
2.000000
 50
180.000000
 51
270.000000
  0
LINE
  8
0
  6
CONTINUOUS
 10
136.374039
 20
291.565521
 11
136.268692
 21
285.530640
  0
LINE
  8
0
  6
CONTINUOUS
 10
63.262501
 20
285.530640
 11
142.605057
 21
285.530640
  0
LINE
  8
0
  6
CONTINUOUS
 10
63.262501
 20
227.530624
 11
142.605057
 21
227.530624
  0
LINE
  8
0
  6
CONTINUOUS
 10
133.762497
 20
211.530624
 11
63.262501
 21
211.530624
  0
ARC
  8
0
  6
CONTINUOUS
 10
133.762497
 20
213.530624
 40
2.000000
 50
-90.000000
 51
0.000000
  0
LINE
  8
0
  6
CENTER
 10
224.262497
 20
199.675003
 11
224.262497
 21
218.733749
  0
LINE
  8
0
  6
CONTINUOUS
 10
235.921616
 20
208.356094
 11
236.762497
 21
256.530640
  0
LINE
  8
0
  6
CONTINUOUS
 10
225.923141
 20
198.530624
 11
197.762497
 21
198.530624
  0
LINE
  8
0
  6
CONTINUOUS
 10
137.762497
 20
219.530624
 11
234.151260
 21
219.530624
  0
ARC
  8
0
  6
CONTINUOUS
 10
225.923141
 20
208.530624
 40
10.000000
 50
-90.000000
 51
-1.000000
  0
ARC
  8
0
  6
CONTINUOUS
 10
234.151260
 20
221.530624
 40
2.000000
 50
-90.000000
 51
-1.000000
  0
LINE
  8
0
  6
CENTER
 10
215.160934
 20
208.530624
 11
235.207184
 21
208.530624
  0
CIRCLE
  8
0
  6
CONTINUOUS
 10
224.262497
 20
208.530624
 40
4.250000
  0
LINE
  8
0
  6
CENTER
 10
148.262497
 20
199.181244
 11
148.262497
 21
218.536255
  0
LINE
  8
0
  6
CONTINUOUS
 10
136.603394
 20
208.356094
 11
136.417419
 21
219.010742
  0
ARC
  8
0
  6
CONTINUOUS
 10
146.601868
 20
208.530624
 40
10.000000
 50
-179.000000
 51
-90.000000
  0
ARC
  8
0
  6
CONTINUOUS
 10
138.373734
 20
221.530624
 40
2.000000
 50
-179.000000
 51
-90.000000
  0
LINE
  8
0
  6
CENTER
 10
158.083435
 20
208.530624
 11
137.839691
 21
208.530624
  0
CIRCLE
  8
0
  6
CONTINUOUS
 10
148.262497
 20
208.530624
 40
4.250000
  0
LINE
  8
0
  6
CONTINUOUS
 10
135.762497
 20
217.530624
 11
135.762497
 21
213.530624
  0
ARC
  8
0
  6
CONTINUOUS
 10
137.762497
 20
217.530624
 40
2.000000
 50
-270.000000
 51
-180.000000
  0
LINE
  8
0
  6
CONTINUOUS
 10
136.374039
 20
221.495728
 11
136.268692
 21
227.530624
  0
LINE
  8
0
  6
CONTINUOUS
 10
169.262497
 20
288.530640
 11
169.262497
 21
224.530624
  0
LINE
  8
0
  6
CONTINUOUS
 10
203.262497
 20
288.530640
 11
203.262497
 21
224.530624
  0
LINE
  8
0
  6
CONTINUOUS
 10
142.605057
 20
283.530640
 11
142.605057
 21
229.530624
  0
LINE
  8
0
  6
CONTINUOUS
 10
208.762497
 20
298.530640
 11
163.762497
 21
298.530640
  0
LINE
  8
0
  6
CONTINUOUS
 10
162.762497
 20
297.530640
 11
162.762497
 21
295.530640
  0
LINE
  8
0
  6
CONTINUOUS
 10
209.762497
 20
297.530640
 11
209.762497
 21
295.530640
  0
ARC
  8
0
  6
CONTINUOUS
 10
160.762497
 20
295.530640
 40
2.000000
 50
-90.000000
 51
0.000000
  0
ARC
  8
0
  6
CONTINUOUS
 10
211.762497
 20
295.530640
 40
2.000000
 50
180.000000
 51
270.000000
  0
ARC
  8
0
  6
CONTINUOUS
 10
163.762512
 20
297.530640
 40
1.000000
 50
90.000000
 51
180.000000
  0
ARC
  8
0
  6
CONTINUOUS
 10
208.762512
 20
297.530640
 40
1.000000
 50
0.000000
 51
90.000000
  0
LINE
  8
0
  6
CONTINUOUS
 10
186.262497
 20
314.530640
 11
146.601868
 21
314.530640
  0
LINE
  8
0
  6
CONTINUOUS
 10
208.762497
 20
214.530624
 11
163.762497
 21
214.530624
  0
LINE
  8
0
  6
CONTINUOUS
 10
162.762497
 20
215.530624
 11
162.762497
 21
217.530624
  0
LINE
  8
0
  6
CONTINUOUS
 10
209.762497
 20
215.530624
 11
209.762497
 21
217.530624
  0
ARC
  8
0
  6
CONTINUOUS
 10
160.762497
 20
217.530624
 40
2.000000
 50
0.000000
 51
90.000000
  0
ARC
  8
0
  6
CONTINUOUS
 10
211.762497
 20
217.530624
 40
2.000000
 50
-270.000000
 51
-180.000000
  0
ARC
  8
0
  6
CONTINUOUS
 10
163.762512
 20
215.530624
 40
1.000000
 50
-180.000000
 51
-90.000000
  0
ARC
  8
0
  6
CONTINUOUS
 10
208.762512
 20
215.530624
 40
1.000000
 50
-90.000000
 51
0.000000
  0
LINE
  8
0
  6
CONTINUOUS
 10
197.762497
 20
182.530624
 11
177.262497
 21
182.530624
  0
LINE
  8
0
  6
CONTINUOUS
 10
177.262497
 20
212.530624
 11
177.262497
 21
182.530624
  0
LINE
  8
0
  6
CONTINUOUS
 10
195.262497
 20
212.530624
 11
195.262497
 21
209.530624
  0
LINE
  8
0
  6
CONTINUOUS
 10
176.262497
 20
212.530624
 11
196.262497
 21
212.530624
  0
LINE
  8
0
  6
CONTINUOUS
 10
176.262497
 20
214.530624
 11
176.262497
 21
212.530624
  0
LINE
  8
0
  6
CONTINUOUS
 10
196.262497
 20
214.530624
 11
196.262497
 21
212.530624
  0
LINE
  8
0
  6
CONTINUOUS
 10
197.762497
 20
182.530624
 11
197.762497
 21
209.530624
  0
LINE
  8
0
  6
CONTINUOUS
 10
197.762497
 20
209.530624
 11
194.747498
 21
209.530624
  0
LINE
  8
0
  6
CONTINUOUS
 10
194.747498
 20
182.530624
 11
194.747498
 21
209.530624
  0
LINE
  8
0
  6
CONTINUOUS
 10
177.262497
 20
198.530624
 11
146.601868
 21
198.530624
  0
LINE
  8
0
  6
CONTINUOUS
 10
53.762501
 20
301.530640
 11
63.262501
 21
301.530640
  0
LINE
  8
0
  6
CONTINUOUS
 10
63.262501
 20
285.530640
 11
53.762501
 21
285.530640
  0
LINE
  8
0
  6
CONTINUOUS
 10
53.762501
 20
211.530624
 11
63.262501
 21
211.530624
  0
LINE
  8
0
  6
CONTINUOUS
 10
63.262501
 20
211.530624
 11
63.262501
 21
231.530609
  0
LINE
  8
0
  6
CONTINUOUS
 10
63.262501
 20
227.530624
 11
53.762501
 21
227.530624
  0
LINE
  8
0
  6
CONTINUOUS
 10
63.262501
 20
281.530609
 11
63.262501
 21
301.530640
  0
LINE
  8
0
  6
CONTINUOUS
 10
53.762501
 20
303.530640
 11
53.762501
 21
264.030609
  0
LINE
  8
0
  6
CONTINUOUS
 10
53.762501
 20
285.530640
 11
9.787470
 21
285.530640
  0
LINE
  8
0
  6
CONTINUOUS
 10
53.762501
 20
227.530624
 11
9.787470
 21
227.530624
  0
LINE
  8
0
  6
CONTINUOUS
 10
11.262480
 20
303.530640
 11
53.762501
 21
303.530640
  0
LINE
  8
0
  6
CONTINUOUS
 10
11.262480
 20
209.530624
 11
53.762501
 21
209.530624
  0
ARC
  8
0
  6
CONTINUOUS
 10
11.262510
 20
298.530640
 40
5.000000
 50
90.000000
 51
180.000000
  0
ARC
  8
0
  6
CONTINUOUS
 10
11.262480
 20
214.530624
 40
5.000000
 50
180.000000
 51
270.000000
  0
LINE
  8
0
  6
CONTINUOUS
 10
6.262510
 20
298.530640
 11
6.262480
 21
214.530609
  0
LINE
  8
0
  6
CONTINUOUS
 10
53.262501
 20
264.030609
 11
54.262501
 21
264.030609
  0
ARC
  8
0
  6
CONTINUOUS
 10
53.262520
 20
263.030609
 40
1.000000
 50
90.000000
 51
180.000000
  0
LINE
  8
0
  6
CONTINUOUS
 10
48.762516
 20
260.530609
 11
48.762516
 21
252.530609
  0
LINE
  8
0
  6
CONTINUOUS
 10
48.762516
 20
260.530609
 11
52.262516
 21
262.030609
  0
LINE
  8
0
  6
CONTINUOUS
 10
48.762501
 20
252.530609
 11
52.262501
 21
251.030609
  0
LINE
  8
0
  6
CONTINUOUS
 10
52.262516
 20
263.030609
 11
52.262516
 21
250.030609
  0
LINE
  8
0
  6
CONTINUOUS
 10
53.262501
 20
249.030609
 11
54.262501
 21
249.030609
  0
ARC
  8
0
  6
CONTINUOUS
 10
53.262520
 20
250.030609
 40
1.000000
 50
-180.000000
 51
-90.000000
  0
LINE
  8
0
  6
CONTINUOUS
 10
54.262501
 20
233.530609
 11
54.262501
 21
279.530609
  0
LINE
  8
0
  6
CONTINUOUS
 10
56.262501
 20
281.530609
 11
54.262501
 21
279.530609
  0
LINE
  8
0
  6
CONTINUOUS
 10
56.262501
 20
281.530609
 11
102.262489
 21
281.530609
  0
LINE
  8
0
  6
CONTINUOUS
 10
96.762497
 20
277.030609
 11
96.762497
 21
281.530609
  0
ARC
  8
0
  6
CONTINUOUS
 10
99.762497
 20
277.030609
 40
3.000000
 50
180.000000
 51
270.000000
  0
LINE
  8
0
  6
CONTINUOUS
 10
99.762497
 20
274.030609
 11
104.262489
 21
274.030609
  0
CIRCLE
  8
0
  6
CONTINUOUS
 10
100.762497
 20
278.030609
 40
2.250000
  0
LINE
  8
0
  6
CONTINUOUS
 10
104.262497
 20
233.530609
 11
104.262489
 21
279.530609
  0
LINE
  8
0
  6
CONTINUOUS
 10
102.262489
 20
281.530609
 11
104.262489
 21
279.530609
  0
LINE
  8
0
  6
CONTINUOUS
 10
102.262497
 20
231.530609
 11
104.262497
 21
233.530609
  0
LINE
  8
0
  6
CONTINUOUS
 10
102.262497
 20
231.530609
 11
56.262501
 21
231.530609
  0
LINE
  8
0
  6
CONTINUOUS
 10
54.262501
 20
233.530609
 11
56.262501
 21
231.530609
  0
LINE
  8
0
  6
CONTINUOUS
 10
58.762501
 20
239.030609
 11
54.262508
 21
239.030609
  0
CIRCLE
  8
0
  6
CONTINUOUS
 10
57.762501
 20
235.030609
 40
2.250000
  0
ARC
  8
0
  6
CONTINUOUS
 10
58.762501
 20
236.030609
 40
3.000000
 50
0.000000
 51
90.000000
  0
LINE
  8
0
  6
CONTINUOUS
 10
61.762501
 20
236.030609
 11
61.762501
 21
231.530609
  0
LINE
  8
0
  6
CENTER
 10
79.262497
 20
224.064819
 11
79.262497
 21
288.196869
  0
LINE
  8
0
  6
CONTINUOUS
 10
56.676720
 20
280.530640
 11
55.262505
 21
279.116425
  0
LINE
  8
0
  6
CONTINUOUS
 10
55.262505
 20
239.030624
 11
55.262505
 21
279.116425
  0
LINE
  8
0
  6
CONTINUOUS
 10
96.762497
 20
280.530640
 11
56.676720
 21
280.530640
  0
LINE
  8
0
  6
CONTINUOUS
 10
103.262497
 20
274.030640
 11
103.262497
 21
233.944839
  0
LINE
  8
0
  6
CONTINUOUS
 10
61.762501
 20
232.530624
 11
101.848282
 21
232.530624
  0
LINE
  8
0
  6
CONTINUOUS
 10
101.848282
 20
232.530624
 11
103.262497
 21
233.944839
  0
LINE
  8
0
  6
CONTINUOUS
 10
53.762501
 20
249.030609
 11
53.762501
 21
209.530624
  0
LINE
  8
0
  6
CONTINUOUS
 10
55.762489
 20
103.526253
 11
102.262489
 21
103.526253
  0
LINE
  8
0
  6
CONTINUOUS
 10
104.262482
 20
133.526245
 11
104.262489
 21
105.526253
  0
LINE
  8
0
  6
CONTINUOUS
 10
54.262489
 20
133.526245
 11
54.262489
 21
105.526253
  0
LINE
  8
0
  6
CONTINUOUS
 10
52.262489
 20
115.526253
 11
104.262489
 21
115.526253
  0
LINE
  8
0
  6
CONTINUOUS
 10
102.262489
 20
103.526253
 11
104.262489
 21
105.526253
  0
LINE
  8
0
  6
CONTINUOUS
 10
54.262489
 20
105.526253
 11
56.262489
 21
103.526253
  0
LINE
  8
0
  6
CONTINUOUS
 10
54.262489
 20
105.526253
 11
104.262489
 21
105.526253
  0
LINE
  8
0
  6
CONTINUOUS
 10
55.262489
 20
134.526245
 11
103.262482
 21
134.526245
  0
LINE
  8
0
  6
CONTINUOUS
 10
103.262482
 20
134.526245
 11
104.262482
 21
133.526245
  0
LINE
  8
0
  6
CONTINUOUS
 10
55.262489
 20
134.526245
 11
54.262489
 21
133.526245
  0
LINE
  8
0
  6
CONTINUOUS
 10
54.262489
 20
133.526245
 11
104.262482
 21
133.526245
  0
LINE
  8
0
  6
CENTER
 10
46.318741
 20
125.026253
 11
58.393742
 21
125.026253
  0
LINE
  8
0
  6
CONTINUOUS
 10
52.262497
 20
131.526245
 11
52.262489
 21
115.526253
  0
LINE
  8
0
  6
CONTINUOUS
 10
53.262489
 20
132.526245
 11
54.262489
 21
132.526245
  0
ARC
  8
0
  6
CONTINUOUS
 10
53.262501
 20
131.526245
 40
1.000000
 50
90.000000
 51
180.000000
  0
LINE
  8
0
  6
CONTINUOUS
 10
48.762497
 20
129.026245
 11
48.762497
 21
121.026253
  0
LINE
  8
0
  6
CONTINUOUS
 10
48.762497
 20
129.026245
 11
52.262497
 21
130.526245
  0
LINE
  8
0
  6
CONTINUOUS
 10
48.762489
 20
121.026253
 11
52.262489
 21
119.526253
  0
LINE
  8
0
  6
CENTER
 10
79.262489
 20
98.832497
 11
79.262489
 21
139.913757
  0
LINE
  8
0
  6
CONTINUOUS
 10
55.762489
 20
103.526253
 11
55.762489
 21
102.026253
  0
LINE
  8
0
  6
CONTINUOUS
 10
101.762489
 20
103.526253
 11
101.762489
 21
102.026253
  0
LINE
  8
0
  6
CONTINUOUS
 10
411.262482
 20
133.526245
 11
411.262512
 21
120.289879
  0
LINE
  8
0
  6
CONTINUOUS
 10
361.262512
 20
133.526245
 11
361.262512
 21
120.289772
  0
LINE
  8
0
  6
CONTINUOUS
 10
362.262512
 20
134.526245
 11
410.262482
 21
134.526245
  0
LINE
  8
0
  6
CONTINUOUS
 10
410.262482
 20
134.526245
 11
411.262482
 21
133.526245
  0
LINE
  8
0
  6
CONTINUOUS
 10
362.262512
 20
134.526245
 11
361.262512
 21
133.526245
  0
LINE
  8
0
  6
CONTINUOUS
 10
361.262512
 20
133.526245
 11
411.262482
 21
133.526245
  0
TEXT
  8
0
 10
-7.000000
 20
-2.000000
 40
4.000000
 41
1.000000
  1
HLM-18R-10~240-S90WT
 50
0.000000
  0
ENDSEC
  0
EOF
