  0
SECTION
  2
HEADER
  9
$CLAYER
  8
1
  9
$LTSCALE
 40
3.0
  0
ENDSEC
  0
SECTION
  2
TABLES
  0
TABLE
  2
LTYPE
 70
     4
  0
LTYPE
  2
CONTINUOUS
  3
solid line
 70
    64
 72
    65
 73
     0
 40
0.0
  0
LTYPE
  2
DASHED
  3
__ __ __ __ __ __ __ __ __ __ __ __ __ __ __
 70
    64
 72
    65
 73
     2
 40
0.75
 49
0.5
 49
-0.25
  0
LTYPE
  2
CENTER
  3
____ _ ____ _ ____ _ ____ _ ____ _ ____ _ ____
 70
    64
 72
    65
 73
     4
 40
2.0
 49
1.25
 49
-0.25
 49
0.25
 49
-0.25
  0
LTYPE
  2
PHANTOM
  3
_____ _ _ _____ _ _ _____ _ _ _____ _ _ ____
 70
    64
 72
    65
 73
     6
 40
2.5
 49
1.25
 49
-0.25
 49
0.25
 49
-0.25
 49
0.25
 49
-0.25
  0
ENDTAB
  0
TABLE
  2
LAYER
 70
     1
  0
LAYER
  2
0
 70
    64
 62
     7
  6
CONTINUOUS
  0
ENDTAB
  0
TABLE
  2
STYLE
 70
     1
  0
STYLE
  2
STANDARD
 70
     0
 40
0.000000
 41
1.000000
 50
0.000000
 71
     0
 42
3.000000
  3
txt
  4
BIGFONT
  0
ENDTAB
  0
ENDSEC
  0
SECTION
  2
BLOCKS
  0
ENDSEC
  0
SECTION
  2
ENTITIES
  0
LINE
  8
0
  6
CONTINUOUS
 10
3.705000
 20
17.980000
 11
3.705000
 21
87.980003
  0
LINE
  8
0
  6
CONTINUOUS
 10
8.246449
 20
97.980003
 11
24.205000
 21
97.980003
  0
LINE
  8
0
  6
CONTINUOUS
 10
4.205000
 20
94.980003
 11
4.205000
 21
10.980000
  0
LINE
  8
0
  6
CONTINUOUS
 10
24.205000
 20
87.389297
 11
5.955000
 21
87.389297
  0
ARC
  8
0
  6
CONTINUOUS
 10
3.704999
 20
88.480003
 40
0.500000
 50
-90.000000
 51
0.000000
  0
LINE
  8
0
  6
CONTINUOUS
 10
4.782343
 20
95.979988
 11
4.205000
 21
94.980003
  0
ARC
  8
0
  6
CONTINUOUS
 10
8.246463
 20
93.980011
 40
4.000000
 50
90.000000
 51
150.000397
  0
LINE
  8
0
  6
CONTINUOUS
 10
8.246449
 20
7.980000
 11
24.205000
 21
7.980000
  0
LINE
  8
0
  6
CONTINUOUS
 10
24.205000
 20
18.570700
 11
5.955000
 21
18.570700
  0
ARC
  8
0
  6
CONTINUOUS
 10
3.704999
 20
17.480000
 40
0.500000
 50
0.000000
 51
90.000000
  0
LINE
  8
0
  6
CONTINUOUS
 10
4.782343
 20
9.980010
 11
4.205000
 21
10.980000
  0
ARC
  8
0
  6
CONTINUOUS
 10
8.246463
 20
11.979990
 40
4.000000
 50
-150.000397
 51
-90.000000
  0
LINE
  8
0
  6
CONTINUOUS
 10
24.205000
 20
7.980000
 11
24.205000
 21
97.980003
  0
LINE
  8
0
  6
CENTER
 10
-7.155625
 20
52.980000
 11
119.994499
 21
52.980000
  0
LINE
  8
0
  6
CONTINUOUS
 10
197.705002
 20
10.680000
 11
197.705002
 21
3.680000
  0
LINE
  8
0
  6
CONTINUOUS
 10
24.205000
 20
7.980000
 11
96.705002
 21
7.980000
  0
LINE
  8
0
  6
CONTINUOUS
 10
24.205000
 20
97.980003
 11
103.547546
 21
97.980003
  0
LINE
  8
0
  6
CENTER
 10
147.205002
 20
126.667503
 11
147.205002
 21
-3.539100
  0
LINE
  8
0
  6
CENTER
 10
111.692299
 20
78.680000
 11
182.631882
 21
78.680000
  0
LINE
  8
0
  6
CONTINUOUS
 10
96.705002
 20
3.680000
 11
197.705002
 21
3.680000
  0
LINE
  8
0
  6
CONTINUOUS
 10
131.783905
 20
116.680000
 11
162.626099
 21
116.680000
  0
LINE
  8
0
  6
CONTINUOUS
 10
98.705002
 20
12.680000
 11
195.705002
 21
12.680000
  0
LINE
  8
0
  6
CENTER
 10
185.205002
 20
18.167500
 11
185.205002
 21
-3.082500
  0
LINE
  8
0
  6
CENTER
 10
109.205002
 20
18.417500
 11
109.205002
 21
-3.582500
  0
LINE
  8
0
  6
CONTINUOUS
 10
195.576401
 20
94.673180
 11
165.497498
 21
115.773293
  0
LINE
  8
0
  6
CONTINUOUS
 10
98.833588
 20
94.673180
 11
128.912506
 21
115.773277
  0
ARC
  8
0
  6
CONTINUOUS
 10
162.626205
 20
111.679993
 40
5.000000
 50
54.950878
 51
90.000000
  0
ARC
  8
0
  6
CONTINUOUS
 10
131.783905
 20
111.680000
 40
5.000000
 50
90.000000
 51
125.049698
  0
ARC
  8
0
  6
CONTINUOUS
 10
101.705017
 20
90.579933
 40
5.000000
 50
125.049797
 51
180.000000
  0
ARC
  8
0
  6
CONTINUOUS
 10
192.705002
 20
90.579880
 40
5.000000
 50
0.000000
 51
54.950901
  0
LINE
  8
0
  6
CONTINUOUS
 10
197.705002
 20
10.680000
 11
197.705002
 21
90.579903
  0
ARC
  8
0
  6
CONTINUOUS
 10
195.705002
 20
10.679990
 40
2.000000
 50
0.000000
 51
90.000000
  0
LINE
  8
0
  6
CONTINUOUS
 10
96.705002
 20
90.579933
 11
96.705002
 21
90.579903
  0
ARC
  8
0
  6
CONTINUOUS
 10
98.705009
 20
10.680000
 40
2.000000
 50
90.000000
 51
180.000000
  0
LINE
  8
0
  6
DASHED
 10
189.455002
 20
12.680000
 11
189.455002
 21
3.680000
  0
LINE
  8
0
  6
DASHED
 10
180.955002
 20
12.680000
 11
180.955002
 21
3.680000
  0
LINE
  8
0
  6
DASHED
 10
113.455002
 20
12.680000
 11
113.455002
 21
3.680000
  0
LINE
  8
0
  6
DASHED
 10
104.955002
 20
12.680000
 11
104.955002
 21
3.680000
  0
CIRCLE
  8
0
  6
CONTINUOUS
 10
147.205002
 20
78.680000
 40
23.500000
  0
LINE
  8
0
  6
CONTINUOUS
 10
99.205002
 20
79.372192
 11
99.205002
 21
47.987484
  0
LINE
  8
0
  6
CONTINUOUS
 10
195.205002
 20
79.372360
 11
195.205002
 21
47.987648
  0
ARC
  8
0
  6
CONTINUOUS
 10
147.205002
 20
63.680000
 40
50.500000
 50
198.103806
 51
341.896210
  0
LINE
  8
0
  6
CONTINUOUS
 10
96.705017
 20
90.579910
 11
96.704948
 21
3.680000
  0
ARC
  8
0
  6
CONTINUOUS
 10
147.205002
 20
63.680000
 40
50.500000
 50
18.103790
 51
161.896194
  0
LINE
  8
0
  6
CONTINUOUS
 10
24.205000
 20
87.389297
 11
95.087914
 21
87.389297
  0
LINE
  8
0
  6
CONTINUOUS
 10
24.205000
 20
18.570700
 11
95.087914
 21
18.570700
  0
LINE
  8
0
  6
CONTINUOUS
 10
140.830002
 20
41.233219
 11
140.830002
 21
35.680000
  0
LINE
  8
0
  6
CONTINUOUS
 10
144.017502
 20
43.250313
 11
144.017502
 21
45.242500
  0
LINE
  8
0
  6
CONTINUOUS
 10
150.392502
 20
43.250313
 11
150.392502
 21
45.242500
  0
LINE
  8
0
  6
CONTINUOUS
 10
146.582397
 20
44.072090
 11
146.582397
 21
36.725899
  0
LINE
  8
0
  6
CONTINUOUS
 10
147.777802
 20
44.072090
 11
147.777802
 21
36.725899
  0
LINE
  8
0
  6
CONTINUOUS
 10
154.053101
 20
44.072090
 11
154.053101
 21
36.676090
  0
LINE
  8
0
  6
CONTINUOUS
 10
155.148804
 20
40.149971
 11
155.148804
 21
36.676090
  0
LINE
  8
0
  6
CONTINUOUS
 10
139.317505
 20
43.972481
 11
136.245605
 21
43.972481
  0
LINE
  8
0
  6
CONTINUOUS
 10
136.245605
 20
43.972481
 11
135.525803
 21
43.079987
  0
LINE
  8
0
  6
CONTINUOUS
 10
135.612396
 20
45.242500
 11
134.455002
 21
43.760506
  0
LINE
  8
0
  6
CONTINUOUS
 10
135.525803
 20
37.570919
 11
136.257095
 21
36.800610
  0
LINE
  8
0
  6
CONTINUOUS
 10
134.455002
 20
36.920860
 11
135.684799
 21
35.680000
  0
LINE
  8
0
  6
CONTINUOUS
 10
134.455002
 20
43.760506
 11
134.455002
 21
36.920860
  0
LINE
  8
0
  6
CONTINUOUS
 10
135.525803
 20
43.079987
 11
135.525803
 21
37.570919
  0
LINE
  8
0
  6
CONTINUOUS
 10
139.908600
 20
43.401039
 11
139.305405
 21
43.972481
  0
LINE
  8
0
  6
CONTINUOUS
 10
139.899002
 20
45.242500
 11
140.830002
 21
44.209358
  0
LINE
  8
0
  6
CONTINUOUS
 10
139.908600
 20
43.250313
 11
140.830002
 21
43.250313
  0
LINE
  8
0
  6
CONTINUOUS
 10
135.612396
 20
45.242500
 11
139.899002
 21
45.242500
  0
LINE
  8
0
  6
CONTINUOUS
 10
139.908600
 20
40.187321
 11
138.240204
 21
40.187321
  0
LINE
  8
0
  6
CONTINUOUS
 10
139.908600
 20
39.191231
 11
139.908600
 21
39.988110
  0
LINE
  8
0
  6
CONTINUOUS
 10
137.916397
 20
36.800610
 11
136.257095
 21
36.800610
  0
ARC
  8
0
  6
CONTINUOUS
 10
137.916397
 20
38.792789
 40
1.992187
 50
-89.999786
 51
0.000109
  0
LINE
  8
0
  6
CONTINUOUS
 10
139.908600
 20
36.442268
 11
139.908600
 21
35.680000
  0
LINE
  8
0
  6
CONTINUOUS
 10
140.830002
 20
44.209358
 11
140.830002
 21
43.250313
  0
LINE
  8
0
  6
CONTINUOUS
 10
139.908600
 20
40.187321
 11
139.908600
 21
38.792789
  0
LINE
  8
0
  6
CONTINUOUS
 10
138.240204
 20
41.233219
 11
138.240204
 21
40.187321
  0
LINE
  8
0
  6
CONTINUOUS
 10
139.908600
 20
35.680000
 11
140.830002
 21
35.680000
  0
LINE
  8
0
  6
CONTINUOUS
 10
139.908600
 20
36.442268
 11
139.000107
 21
35.680000
  0
LINE
  8
0
  6
CONTINUOUS
 10
147.777802
 20
36.725899
 11
148.176193
 21
36.725899
  0
LINE
  8
0
  6
CONTINUOUS
 10
146.109299
 20
36.725899
 11
146.109299
 21
35.680000
  0
LINE
  8
0
  6
CONTINUOUS
 10
148.176193
 20
36.725899
 11
148.176193
 21
35.680000
  0
LINE
  8
0
  6
CONTINUOUS
 10
149.727493
 20
43.250313
 11
150.392502
 21
43.250313
  0
LINE
  8
0
  6
CONTINUOUS
 10
144.017502
 20
43.250313
 11
144.725098
 21
43.250313
  0
LINE
  8
0
  6
CONTINUOUS
 10
144.017502
 20
45.242500
 11
150.392502
 21
45.242500
  0
LINE
  8
0
  6
CONTINUOUS
 10
146.109299
 20
35.680000
 11
148.176193
 21
35.680000
  0
LINE
  8
0
  6
CONTINUOUS
 10
146.109299
 20
36.725899
 11
146.582397
 21
36.725899
  0
ARC
  8
0
  6
CONTINUOUS
 10
157.402496
 20
42.690010
 40
2.552490
 50
-73.981873
 51
90.003510
  0
ARC
  8
0
  6
CONTINUOUS
 10
157.402496
 20
42.690010
 40
1.557193
 50
-82.585274
 51
62.411850
  0
LINE
  8
0
  6
CONTINUOUS
 10
153.580002
 20
45.242500
 11
157.402496
 21
45.242500
  0
LINE
  8
0
  6
CONTINUOUS
 10
153.580002
 20
45.242500
 11
153.580002
 21
44.072090
  0
LINE
  8
0
  6
CONTINUOUS
 10
155.148804
 20
44.072090
 11
155.148804
 21
41.145840
  0
LINE
  8
0
  6
CONTINUOUS
 10
158.106796
 20
40.236622
 11
159.686707
 21
36.676090
  0
LINE
  8
0
  6
CONTINUOUS
 10
157.189301
 20
40.149971
 11
158.684402
 21
36.676090
  0
LINE
  8
0
  6
CONTINUOUS
 10
153.580002
 20
36.676090
 11
154.053101
 21
36.676090
  0
LINE
  8
0
  6
CONTINUOUS
 10
155.148804
 20
36.676090
 11
155.584595
 21
36.676090
  0
LINE
  8
0
  6
CONTINUOUS
 10
155.584595
 20
35.680000
 11
153.580002
 21
35.680000
  0
LINE
  8
0
  6
CONTINUOUS
 10
158.485794
 20
36.676090
 11
158.684402
 21
36.676090
  0
LINE
  8
0
  6
CONTINUOUS
 10
159.686707
 20
36.676090
 11
159.955002
 21
36.676090
  0
LINE
  8
0
  6
CONTINUOUS
 10
158.485794
 20
35.680000
 11
159.955002
 21
35.680000
  0
LINE
  8
0
  6
CONTINUOUS
 10
159.955002
 20
36.676090
 11
159.955002
 21
35.680000
  0
LINE
  8
0
  6
CONTINUOUS
 10
158.485794
 20
36.676090
 11
158.485794
 21
35.680000
  0
LINE
  8
0
  6
CONTINUOUS
 10
155.584595
 20
36.676090
 11
155.584595
 21
35.680000
  0
LINE
  8
0
  6
CONTINUOUS
 10
153.580002
 20
36.676090
 11
153.580002
 21
35.680000
  0
LINE
  8
0
  6
CONTINUOUS
 10
145.067505
 20
44.072090
 11
144.725098
 21
43.250313
  0
LINE
  8
0
  6
CONTINUOUS
 10
149.438797
 20
44.072090
 11
149.727493
 21
43.250313
  0
LINE
  8
0
  6
CONTINUOUS
 10
147.777802
 20
44.072090
 11
149.438797
 21
44.072090
  0
LINE
  8
0
  6
CONTINUOUS
 10
146.582397
 20
44.072090
 11
145.067505
 21
44.072090
  0
LINE
  8
0
  6
CONTINUOUS
 10
153.580002
 20
44.072090
 11
154.053101
 21
44.072090
  0
LINE
  8
0
  6
CONTINUOUS
 10
155.148804
 20
44.072090
 11
158.123703
 21
44.070152
  0
LINE
  8
0
  6
CONTINUOUS
 10
139.908600
 20
43.401039
 11
139.908600
 21
43.250313
  0
LINE
  8
0
  6
CONTINUOUS
 10
135.684799
 20
35.680000
 11
139.000107
 21
35.680000
  0
LINE
  8
0
  6
CONTINUOUS
 10
155.148804
 20
41.145840
 11
157.603500
 21
41.145840
  0
LINE
  8
0
  6
CONTINUOUS
 10
155.148804
 20
40.149971
 11
157.189301
 21
40.149971
  0
LINE
  8
0
  6
CONTINUOUS
 10
138.240204
 20
41.233219
 11
140.830002
 21
41.233219
  0
LINE
  8
0
  6
CENTER
 10
353.704987
 20
-6.613750
 11
353.704987
 21
153.214539
  0
LINE
  8
0
  6
CENTER
 10
300.015594
 20
52.980000
 11
406.208191
 21
52.980000
  0
LINE
  8
0
  6
CONTINUOUS
 10
411.704987
 20
10.680000
 11
411.704987
 21
3.680000
  0
LINE
  8
0
  6
CONTINUOUS
 10
295.704987
 20
10.680000
 11
295.704987
 21
3.680000
  0
LINE
  8
0
  6
CONTINUOUS
 10
295.704987
 20
3.680000
 11
411.704987
 21
3.680000
  0
LINE
  8
0
  6
CONTINUOUS
 10
393.704987
 20
12.680000
 11
409.704987
 21
12.680000
  0
LINE
  8
0
  6
CONTINUOUS
 10
316.704987
 20
15.680000
 11
316.704987
 21
114.068626
  0
LINE
  8
0
  6
CONTINUOUS
 10
390.704987
 20
15.680000
 11
390.704987
 21
114.068764
  0
LINE
  8
0
  6
CONTINUOUS
 10
395.704987
 20
56.179996
 11
395.704987
 21
101.180000
  0
LINE
  8
0
  6
CONTINUOUS
 10
394.704987
 20
102.180000
 11
392.704987
 21
102.180000
  0
LINE
  8
0
  6
CONTINUOUS
 10
394.704987
 20
55.179996
 11
392.704987
 21
55.179996
  0
LINE
  8
0
  6
CONTINUOUS
 10
353.704987
 20
116.680000
 11
388.739899
 21
116.068466
  0
LINE
  8
0
  6
CONTINUOUS
 10
318.670105
 20
116.068329
 11
353.704987
 21
116.680000
  0
ARC
  8
0
  6
CONTINUOUS
 10
392.704987
 20
104.180000
 40
2.000000
 50
180.000000
 51
270.000000
  0
ARC
  8
0
  6
CONTINUOUS
 10
388.704987
 20
114.068764
 40
2.000000
 50
0.000000
 51
89.000137
  0
ARC
  8
0
  6
CONTINUOUS
 10
318.704987
 20
114.068642
 40
2.000000
 50
91.000641
 51
180.000000
  0
ARC
  8
0
  6
CONTINUOUS
 10
392.704987
 20
53.180008
 40
2.000000
 50
90.000000
 51
180.000000
  0
ARC
  8
0
  6
CONTINUOUS
 10
394.704987
 20
101.179993
 40
1.000000
 50
0.000000
 51
90.000000
  0
ARC
  8
0
  6
CONTINUOUS
 10
394.704987
 20
56.179996
 40
1.000000
 50
-90.000000
 51
0.000000
  0
LINE
  8
0
  6
CONTINUOUS
 10
317.954987
 20
93.180000
 11
389.704987
 21
93.180000
  0
ARC
  8
0
  6
CONTINUOUS
 10
409.704987
 20
10.679990
 40
2.000000
 50
0.000000
 51
90.000000
  0
ARC
  8
0
  6
CONTINUOUS
 10
297.704987
 20
10.680010
 40
2.000000
 50
90.000000
 51
180.000000
  0
LINE
  8
0
  6
CENTER
 10
401.704987
 20
16.636250
 11
401.704987
 21
-0.613750
  0
LINE
  8
0
  6
CENTER
 10
305.704987
 20
16.636250
 11
305.704987
 21
-1.363750
  0
LINE
  8
0
  6
DASHED
 10
309.954987
 20
12.680000
 11
309.954987
 21
3.680000
  0
LINE
  8
0
  6
DASHED
 10
301.454987
 20
12.680000
 11
301.454987
 21
3.680000
  0
LINE
  8
0
  6
DASHED
 10
405.954987
 20
12.680000
 11
405.954987
 21
3.680000
  0
LINE
  8
0
  6
DASHED
 10
397.454987
 20
12.680000
 11
397.454987
 21
3.680000
  0
ARC
  8
0
  6
CONTINUOUS
 10
353.704987
 20
52.980000
 40
45.000000
 50
159.637695
 51
214.692093
  0
ARC
  8
0
  6
CONTINUOUS
 10
353.704987
 20
52.980000
 40
45.000000
 50
-34.692108
 51
20.437799
  0
LINE
  8
0
  6
CONTINUOUS
 10
311.704987
 20
56.179996
 11
311.704987
 21
101.180000
  0
LINE
  8
0
  6
CONTINUOUS
 10
312.704987
 20
102.180000
 11
314.704987
 21
102.180000
  0
LINE
  8
0
  6
CONTINUOUS
 10
312.704987
 20
55.179996
 11
314.704987
 21
55.179996
  0
ARC
  8
0
  6
CONTINUOUS
 10
314.704987
 20
104.180000
 40
2.000000
 50
-90.000000
 51
0.000000
  0
ARC
  8
0
  6
CONTINUOUS
 10
314.704987
 20
53.180008
 40
2.000000
 50
0.000000
 51
90.000000
  0
ARC
  8
0
  6
CONTINUOUS
 10
312.704987
 20
101.179993
 40
1.000000
 50
90.000000
 51
180.000000
  0
ARC
  8
0
  6
CONTINUOUS
 10
312.704987
 20
56.179996
 40
1.000000
 50
180.000000
 51
270.000000
  0
LINE
  8
0
  6
CENTER
 10
400.704895
 20
78.680000
 11
271.454987
 21
78.680000
  0
LINE
  8
0
  6
CONTINUOUS
 10
313.704987
 20
12.680000
 11
297.704987
 21
12.680000
  0
ARC
  8
0
  6
CONTINUOUS
 10
313.704987
 20
15.680000
 40
3.000000
 50
-90.000000
 51
0.000000
  0
ARC
  8
0
  6
CONTINUOUS
 10
393.704987
 20
15.680000
 40
3.000000
 50
180.000000
 51
270.000000
  0
LINE
  8
0
  6
CONTINUOUS
 10
152.705002
 20
75.680023
 11
152.705002
 21
81.680023
  0
LINE
  8
0
  6
CONTINUOUS
 10
158.705002
 20
75.680038
 11
158.705002
 21
81.680038
  0
LINE
  8
0
  6
CONTINUOUS
 10
158.705002
 20
75.680038
 11
152.705002
 21
75.680023
  0
LINE
  8
0
  6
CONTINUOUS
 10
158.705002
 20
81.680038
 11
152.705002
 21
81.680023
  0
ARC
  8
0
  6
CONTINUOUS
 10
147.205002
 20
78.680000
 40
9.000000
 50
19.471210
 51
340.528809
  0
LINE
  8
0
  6
CONTINUOUS
 10
279.704987
 20
69.680000
 11
279.704987
 21
87.680000
  0
LINE
  8
0
  6
CONTINUOUS
 10
309.704987
 20
87.680000
 11
279.704987
 21
87.680000
  0
LINE
  8
0
  6
CONTINUOUS
 10
309.704987
 20
69.680000
 11
279.704987
 21
69.680000
  0
LINE
  8
0
  6
CONTINUOUS
 10
309.704987
 20
88.680000
 11
309.704987
 21
68.680000
  0
LINE
  8
0
  6
CONTINUOUS
 10
311.704987
 20
88.680000
 11
309.704987
 21
88.680000
  0
LINE
  8
0
  6
CONTINUOUS
 10
311.704987
 20
68.680000
 11
309.704987
 21
68.680000
  0
ARC
  8
0
  6
CONTINUOUS
 10
303.704987
 20
78.680000
 40
3.000000
 50
-90.000000
 51
90.000000
  0
LINE
  8
0
  6
CONTINUOUS
 10
303.704987
 20
81.680000
 11
279.704987
 21
81.680000
  0
LINE
  8
0
  6
CONTINUOUS
 10
303.704987
 20
75.680000
 11
279.704987
 21
75.680000
  0
LINE
  8
0
  6
CENTER
 10
147.205002
 20
337.130615
 11
147.205002
 21
189.663132
  0
LINE
  8
0
  6
CENTER
 10
185.205002
 20
326.465637
 11
185.205002
 21
307.703125
  0
LINE
  8
0
  6
CENTER
 10
-9.781250
 20
269.956238
 11
211.346252
 21
269.956238
  0
LINE
  8
0
  6
CONTINUOUS
 10
196.864105
 20
318.130768
 11
197.705002
 21
269.956238
  0
LINE
  8
0
  6
CONTINUOUS
 10
186.865631
 20
327.956238
 11
147.205002
 21
327.956238
  0
LINE
  8
0
  6
CONTINUOUS
 10
98.705002
 20
306.956238
 11
195.093765
 21
306.956238
  0
ARC
  8
0
  6
CONTINUOUS
 10
186.865631
 20
317.956238
 40
10.000000
 50
1.000000
 51
90.000000
  0
ARC
  8
0
  6
CONTINUOUS
 10
195.093765
 20
304.956238
 40
2.000000
 50
1.000000
 51
90.000000
  0
LINE
  8
0
  6
CENTER
 10
175.609695
 20
317.956238
 11
195.952194
 21
317.956238
  0
CIRCLE
  8
0
  6
CONTINUOUS
 10
185.205002
 20
317.956238
 40
4.250000
  0
LINE
  8
0
  6
CONTINUOUS
 10
3.705000
 20
234.956253
 11
3.705000
 21
304.956238
  0
LINE
  8
0
  6
CONTINUOUS
 10
8.246449
 20
314.956238
 11
24.205000
 21
314.956238
  0
LINE
  8
0
  6
CONTINUOUS
 10
4.205000
 20
311.956238
 11
4.205000
 21
227.956253
  0
LINE
  8
0
  6
CONTINUOUS
 10
24.205000
 20
298.956238
 11
5.955000
 21
298.956238
  0
ARC
  8
0
  6
CONTINUOUS
 10
3.704999
 20
305.456238
 40
0.500000
 50
-90.000000
 51
0.000000
  0
LINE
  8
0
  6
CONTINUOUS
 10
4.782343
 20
312.956238
 11
4.205000
 21
311.956238
  0
ARC
  8
0
  6
CONTINUOUS
 10
8.246463
 20
310.956268
 40
4.000000
 50
90.000000
 51
150.000397
  0
LINE
  8
0
  6
CONTINUOUS
 10
8.246449
 20
224.956253
 11
24.205000
 21
224.956253
  0
ARC
  8
0
  6
CONTINUOUS
 10
3.704999
 20
234.456253
 40
0.500000
 50
0.000000
 51
90.000000
  0
LINE
  8
0
  6
CONTINUOUS
 10
4.782343
 20
226.956253
 11
4.205000
 21
227.956253
  0
ARC
  8
0
  6
CONTINUOUS
 10
8.246463
 20
228.956238
 40
4.000000
 50
-150.000397
 51
-90.000000
  0
LINE
  8
0
  6
CONTINUOUS
 10
24.205000
 20
224.956253
 11
24.205000
 21
244.956223
  0
LINE
  8
0
  6
CENTER
 10
109.205002
 20
326.663116
 11
109.205002
 21
307.703125
  0
LINE
  8
0
  6
CONTINUOUS
 10
97.545891
 20
318.130768
 11
97.359909
 21
307.476135
  0
ARC
  8
0
  6
CONTINUOUS
 10
107.544365
 20
317.956238
 40
10.000000
 50
90.000000
 51
179.000000
  0
ARC
  8
0
  6
CONTINUOUS
 10
99.316231
 20
304.956238
 40
2.000000
 50
90.000000
 51
179.000000
  0
LINE
  8
0
  6
CENTER
 10
118.532188
 20
317.956238
 11
98.979691
 21
317.956238
  0
CIRCLE
  8
0
  6
CONTINUOUS
 10
109.205002
 20
317.956238
 40
4.250000
  0
LINE
  8
0
  6
CONTINUOUS
 10
96.705002
 20
308.956238
 11
96.705002
 21
312.956238
  0
LINE
  8
0
  6
CONTINUOUS
 10
94.705002
 20
314.956238
 11
24.205000
 21
314.956238
  0
ARC
  8
0
  6
CONTINUOUS
 10
94.705002
 20
312.956238
 40
2.000000
 50
0.000000
 51
90.000000
  0
ARC
  8
0
  6
CONTINUOUS
 10
98.705002
 20
308.956238
 40
2.000000
 50
180.000000
 51
270.000000
  0
LINE
  8
0
  6
CONTINUOUS
 10
97.316536
 20
304.991150
 11
97.211197
 21
298.956238
  0
LINE
  8
0
  6
CONTINUOUS
 10
24.205000
 20
298.956238
 11
103.547546
 21
298.956238
  0
LINE
  8
0
  6
CONTINUOUS
 10
24.205000
 20
240.956253
 11
5.955000
 21
240.956253
  0
LINE
  8
0
  6
CONTINUOUS
 10
24.205000
 20
240.956253
 11
103.547546
 21
240.956253
  0
LINE
  8
0
  6
CONTINUOUS
 10
94.705002
 20
224.956253
 11
24.205000
 21
224.956253
  0
ARC
  8
0
  6
CONTINUOUS
 10
94.705002
 20
226.956253
 40
2.000000
 50
-90.000000
 51
0.000000
  0
LINE
  8
0
  6
CENTER
 10
185.205002
 20
213.100632
 11
185.205002
 21
232.159378
  0
LINE
  8
0
  6
CONTINUOUS
 10
196.864105
 20
221.781723
 11
197.705002
 21
269.956238
  0
LINE
  8
0
  6
CONTINUOUS
 10
186.865631
 20
211.956253
 11
158.705002
 21
211.956253
  0
LINE
  8
0
  6
CONTINUOUS
 10
98.705002
 20
232.956253
 11
195.093765
 21
232.956253
  0
ARC
  8
0
  6
CONTINUOUS
 10
186.865631
 20
221.956253
 40
10.000000
 50
-90.000000
 51
-1.000000
  0
ARC
  8
0
  6
CONTINUOUS
 10
195.093765
 20
234.956253
 40
2.000000
 50
-90.000000
 51
-1.000000
  0
LINE
  8
0
  6
CENTER
 10
176.103439
 20
221.956253
 11
196.149689
 21
221.956253
  0
CIRCLE
  8
0
  6
CONTINUOUS
 10
185.205002
 20
221.956253
 40
4.250000
  0
LINE
  8
0
  6
CENTER
 10
109.205002
 20
212.606873
 11
109.205002
 21
231.961868
  0
LINE
  8
0
  6
CONTINUOUS
 10
97.545891
 20
221.781723
 11
97.359909
 21
232.436371
  0
ARC
  8
0
  6
CONTINUOUS
 10
107.544365
 20
221.956253
 40
10.000000
 50
-179.000000
 51
-90.000000
  0
ARC
  8
0
  6
CONTINUOUS
 10
99.316231
 20
234.956253
 40
2.000000
 50
-179.000000
 51
-90.000000
  0
LINE
  8
0
  6
CENTER
 10
119.025940
 20
221.956253
 11
98.782188
 21
221.956253
  0
CIRCLE
  8
0
  6
CONTINUOUS
 10
109.205002
 20
221.956253
 40
4.250000
  0
LINE
  8
0
  6
CONTINUOUS
 10
96.705002
 20
230.956253
 11
96.705002
 21
226.956253
  0
ARC
  8
0
  6
CONTINUOUS
 10
98.705002
 20
230.956253
 40
2.000000
 50
-270.000000
 51
-180.000000
  0
LINE
  8
0
  6
CONTINUOUS
 10
97.316536
 20
234.921341
 11
97.211197
 21
240.956253
  0
LINE
  8
0
  6
CONTINUOUS
 10
130.205002
 20
301.956238
 11
130.205002
 21
237.956253
  0
LINE
  8
0
  6
CONTINUOUS
 10
164.205002
 20
301.956238
 11
164.205002
 21
237.956253
  0
LINE
  8
0
  6
CONTINUOUS
 10
103.547546
 20
296.956238
 11
103.547546
 21
242.956253
  0
LINE
  8
0
  6
CONTINUOUS
 10
169.705002
 20
311.956238
 11
124.705002
 21
311.956238
  0
LINE
  8
0
  6
CONTINUOUS
 10
123.705002
 20
310.956238
 11
123.705002
 21
308.956238
  0
LINE
  8
0
  6
CONTINUOUS
 10
170.705002
 20
310.956238
 11
170.705002
 21
308.956238
  0
ARC
  8
0
  6
CONTINUOUS
 10
121.705002
 20
308.956238
 40
2.000000
 50
-90.000000
 51
0.000000
  0
ARC
  8
0
  6
CONTINUOUS
 10
172.704987
 20
308.956238
 40
2.000000
 50
180.000000
 51
270.000000
  0
ARC
  8
0
  6
CONTINUOUS
 10
124.705009
 20
310.956238
 40
1.000000
 50
90.000000
 51
180.000000
  0
ARC
  8
0
  6
CONTINUOUS
 10
169.705002
 20
310.956238
 40
1.000000
 50
0.000000
 51
90.000000
  0
LINE
  8
0
  6
CONTINUOUS
 10
147.205002
 20
327.956238
 11
107.544365
 21
327.956238
  0
LINE
  8
0
  6
CONTINUOUS
 10
169.705002
 20
227.956253
 11
124.705002
 21
227.956253
  0
LINE
  8
0
  6
CONTINUOUS
 10
123.705002
 20
228.956253
 11
123.705002
 21
230.956253
  0
LINE
  8
0
  6
CONTINUOUS
 10
170.705002
 20
228.956253
 11
170.705002
 21
230.956253
  0
ARC
  8
0
  6
CONTINUOUS
 10
121.705002
 20
230.956253
 40
2.000000
 50
0.000000
 51
90.000000
  0
ARC
  8
0
  6
CONTINUOUS
 10
172.704987
 20
230.956253
 40
2.000000
 50
-270.000000
 51
-180.000000
  0
ARC
  8
0
  6
CONTINUOUS
 10
124.705009
 20
228.956253
 40
1.000000
 50
-180.000000
 51
-90.000000
  0
ARC
  8
0
  6
CONTINUOUS
 10
169.705002
 20
228.956253
 40
1.000000
 50
-90.000000
 51
0.000000
  0
LINE
  8
0
  6
CONTINUOUS
 10
158.705002
 20
195.956253
 11
138.205002
 21
195.956253
  0
LINE
  8
0
  6
CONTINUOUS
 10
138.205002
 20
225.956253
 11
138.205002
 21
195.956253
  0
LINE
  8
0
  6
CONTINUOUS
 10
156.205002
 20
225.956253
 11
156.205002
 21
222.956253
  0
LINE
  8
0
  6
CONTINUOUS
 10
137.205002
 20
225.956253
 11
157.205002
 21
225.956253
  0
LINE
  8
0
  6
CONTINUOUS
 10
137.205002
 20
227.956253
 11
137.205002
 21
225.956253
  0
LINE
  8
0
  6
CONTINUOUS
 10
157.205002
 20
227.956253
 11
157.205002
 21
225.956253
  0
LINE
  8
0
  6
CONTINUOUS
 10
158.705002
 20
195.956253
 11
158.705002
 21
222.956253
  0
LINE
  8
0
  6
CONTINUOUS
 10
158.705002
 20
222.956253
 11
155.690002
 21
222.956253
  0
LINE
  8
0
  6
CONTINUOUS
 10
155.690002
 20
195.956253
 11
155.690002
 21
222.956253
  0
LINE
  8
0
  6
CONTINUOUS
 10
138.205002
 20
211.956253
 11
107.544365
 21
211.956253
  0
LINE
  8
0
  6
CONTINUOUS
 10
24.205000
 20
294.956238
 11
24.205000
 21
314.956238
  0
LINE
  8
0
  6
CONTINUOUS
 10
15.205000
 20
246.956223
 11
15.205000
 21
292.956238
  0
LINE
  8
0
  6
CONTINUOUS
 10
17.205000
 20
294.956238
 11
15.205000
 21
292.956238
  0
LINE
  8
0
  6
CONTINUOUS
 10
17.205000
 20
294.956238
 11
63.204990
 21
294.956238
  0
LINE
  8
0
  6
CONTINUOUS
 10
57.705002
 20
290.456238
 11
57.705002
 21
294.956238
  0
ARC
  8
0
  6
CONTINUOUS
 10
60.705002
 20
290.456238
 40
3.000000
 50
180.000000
 51
270.000000
  0
LINE
  8
0
  6
CONTINUOUS
 10
60.705002
 20
287.456238
 11
65.204987
 21
287.456238
  0
CIRCLE
  8
0
  6
CONTINUOUS
 10
61.705002
 20
291.456238
 40
2.250000
  0
LINE
  8
0
  6
CONTINUOUS
 10
65.204994
 20
246.956223
 11
65.204987
 21
292.956238
  0
LINE
  8
0
  6
CONTINUOUS
 10
63.204990
 20
294.956238
 11
65.204987
 21
292.956238
  0
LINE
  8
0
  6
CONTINUOUS
 10
63.204994
 20
244.956223
 11
65.204994
 21
246.956223
  0
LINE
  8
0
  6
CONTINUOUS
 10
63.204994
 20
244.956223
 11
17.205000
 21
244.956223
  0
LINE
  8
0
  6
CONTINUOUS
 10
15.205000
 20
246.956223
 11
17.205000
 21
244.956223
  0
LINE
  8
0
  6
CONTINUOUS
 10
19.705000
 20
252.456223
 11
15.205010
 21
252.456223
  0
CIRCLE
  8
0
  6
CONTINUOUS
 10
18.705000
 20
248.456223
 40
2.250000
  0
ARC
  8
0
  6
CONTINUOUS
 10
19.705000
 20
249.456223
 40
3.000000
 50
0.000000
 51
90.000000
  0
LINE
  8
0
  6
CONTINUOUS
 10
22.705000
 20
249.456223
 11
22.705000
 21
244.956223
  0
LINE
  8
0
  6
CENTER
 10
40.205002
 20
237.490448
 11
40.205002
 21
301.622467
  0
LINE
  8
0
  6
CONTINUOUS
 10
16.205006
 20
252.456253
 11
16.205006
 21
287.456238
  0
LINE
  8
0
  6
CONTINUOUS
 10
57.705002
 20
293.956238
 11
22.705021
 21
293.956238
  0
LINE
  8
0
  6
CONTINUOUS
 10
64.204994
 20
287.456238
 11
64.204994
 21
252.456253
  0
LINE
  8
0
  6
CONTINUOUS
 10
22.705000
 20
245.956253
 11
57.704979
 21
245.956253
  0
LINE
  8
0
  6
CONTINUOUS
 10
19.705021
 20
287.456238
 11
15.205020
 21
287.456238
  0
ARC
  8
0
  6
CONTINUOUS
 10
19.705021
 20
290.456238
 40
3.000000
 50
-90.000000
 51
0.000000
  0
LINE
  8
0
  6
CONTINUOUS
 10
22.705021
 20
290.456238
 11
22.705021
 21
294.956238
  0
CIRCLE
  8
0
  6
CONTINUOUS
 10
18.705021
 20
291.456238
 40
2.250000
  0
LINE
  8
0
  6
CONTINUOUS
 10
60.704979
 20
252.456253
 11
65.204979
 21
252.456253
  0
ARC
  8
0
  6
CONTINUOUS
 10
60.704979
 20
249.456253
 40
3.000000
 50
90.000000
 51
180.000000
  0
LINE
  8
0
  6
CONTINUOUS
 10
57.704979
 20
249.456253
 11
57.704979
 21
244.956253
  0
CIRCLE
  8
0
  6
CONTINUOUS
 10
61.704979
 20
248.456253
 40
2.250000
  0
LINE
  8
0
  6
CONTINUOUS
 10
16.705000
 20
99.480003
 11
63.205002
 21
99.480003
  0
LINE
  8
0
  6
CONTINUOUS
 10
65.204979
 20
143.479996
 11
65.205002
 21
101.480003
  0
LINE
  8
0
  6
CONTINUOUS
 10
15.205000
 20
143.479996
 11
15.205000
 21
101.480003
  0
LINE
  8
0
  6
CONTINUOUS
 10
15.205000
 20
111.480003
 11
65.205002
 21
111.480003
  0
LINE
  8
0
  6
CONTINUOUS
 10
63.205002
 20
99.480003
 11
65.205002
 21
101.480003
  0
LINE
  8
0
  6
CONTINUOUS
 10
15.205000
 20
101.480003
 11
17.205000
 21
99.480003
  0
LINE
  8
0
  6
CONTINUOUS
 10
15.205000
 20
101.480003
 11
65.205002
 21
101.480003
  0
LINE
  8
0
  6
CONTINUOUS
 10
15.205000
 20
112.480003
 11
65.204987
 21
112.480003
  0
LINE
  8
0
  6
CONTINUOUS
 10
16.205000
 20
144.479996
 11
64.204979
 21
144.479996
  0
LINE
  8
0
  6
CONTINUOUS
 10
64.204979
 20
144.479996
 11
65.204979
 21
143.479996
  0
LINE
  8
0
  6
CONTINUOUS
 10
16.205000
 20
144.479996
 11
15.205000
 21
143.479996
  0
LINE
  8
0
  6
CONTINUOUS
 10
15.205000
 20
143.479996
 11
65.204979
 21
143.479996
  0
LINE
  8
0
  6
CENTER
 10
40.205002
 20
93.090492
 11
40.205002
 21
149.790497
  0
LINE
  8
0
  6
CENTER
 10
12.830000
 20
127.480003
 11
17.455000
 21
127.480003
  0
LINE
  8
0
  6
CONTINUOUS
 10
16.705000
 20
99.480003
 11
16.705000
 21
97.980003
  0
LINE
  8
0
  6
CONTINUOUS
 10
62.705002
 20
99.480003
 11
62.705002
 21
97.980003
  0
LINE
  8
0
  6
CONTINUOUS
 10
14.330000
 20
137.979996
 11
16.330000
 21
137.979996
  0
LINE
  8
0
  6
CONTINUOUS
 10
14.330000
 20
116.980003
 11
16.330000
 21
116.980003
  0
LINE
  8
0
  6
CONTINUOUS
 10
378.704987
 20
143.479996
 11
378.704987
 21
116.243629
  0
LINE
  8
0
  6
CONTINUOUS
 10
328.704987
 20
143.479996
 11
328.704987
 21
116.243530
  0
LINE
  8
0
  6
CONTINUOUS
 10
329.704987
 20
144.479996
 11
377.704987
 21
144.479996
  0
LINE
  8
0
  6
CONTINUOUS
 10
377.704987
 20
144.479996
 11
378.704987
 21
143.479996
  0
LINE
  8
0
  6
CONTINUOUS
 10
329.704987
 20
144.479996
 11
328.704987
 21
143.479996
  0
LINE
  8
0
  6
CONTINUOUS
 10
328.704987
 20
143.479996
 11
378.704987
 21
143.479996
  0
TEXT
  8
0
 10
-9.000000
 20
-6.000000
 40
4.000000
 41
1.000000
  1
HLM-18R-160~240-T40WK
 50
0.000000
  0
ENDSEC
  0
EOF
