  0
SECTION
  2
HEADER
  9
$CLAYER
  8
1
  9
$LTSCALE
 40
3.0
  0
ENDSEC
  0
SECTION
  2
TABLES
  0
TABLE
  2
LTYPE
 70
     4
  0
LTYPE
  2
CONTINUOUS
  3
solid line
 70
    64
 72
    65
 73
     0
 40
0.0
  0
LTYPE
  2
DASHED
  3
__ __ __ __ __ __ __ __ __ __ __ __ __ __ __
 70
    64
 72
    65
 73
     2
 40
0.75
 49
0.5
 49
-0.25
  0
LTYPE
  2
CENTER
  3
____ _ ____ _ ____ _ ____ _ ____ _ ____ _ ____
 70
    64
 72
    65
 73
     4
 40
2.0
 49
1.25
 49
-0.25
 49
0.25
 49
-0.25
  0
LTYPE
  2
PHANTOM
  3
_____ _ _ _____ _ _ _____ _ _ _____ _ _ ____
 70
    64
 72
    65
 73
     6
 40
2.5
 49
1.25
 49
-0.25
 49
0.25
 49
-0.25
 49
0.25
 49
-0.25
  0
ENDTAB
  0
TABLE
  2
LAYER
 70
     1
  0
LAYER
  2
0
 70
    64
 62
     7
  6
CONTINUOUS
  0
ENDTAB
  0
TABLE
  2
STYLE
 70
     1
  0
STYLE
  2
STANDARD
 70
     0
 40
0.000000
 41
1.000000
 50
0.000000
 71
     0
 42
3.000000
  3
txt
  4
BIGFONT
  0
ENDTAB
  0
ENDSEC
  0
SECTION
  2
BLOCKS
  0
ENDSEC
  0
SECTION
  2
ENTITIES
  0
LINE
  8
0
  6
CONTINUOUS
 10
3.997500
 20
20.277500
 11
3.997500
 21
90.277496
  0
LINE
  8
0
  6
CONTINUOUS
 10
8.538949
 20
100.277496
 11
24.497499
 21
100.277496
  0
LINE
  8
0
  6
CONTINUOUS
 10
4.497500
 20
97.277496
 11
4.497500
 21
13.277500
  0
LINE
  8
0
  6
CONTINUOUS
 10
24.497499
 20
89.686798
 11
6.247500
 21
89.686798
  0
ARC
  8
0
  6
CONTINUOUS
 10
3.997499
 20
90.777496
 40
0.500000
 50
-90.000000
 51
0.000000
  0
LINE
  8
0
  6
CONTINUOUS
 10
5.074843
 20
98.277489
 11
4.497500
 21
97.277496
  0
ARC
  8
0
  6
CONTINUOUS
 10
8.538963
 20
96.277512
 40
4.000000
 50
90.000000
 51
150.000397
  0
LINE
  8
0
  6
CONTINUOUS
 10
8.538949
 20
10.277500
 11
24.497499
 21
10.277500
  0
LINE
  8
0
  6
CONTINUOUS
 10
24.497499
 20
20.868200
 11
6.247500
 21
20.868200
  0
ARC
  8
0
  6
CONTINUOUS
 10
3.997499
 20
19.777500
 40
0.500000
 50
0.000000
 51
90.000000
  0
LINE
  8
0
  6
CONTINUOUS
 10
5.074843
 20
12.277510
 11
4.497500
 21
13.277500
  0
ARC
  8
0
  6
CONTINUOUS
 10
8.538963
 20
14.277490
 40
4.000000
 50
-150.000397
 51
-90.000000
  0
LINE
  8
0
  6
CONTINUOUS
 10
24.497499
 20
10.277500
 11
24.497499
 21
100.277496
  0
LINE
  8
0
  6
CENTER
 10
-7.151250
 20
55.277500
 11
120.287003
 21
55.277500
  0
LINE
  8
0
  6
CONTINUOUS
 10
197.997498
 20
12.977500
 11
197.997498
 21
5.977500
  0
LINE
  8
0
  6
CONTINUOUS
 10
24.497499
 20
10.277500
 11
96.997498
 21
10.277500
  0
LINE
  8
0
  6
CONTINUOUS
 10
24.497499
 20
100.277496
 11
103.840050
 21
100.277496
  0
LINE
  8
0
  6
CENTER
 10
147.497498
 20
336.523743
 11
147.497498
 21
175.353119
  0
LINE
  8
0
  6
CENTER
 10
111.984802
 20
80.977501
 11
183.938751
 21
80.977501
  0
LINE
  8
0
  6
CONTINUOUS
 10
96.997498
 20
5.977500
 11
197.997498
 21
5.977500
  0
LINE
  8
0
  6
CONTINUOUS
 10
161.339737
 20
118.977501
 11
133.655289
 21
118.977501
  0
LINE
  8
0
  6
CONTINUOUS
 10
98.997498
 20
14.977500
 11
195.997498
 21
14.977500
  0
LINE
  8
0
  6
CENTER
 10
185.497498
 20
312.155640
 11
185.497498
 21
293.393127
  0
LINE
  8
0
  6
CENTER
 10
109.497498
 20
20.715000
 11
109.497498
 21
-1.285000
  0
LINE
  8
0
  6
CONTINUOUS
 10
193.740326
 20
98.463860
 11
167.082550
 21
117.164078
  0
LINE
  8
0
  6
CONTINUOUS
 10
127.912468
 20
117.164078
 11
101.254700
 21
98.463882
  0
LINE
  8
0
  6
CONTINUOUS
 10
197.997498
 20
90.277290
 11
197.997498
 21
12.977500
  0
ARC
  8
0
  6
CONTINUOUS
 10
195.997498
 20
12.977490
 40
2.000000
 50
0.000000
 51
90.000000
  0
ARC
  8
0
  6
CONTINUOUS
 10
98.997513
 20
12.977500
 40
2.000000
 50
90.000000
 51
180.000000
  0
LINE
  8
0
  6
DASHED
 10
189.747498
 20
14.977500
 11
189.747498
 21
5.977500
  0
LINE
  8
0
  6
DASHED
 10
181.247498
 20
14.977500
 11
181.247498
 21
5.977500
  0
LINE
  8
0
  6
DASHED
 10
113.747498
 20
14.977500
 11
113.747498
 21
5.977500
  0
LINE
  8
0
  6
DASHED
 10
105.247498
 20
14.977500
 11
105.247498
 21
5.977500
  0
CIRCLE
  8
0
  6
CONTINUOUS
 10
147.497498
 20
80.977501
 40
23.500000
  0
LINE
  8
0
  6
CONTINUOUS
 10
99.497498
 20
81.669693
 11
99.497498
 21
50.284985
  0
LINE
  8
0
  6
CONTINUOUS
 10
195.497498
 20
81.669861
 11
195.497498
 21
50.285149
  0
ARC
  8
0
  6
CONTINUOUS
 10
147.497498
 20
65.977501
 40
50.500000
 50
198.103806
 51
341.896210
  0
LINE
  8
0
  6
CONTINUOUS
 10
96.997520
 20
90.277313
 11
96.997452
 21
5.977500
  0
ARC
  8
0
  6
CONTINUOUS
 10
147.497498
 20
65.977501
 40
50.500000
 50
18.103790
 51
161.896194
  0
LINE
  8
0
  6
CONTINUOUS
 10
24.497499
 20
89.686798
 11
95.380409
 21
89.686798
  0
LINE
  8
0
  6
CONTINUOUS
 10
24.497499
 20
20.868200
 11
95.380409
 21
20.868200
  0
LINE
  8
0
  6
CONTINUOUS
 10
141.122498
 20
43.530720
 11
141.122498
 21
37.977501
  0
LINE
  8
0
  6
CONTINUOUS
 10
144.309998
 20
45.547813
 11
144.309998
 21
47.540001
  0
LINE
  8
0
  6
CONTINUOUS
 10
150.684998
 20
45.547813
 11
150.684998
 21
47.540001
  0
LINE
  8
0
  6
CONTINUOUS
 10
146.874893
 20
46.369591
 11
146.874893
 21
39.023399
  0
LINE
  8
0
  6
CONTINUOUS
 10
148.070297
 20
46.369591
 11
148.070297
 21
39.023399
  0
LINE
  8
0
  6
CONTINUOUS
 10
154.345596
 20
46.369591
 11
154.345596
 21
38.973591
  0
LINE
  8
0
  6
CONTINUOUS
 10
155.441299
 20
42.447472
 11
155.441299
 21
38.973591
  0
LINE
  8
0
  6
CONTINUOUS
 10
139.610001
 20
46.269981
 11
136.538101
 21
46.269981
  0
LINE
  8
0
  6
CONTINUOUS
 10
136.538101
 20
46.269981
 11
135.818298
 21
45.377487
  0
LINE
  8
0
  6
CONTINUOUS
 10
135.904907
 20
47.540001
 11
134.747498
 21
46.058006
  0
LINE
  8
0
  6
CONTINUOUS
 10
135.818298
 20
39.868420
 11
136.549606
 21
39.098110
  0
LINE
  8
0
  6
CONTINUOUS
 10
134.747498
 20
39.218361
 11
135.977295
 21
37.977501
  0
LINE
  8
0
  6
CONTINUOUS
 10
134.747498
 20
46.058006
 11
134.747498
 21
39.218361
  0
LINE
  8
0
  6
CONTINUOUS
 10
135.818298
 20
45.377487
 11
135.818298
 21
39.868420
  0
LINE
  8
0
  6
CONTINUOUS
 10
140.201096
 20
45.698540
 11
139.597900
 21
46.269981
  0
LINE
  8
0
  6
CONTINUOUS
 10
140.191498
 20
47.540001
 11
141.122498
 21
46.506859
  0
LINE
  8
0
  6
CONTINUOUS
 10
140.201096
 20
45.547813
 11
141.122498
 21
45.547813
  0
LINE
  8
0
  6
CONTINUOUS
 10
135.904907
 20
47.540001
 11
140.191498
 21
47.540001
  0
LINE
  8
0
  6
CONTINUOUS
 10
140.201096
 20
42.484821
 11
138.532700
 21
42.484821
  0
LINE
  8
0
  6
CONTINUOUS
 10
140.201096
 20
41.488731
 11
140.201096
 21
42.285610
  0
LINE
  8
0
  6
CONTINUOUS
 10
138.208893
 20
39.098110
 11
136.549606
 21
39.098110
  0
ARC
  8
0
  6
CONTINUOUS
 10
138.208893
 20
41.090290
 40
1.992187
 50
-89.999786
 51
0.000109
  0
LINE
  8
0
  6
CONTINUOUS
 10
140.201096
 20
38.739769
 11
140.201096
 21
37.977501
  0
LINE
  8
0
  6
CONTINUOUS
 10
141.122498
 20
46.506859
 11
141.122498
 21
45.547813
  0
LINE
  8
0
  6
CONTINUOUS
 10
140.201096
 20
42.484821
 11
140.201096
 21
41.090290
  0
LINE
  8
0
  6
CONTINUOUS
 10
138.532700
 20
43.530720
 11
138.532700
 21
42.484821
  0
LINE
  8
0
  6
CONTINUOUS
 10
140.201096
 20
37.977501
 11
141.122498
 21
37.977501
  0
LINE
  8
0
  6
CONTINUOUS
 10
140.201096
 20
38.739769
 11
139.292603
 21
37.977501
  0
LINE
  8
0
  6
CONTINUOUS
 10
148.070297
 20
39.023399
 11
148.468704
 21
39.023399
  0
LINE
  8
0
  6
CONTINUOUS
 10
146.401794
 20
39.023399
 11
146.401794
 21
37.977501
  0
LINE
  8
0
  6
CONTINUOUS
 10
148.468704
 20
39.023399
 11
148.468704
 21
37.977501
  0
LINE
  8
0
  6
CONTINUOUS
 10
150.020004
 20
45.547813
 11
150.684998
 21
45.547813
  0
LINE
  8
0
  6
CONTINUOUS
 10
144.309998
 20
45.547813
 11
145.017593
 21
45.547813
  0
LINE
  8
0
  6
CONTINUOUS
 10
144.309998
 20
47.540001
 11
150.684998
 21
47.540001
  0
LINE
  8
0
  6
CONTINUOUS
 10
146.401794
 20
37.977501
 11
148.468704
 21
37.977501
  0
LINE
  8
0
  6
CONTINUOUS
 10
146.401794
 20
39.023399
 11
146.874893
 21
39.023399
  0
ARC
  8
0
  6
CONTINUOUS
 10
157.695007
 20
44.987511
 40
2.552490
 50
-73.981873
 51
90.003510
  0
ARC
  8
0
  6
CONTINUOUS
 10
157.695007
 20
44.987511
 40
1.557193
 50
-82.585274
 51
62.411850
  0
LINE
  8
0
  6
CONTINUOUS
 10
153.872498
 20
47.540001
 11
157.695007
 21
47.540001
  0
LINE
  8
0
  6
CONTINUOUS
 10
153.872498
 20
47.540001
 11
153.872498
 21
46.369591
  0
LINE
  8
0
  6
CONTINUOUS
 10
155.441299
 20
46.369591
 11
155.441299
 21
43.443340
  0
LINE
  8
0
  6
CONTINUOUS
 10
158.399307
 20
42.534119
 11
159.979202
 21
38.973591
  0
LINE
  8
0
  6
CONTINUOUS
 10
157.481796
 20
42.447472
 11
158.976898
 21
38.973591
  0
LINE
  8
0
  6
CONTINUOUS
 10
153.872498
 20
38.973591
 11
154.345596
 21
38.973591
  0
LINE
  8
0
  6
CONTINUOUS
 10
155.441299
 20
38.973591
 11
155.877106
 21
38.973591
  0
LINE
  8
0
  6
CONTINUOUS
 10
155.877106
 20
37.977501
 11
153.872498
 21
37.977501
  0
LINE
  8
0
  6
CONTINUOUS
 10
158.778305
 20
38.973591
 11
158.976898
 21
38.973591
  0
LINE
  8
0
  6
CONTINUOUS
 10
159.979202
 20
38.973591
 11
160.247498
 21
38.973591
  0
LINE
  8
0
  6
CONTINUOUS
 10
158.778305
 20
37.977501
 11
160.247498
 21
37.977501
  0
LINE
  8
0
  6
CONTINUOUS
 10
160.247498
 20
38.973591
 11
160.247498
 21
37.977501
  0
LINE
  8
0
  6
CONTINUOUS
 10
158.778305
 20
38.973591
 11
158.778305
 21
37.977501
  0
LINE
  8
0
  6
CONTINUOUS
 10
155.877106
 20
38.973591
 11
155.877106
 21
37.977501
  0
LINE
  8
0
  6
CONTINUOUS
 10
153.872498
 20
38.973591
 11
153.872498
 21
37.977501
  0
LINE
  8
0
  6
CONTINUOUS
 10
145.360001
 20
46.369591
 11
145.017593
 21
45.547813
  0
LINE
  8
0
  6
CONTINUOUS
 10
149.731293
 20
46.369591
 11
150.020004
 21
45.547813
  0
LINE
  8
0
  6
CONTINUOUS
 10
148.070297
 20
46.369591
 11
149.731293
 21
46.369591
  0
LINE
  8
0
  6
CONTINUOUS
 10
146.874893
 20
46.369591
 11
145.360001
 21
46.369591
  0
LINE
  8
0
  6
CONTINUOUS
 10
153.872498
 20
46.369591
 11
154.345596
 21
46.369591
  0
LINE
  8
0
  6
CONTINUOUS
 10
155.441299
 20
46.369591
 11
158.416199
 21
46.367653
  0
LINE
  8
0
  6
CONTINUOUS
 10
140.201096
 20
45.698540
 11
140.201096
 21
45.547813
  0
LINE
  8
0
  6
CONTINUOUS
 10
135.977295
 20
37.977501
 11
139.292603
 21
37.977501
  0
LINE
  8
0
  6
CONTINUOUS
 10
155.441299
 20
43.443340
 11
157.895996
 21
43.443340
  0
LINE
  8
0
  6
CONTINUOUS
 10
155.441299
 20
42.447472
 11
157.481796
 21
42.447472
  0
LINE
  8
0
  6
CONTINUOUS
 10
138.532700
 20
43.530720
 11
141.122498
 21
43.530720
  0
LINE
  8
0
  6
CENTER
 10
343.997498
 20
-0.809190
 11
343.997498
 21
143.019379
  0
LINE
  8
0
  6
CENTER
 10
288.747498
 20
55.277500
 11
395.997498
 21
55.277500
  0
LINE
  8
0
  6
CONTINUOUS
 10
401.997498
 20
12.977500
 11
401.997498
 21
5.977500
  0
LINE
  8
0
  6
CONTINUOUS
 10
285.997498
 20
12.977500
 11
285.997498
 21
5.977500
  0
LINE
  8
0
  6
CENTER
 10
260.747498
 20
80.977501
 11
425.247498
 21
80.977501
  0
LINE
  8
0
  6
CONTINUOUS
 10
285.997498
 20
5.977500
 11
401.997498
 21
5.977500
  0
LINE
  8
0
  6
CONTINUOUS
 10
383.997498
 20
14.977500
 11
399.997498
 21
14.977500
  0
LINE
  8
0
  6
CONTINUOUS
 10
306.997498
 20
17.977501
 11
306.997498
 21
116.366127
  0
LINE
  8
0
  6
CONTINUOUS
 10
380.997498
 20
17.977501
 11
380.997498
 21
116.366257
  0
LINE
  8
0
  6
CONTINUOUS
 10
385.997498
 20
58.477497
 11
385.997498
 21
103.477501
  0
LINE
  8
0
  6
CONTINUOUS
 10
384.997498
 20
104.477501
 11
382.997498
 21
104.477501
  0
LINE
  8
0
  6
CONTINUOUS
 10
384.997498
 20
57.477497
 11
382.997498
 21
57.477497
  0
LINE
  8
0
  6
CONTINUOUS
 10
343.997498
 20
118.977501
 11
379.032410
 21
118.365967
  0
LINE
  8
0
  6
CONTINUOUS
 10
308.962585
 20
118.365829
 11
343.997498
 21
118.977501
  0
ARC
  8
0
  6
CONTINUOUS
 10
382.997498
 20
106.477501
 40
2.000000
 50
180.000000
 51
270.000000
  0
ARC
  8
0
  6
CONTINUOUS
 10
378.997498
 20
116.366257
 40
2.000000
 50
0.000000
 51
89.000137
  0
ARC
  8
0
  6
CONTINUOUS
 10
308.997498
 20
116.366142
 40
2.000000
 50
91.000641
 51
180.000000
  0
ARC
  8
0
  6
CONTINUOUS
 10
382.997498
 20
55.477509
 40
2.000000
 50
90.000000
 51
180.000000
  0
ARC
  8
0
  6
CONTINUOUS
 10
384.997498
 20
103.477493
 40
1.000000
 50
0.000000
 51
90.000000
  0
ARC
  8
0
  6
CONTINUOUS
 10
384.997498
 20
58.477493
 40
1.000000
 50
-90.000000
 51
0.000000
  0
LINE
  8
0
  6
CONTINUOUS
 10
308.247498
 20
95.477501
 11
379.997498
 21
95.477501
  0
ARC
  8
0
  6
CONTINUOUS
 10
399.997498
 20
12.977490
 40
2.000000
 50
0.000000
 51
90.000000
  0
ARC
  8
0
  6
CONTINUOUS
 10
287.997498
 20
12.977510
 40
2.000000
 50
90.000000
 51
180.000000
  0
LINE
  8
0
  6
CENTER
 10
391.997498
 20
18.933750
 11
391.997498
 21
1.683750
  0
LINE
  8
0
  6
CENTER
 10
295.997498
 20
18.933750
 11
295.997498
 21
0.933750
  0
LINE
  8
0
  6
DASHED
 10
300.247498
 20
14.977500
 11
300.247498
 21
5.977500
  0
LINE
  8
0
  6
DASHED
 10
291.747498
 20
14.977500
 11
291.747498
 21
5.977500
  0
LINE
  8
0
  6
DASHED
 10
396.247498
 20
14.977500
 11
396.247498
 21
5.977500
  0
LINE
  8
0
  6
DASHED
 10
387.747498
 20
14.977500
 11
387.747498
 21
5.977500
  0
ARC
  8
0
  6
CONTINUOUS
 10
343.997498
 20
55.277500
 40
45.000000
 50
159.637695
 51
214.692093
  0
ARC
  8
0
  6
CONTINUOUS
 10
343.997498
 20
55.277500
 40
45.000000
 50
-34.692108
 51
20.437799
  0
LINE
  8
0
  6
CONTINUOUS
 10
301.997498
 20
58.477497
 11
301.997498
 21
103.477501
  0
LINE
  8
0
  6
CONTINUOUS
 10
302.997498
 20
104.477501
 11
304.997498
 21
104.477501
  0
LINE
  8
0
  6
CONTINUOUS
 10
302.997498
 20
57.477497
 11
304.997498
 21
57.477497
  0
ARC
  8
0
  6
CONTINUOUS
 10
304.997498
 20
106.477501
 40
2.000000
 50
-90.000000
 51
0.000000
  0
ARC
  8
0
  6
CONTINUOUS
 10
304.997498
 20
55.477509
 40
2.000000
 50
0.000000
 51
90.000000
  0
ARC
  8
0
  6
CONTINUOUS
 10
302.997498
 20
103.477493
 40
1.000000
 50
90.000000
 51
180.000000
  0
ARC
  8
0
  6
CONTINUOUS
 10
302.997498
 20
58.477493
 40
1.000000
 50
180.000000
 51
270.000000
  0
LINE
  8
0
  6
CONTINUOUS
 10
303.997498
 20
14.977500
 11
287.997498
 21
14.977500
  0
ARC
  8
0
  6
CONTINUOUS
 10
303.997498
 20
17.977501
 40
3.000000
 50
-90.000000
 51
0.000000
  0
ARC
  8
0
  6
CONTINUOUS
 10
383.997498
 20
17.977501
 40
3.000000
 50
180.000000
 51
270.000000
  0
LINE
  8
0
  6
CONTINUOUS
 10
152.997498
 20
77.977524
 11
152.997498
 21
83.977524
  0
LINE
  8
0
  6
CONTINUOUS
 10
158.997498
 20
77.977539
 11
158.997498
 21
83.977539
  0
LINE
  8
0
  6
CONTINUOUS
 10
158.997498
 20
77.977539
 11
152.997498
 21
77.977524
  0
LINE
  8
0
  6
CONTINUOUS
 10
158.997498
 20
83.977539
 11
152.997498
 21
83.977524
  0
ARC
  8
0
  6
CONTINUOUS
 10
147.497498
 20
80.977501
 40
9.000000
 50
19.471210
 51
340.528809
  0
LINE
  8
0
  6
CONTINUOUS
 10
269.997498
 20
71.977501
 11
269.997498
 21
89.977501
  0
LINE
  8
0
  6
CONTINUOUS
 10
299.997498
 20
89.977501
 11
269.997498
 21
89.977501
  0
LINE
  8
0
  6
CONTINUOUS
 10
299.997498
 20
71.977501
 11
269.997498
 21
71.977501
  0
LINE
  8
0
  6
CONTINUOUS
 10
299.997498
 20
90.977501
 11
299.997498
 21
70.977501
  0
LINE
  8
0
  6
CONTINUOUS
 10
301.997498
 20
90.977501
 11
299.997498
 21
90.977501
  0
LINE
  8
0
  6
CONTINUOUS
 10
301.997498
 20
70.977501
 11
299.997498
 21
70.977501
  0
ARC
  8
0
  6
CONTINUOUS
 10
293.997498
 20
80.977501
 40
3.000000
 50
-90.000000
 51
90.000000
  0
LINE
  8
0
  6
CONTINUOUS
 10
293.997498
 20
83.977501
 11
269.997498
 21
83.977501
  0
LINE
  8
0
  6
CONTINUOUS
 10
293.997406
 20
77.977501
 11
269.997498
 21
77.977501
  0
LINE
  8
0
  6
CONTINUOUS
 10
417.997498
 20
71.977501
 11
417.997498
 21
89.977501
  0
LINE
  8
0
  6
CONTINUOUS
 10
387.997498
 20
89.977501
 11
417.997498
 21
89.977501
  0
LINE
  8
0
  6
CONTINUOUS
 10
387.997498
 20
71.977501
 11
417.997498
 21
71.977501
  0
LINE
  8
0
  6
CONTINUOUS
 10
387.997498
 20
90.977501
 11
387.997498
 21
70.977501
  0
LINE
  8
0
  6
CONTINUOUS
 10
385.997498
 20
90.977501
 11
387.997498
 21
90.977501
  0
LINE
  8
0
  6
CONTINUOUS
 10
385.997498
 20
70.977501
 11
387.997498
 21
70.977501
  0
ARC
  8
0
  6
CONTINUOUS
 10
393.997498
 20
80.977501
 40
3.000000
 50
90.000000
 51
270.000000
  0
LINE
  8
0
  6
CONTINUOUS
 10
393.997498
 20
83.977501
 11
417.997498
 21
83.977501
  0
LINE
  8
0
  6
CONTINUOUS
 10
393.997498
 20
77.977501
 11
417.997498
 21
77.977501
  0
LINE
  8
0
  6
CENTER
 10
-9.488750
 20
255.646255
 11
211.638748
 21
255.646255
  0
LINE
  8
0
  6
CONTINUOUS
 10
197.156616
 20
303.820770
 11
197.997498
 21
255.646255
  0
LINE
  8
0
  6
CONTINUOUS
 10
187.158127
 20
313.646240
 11
158.997498
 21
313.646240
  0
LINE
  8
0
  6
CONTINUOUS
 10
98.997498
 20
292.646240
 11
195.386261
 21
292.646240
  0
LINE
  8
0
  6
CENTER
 10
147.497498
 20
132.226257
 11
147.497498
 21
-1.241600
  0
ARC
  8
0
  6
CONTINUOUS
 10
187.158127
 20
303.646240
 40
10.000000
 50
1.000000
 51
90.000000
  0
ARC
  8
0
  6
CONTINUOUS
 10
195.386261
 20
290.646240
 40
2.000000
 50
1.000000
 51
90.000000
  0
LINE
  8
0
  6
CENTER
 10
175.902191
 20
303.646240
 11
196.244690
 21
303.646240
  0
CIRCLE
  8
0
  6
CONTINUOUS
 10
185.497498
 20
303.646240
 40
4.250000
  0
LINE
  8
0
  6
CONTINUOUS
 10
3.997500
 20
220.646255
 11
3.997500
 21
290.646240
  0
LINE
  8
0
  6
CONTINUOUS
 10
8.538949
 20
300.646240
 11
24.497499
 21
300.646240
  0
LINE
  8
0
  6
CONTINUOUS
 10
4.497500
 20
297.646240
 11
4.497500
 21
213.646255
  0
LINE
  8
0
  6
CONTINUOUS
 10
24.497499
 20
284.646240
 11
6.247500
 21
284.646240
  0
ARC
  8
0
  6
CONTINUOUS
 10
3.997499
 20
291.146240
 40
0.500000
 50
-90.000000
 51
0.000000
  0
LINE
  8
0
  6
CONTINUOUS
 10
5.074843
 20
298.646240
 11
4.497500
 21
297.646240
  0
ARC
  8
0
  6
CONTINUOUS
 10
8.538963
 20
296.646271
 40
4.000000
 50
90.000000
 51
150.000397
  0
LINE
  8
0
  6
CONTINUOUS
 10
8.538949
 20
210.646255
 11
24.497499
 21
210.646255
  0
ARC
  8
0
  6
CONTINUOUS
 10
3.997499
 20
220.146255
 40
0.500000
 50
0.000000
 51
90.000000
  0
LINE
  8
0
  6
CONTINUOUS
 10
5.074843
 20
212.646255
 11
4.497500
 21
213.646255
  0
ARC
  8
0
  6
CONTINUOUS
 10
8.538963
 20
214.646240
 40
4.000000
 50
-150.000397
 51
-90.000000
  0
LINE
  8
0
  6
CONTINUOUS
 10
24.497499
 20
210.646255
 11
24.497499
 21
230.646225
  0
LINE
  8
0
  6
CENTER
 10
109.497498
 20
312.353119
 11
109.497498
 21
293.393127
  0
LINE
  8
0
  6
CONTINUOUS
 10
97.838387
 20
303.820770
 11
97.652412
 21
293.166138
  0
ARC
  8
0
  6
CONTINUOUS
 10
107.836868
 20
303.646240
 40
10.000000
 50
90.000000
 51
179.000000
  0
ARC
  8
0
  6
CONTINUOUS
 10
99.608734
 20
290.646240
 40
2.000000
 50
90.000000
 51
179.000000
  0
LINE
  8
0
  6
CENTER
 10
118.824692
 20
303.646240
 11
99.272186
 21
303.646240
  0
CIRCLE
  8
0
  6
CONTINUOUS
 10
109.497498
 20
303.646240
 40
4.250000
  0
LINE
  8
0
  6
CONTINUOUS
 10
96.997498
 20
294.646240
 11
96.997498
 21
298.646240
  0
LINE
  8
0
  6
CONTINUOUS
 10
94.997498
 20
300.646240
 11
24.497499
 21
300.646240
  0
ARC
  8
0
  6
CONTINUOUS
 10
106.997520
 20
90.277313
 40
10.000000
 50
125.049377
 51
180.000000
  0
ARC
  8
0
  6
CONTINUOUS
 10
133.655289
 20
108.977501
 40
10.000000
 50
90.000000
 51
125.049332
  0
ARC
  8
0
  6
CONTINUOUS
 10
161.339737
 20
108.977501
 40
10.000000
 50
54.950645
 51
90.000000
  0
ARC
  8
0
  6
CONTINUOUS
 10
187.997498
 20
90.277290
 40
10.000000
 50
0.000000
 51
54.950645
  0
ARC
  8
0
  6
CONTINUOUS
 10
94.997498
 20
298.646240
 40
2.000000
 50
0.000000
 51
90.000000
  0
ARC
  8
0
  6
CONTINUOUS
 10
98.997498
 20
294.646240
 40
2.000000
 50
180.000000
 51
270.000000
  0
LINE
  8
0
  6
CONTINUOUS
 10
97.609039
 20
290.681152
 11
97.503700
 21
284.646240
  0
LINE
  8
0
  6
CONTINUOUS
 10
24.497499
 20
284.646240
 11
103.840050
 21
284.646240
  0
LINE
  8
0
  6
CONTINUOUS
 10
24.497499
 20
226.646255
 11
6.247500
 21
226.646255
  0
LINE
  8
0
  6
CONTINUOUS
 10
24.497499
 20
226.646255
 11
103.840050
 21
226.646255
  0
LINE
  8
0
  6
CONTINUOUS
 10
94.997498
 20
210.646255
 11
24.497499
 21
210.646255
  0
ARC
  8
0
  6
CONTINUOUS
 10
94.997498
 20
212.646255
 40
2.000000
 50
-90.000000
 51
0.000000
  0
LINE
  8
0
  6
CENTER
 10
185.497498
 20
198.790619
 11
185.497498
 21
217.849380
  0
LINE
  8
0
  6
CONTINUOUS
 10
197.156616
 20
207.471725
 11
197.997498
 21
255.646255
  0
LINE
  8
0
  6
CONTINUOUS
 10
187.158127
 20
197.646255
 11
158.997498
 21
197.646255
  0
LINE
  8
0
  6
CONTINUOUS
 10
98.997498
 20
218.646255
 11
195.386261
 21
218.646255
  0
ARC
  8
0
  6
CONTINUOUS
 10
187.158127
 20
207.646255
 40
10.000000
 50
-90.000000
 51
-1.000000
  0
ARC
  8
0
  6
CONTINUOUS
 10
195.386261
 20
220.646255
 40
2.000000
 50
-90.000000
 51
-1.000000
  0
LINE
  8
0
  6
CENTER
 10
176.395935
 20
207.646255
 11
196.442184
 21
207.646255
  0
CIRCLE
  8
0
  6
CONTINUOUS
 10
185.497498
 20
207.646255
 40
4.250000
  0
LINE
  8
0
  6
CENTER
 10
109.497498
 20
198.296875
 11
109.497498
 21
217.651871
  0
LINE
  8
0
  6
CONTINUOUS
 10
97.838387
 20
207.471725
 11
97.652412
 21
218.126358
  0
ARC
  8
0
  6
CONTINUOUS
 10
107.836868
 20
207.646255
 40
10.000000
 50
-179.000000
 51
-90.000000
  0
ARC
  8
0
  6
CONTINUOUS
 10
99.608734
 20
220.646255
 40
2.000000
 50
-179.000000
 51
-90.000000
  0
LINE
  8
0
  6
CENTER
 10
119.318436
 20
207.646255
 11
99.074692
 21
207.646255
  0
CIRCLE
  8
0
  6
CONTINUOUS
 10
109.497498
 20
207.646255
 40
4.250000
  0
LINE
  8
0
  6
CONTINUOUS
 10
96.997498
 20
216.646255
 11
96.997498
 21
212.646255
  0
ARC
  8
0
  6
CONTINUOUS
 10
98.997498
 20
216.646255
 40
2.000000
 50
-270.000000
 51
-180.000000
  0
LINE
  8
0
  6
CONTINUOUS
 10
97.609039
 20
220.611343
 11
97.503700
 21
226.646255
  0
LINE
  8
0
  6
CONTINUOUS
 10
130.497498
 20
287.646240
 11
130.497498
 21
223.646255
  0
LINE
  8
0
  6
CONTINUOUS
 10
164.497498
 20
287.646240
 11
164.497498
 21
223.646255
  0
LINE
  8
0
  6
CONTINUOUS
 10
103.840050
 20
282.646240
 11
103.840050
 21
228.646255
  0
LINE
  8
0
  6
CONTINUOUS
 10
169.997498
 20
297.646240
 11
124.997498
 21
297.646240
  0
LINE
  8
0
  6
CONTINUOUS
 10
123.997498
 20
296.646240
 11
123.997498
 21
294.646240
  0
LINE
  8
0
  6
CONTINUOUS
 10
170.997498
 20
296.646240
 11
170.997498
 21
294.646240
  0
ARC
  8
0
  6
CONTINUOUS
 10
121.997498
 20
294.646240
 40
2.000000
 50
-90.000000
 51
0.000000
  0
ARC
  8
0
  6
CONTINUOUS
 10
172.997498
 20
294.646240
 40
2.000000
 50
180.000000
 51
270.000000
  0
ARC
  8
0
  6
CONTINUOUS
 10
124.997513
 20
296.646240
 40
1.000000
 50
90.000000
 51
180.000000
  0
ARC
  8
0
  6
CONTINUOUS
 10
169.997498
 20
296.646240
 40
1.000000
 50
0.000000
 51
90.000000
  0
LINE
  8
0
  6
CONTINUOUS
 10
158.997498
 20
329.646240
 11
138.497498
 21
329.646240
  0
LINE
  8
0
  6
CONTINUOUS
 10
138.497498
 20
299.646240
 11
138.497498
 21
329.646240
  0
LINE
  8
0
  6
CONTINUOUS
 10
156.497498
 20
299.646240
 11
156.497498
 21
302.646240
  0
LINE
  8
0
  6
CONTINUOUS
 10
137.497498
 20
299.646240
 11
157.497498
 21
299.646240
  0
LINE
  8
0
  6
CONTINUOUS
 10
137.497498
 20
297.646240
 11
137.497498
 21
299.646240
  0
LINE
  8
0
  6
CONTINUOUS
 10
157.497498
 20
297.646240
 11
157.497498
 21
299.646240
  0
LINE
  8
0
  6
CONTINUOUS
 10
158.997498
 20
329.646240
 11
158.997498
 21
302.646240
  0
LINE
  8
0
  6
CONTINUOUS
 10
158.997498
 20
302.646240
 11
155.982498
 21
302.646240
  0
LINE
  8
0
  6
CONTINUOUS
 10
155.982498
 20
329.646240
 11
155.982498
 21
302.646240
  0
LINE
  8
0
  6
CONTINUOUS
 10
138.497498
 20
313.646240
 11
107.836868
 21
313.646240
  0
LINE
  8
0
  6
CONTINUOUS
 10
169.997498
 20
213.646255
 11
124.997498
 21
213.646255
  0
LINE
  8
0
  6
CONTINUOUS
 10
123.997498
 20
214.646255
 11
123.997498
 21
216.646255
  0
LINE
  8
0
  6
CONTINUOUS
 10
170.997498
 20
214.646255
 11
170.997498
 21
216.646255
  0
ARC
  8
0
  6
CONTINUOUS
 10
121.997498
 20
216.646255
 40
2.000000
 50
0.000000
 51
90.000000
  0
ARC
  8
0
  6
CONTINUOUS
 10
172.997498
 20
216.646255
 40
2.000000
 50
-270.000000
 51
-180.000000
  0
ARC
  8
0
  6
CONTINUOUS
 10
124.997513
 20
214.646255
 40
1.000000
 50
-180.000000
 51
-90.000000
  0
ARC
  8
0
  6
CONTINUOUS
 10
169.997498
 20
214.646255
 40
1.000000
 50
-90.000000
 51
0.000000
  0
LINE
  8
0
  6
CONTINUOUS
 10
158.997498
 20
181.646255
 11
138.497498
 21
181.646255
  0
LINE
  8
0
  6
CONTINUOUS
 10
138.497498
 20
211.646255
 11
138.497498
 21
181.646255
  0
LINE
  8
0
  6
CONTINUOUS
 10
156.497498
 20
211.646255
 11
156.497498
 21
208.646255
  0
LINE
  8
0
  6
CONTINUOUS
 10
137.497498
 20
211.646255
 11
157.497498
 21
211.646255
  0
LINE
  8
0
  6
CONTINUOUS
 10
137.497498
 20
213.646255
 11
137.497498
 21
211.646255
  0
LINE
  8
0
  6
CONTINUOUS
 10
157.497498
 20
213.646255
 11
157.497498
 21
211.646255
  0
LINE
  8
0
  6
CONTINUOUS
 10
158.997498
 20
181.646255
 11
158.997498
 21
208.646255
  0
LINE
  8
0
  6
CONTINUOUS
 10
158.997498
 20
208.646255
 11
155.982498
 21
208.646255
  0
LINE
  8
0
  6
CONTINUOUS
 10
155.982498
 20
181.646255
 11
155.982498
 21
208.646255
  0
LINE
  8
0
  6
CONTINUOUS
 10
138.497498
 20
197.646255
 11
107.836868
 21
197.646255
  0
LINE
  8
0
  6
CONTINUOUS
 10
24.497499
 20
280.646240
 11
24.497499
 21
300.646240
  0
LINE
  8
0
  6
CENTER
 10
185.497498
 20
20.715000
 11
185.497498
 21
-1.285000
  0
LINE
  8
0
  6
CONTINUOUS
 10
14.497500
 20
263.146240
 11
15.497500
 21
263.146240
  0
ARC
  8
0
  6
CONTINUOUS
 10
14.497520
 20
262.146240
 40
1.000000
 50
90.000000
 51
180.000000
  0
LINE
  8
0
  6
CONTINUOUS
 10
9.997515
 20
259.646240
 11
9.997515
 21
251.646225
  0
LINE
  8
0
  6
CONTINUOUS
 10
9.997515
 20
259.646240
 11
13.497515
 21
261.146240
  0
LINE
  8
0
  6
CONTINUOUS
 10
9.997500
 20
251.646225
 11
13.497500
 21
250.146225
  0
LINE
  8
0
  6
CONTINUOUS
 10
13.497515
 20
262.146240
 11
13.497515
 21
249.146225
  0
LINE
  8
0
  6
CONTINUOUS
 10
14.497500
 20
248.146225
 11
15.497500
 21
248.146225
  0
ARC
  8
0
  6
CONTINUOUS
 10
14.497520
 20
249.146225
 40
1.000000
 50
-180.000000
 51
-90.000000
  0
LINE
  8
0
  6
CONTINUOUS
 10
15.497500
 20
232.646225
 11
15.497500
 21
278.646240
  0
LINE
  8
0
  6
CONTINUOUS
 10
17.497499
 20
280.646240
 11
15.497500
 21
278.646240
  0
LINE
  8
0
  6
CONTINUOUS
 10
17.497499
 20
280.646240
 11
63.497490
 21
280.646240
  0
LINE
  8
0
  6
CONTINUOUS
 10
57.997501
 20
276.146240
 11
57.997501
 21
280.646240
  0
ARC
  8
0
  6
CONTINUOUS
 10
60.997501
 20
276.146240
 40
3.000000
 50
180.000000
 51
270.000000
  0
LINE
  8
0
  6
CONTINUOUS
 10
60.997501
 20
273.146240
 11
65.497490
 21
273.146240
  0
CIRCLE
  8
0
  6
CONTINUOUS
 10
61.997501
 20
277.146240
 40
2.250000
  0
LINE
  8
0
  6
CONTINUOUS
 10
65.497498
 20
232.646225
 11
65.497490
 21
278.646240
  0
LINE
  8
0
  6
CONTINUOUS
 10
63.497490
 20
280.646240
 11
65.497490
 21
278.646240
  0
LINE
  8
0
  6
CONTINUOUS
 10
63.497494
 20
230.646225
 11
65.497498
 21
232.646225
  0
LINE
  8
0
  6
CONTINUOUS
 10
63.497494
 20
230.646225
 11
17.497499
 21
230.646225
  0
LINE
  8
0
  6
CONTINUOUS
 10
15.497500
 20
232.646225
 11
17.497499
 21
230.646225
  0
LINE
  8
0
  6
CONTINUOUS
 10
19.997499
 20
238.146225
 11
15.497510
 21
238.146225
  0
CIRCLE
  8
0
  6
CONTINUOUS
 10
18.997499
 20
234.146225
 40
2.250000
  0
ARC
  8
0
  6
CONTINUOUS
 10
19.997499
 20
235.146225
 40
3.000000
 50
0.000000
 51
90.000000
  0
LINE
  8
0
  6
CONTINUOUS
 10
22.997499
 20
235.146225
 11
22.997499
 21
230.646225
  0
LINE
  8
0
  6
CENTER
 10
40.497501
 20
223.180450
 11
40.497501
 21
287.312469
  0
LINE
  8
0
  6
CONTINUOUS
 10
17.911718
 20
279.646240
 11
16.497505
 21
278.232025
  0
LINE
  8
0
  6
CONTINUOUS
 10
16.497505
 20
238.146255
 11
16.497505
 21
278.232025
  0
LINE
  8
0
  6
CONTINUOUS
 10
57.997501
 20
279.646240
 11
17.911718
 21
279.646240
  0
LINE
  8
0
  6
CONTINUOUS
 10
64.497498
 20
273.146240
 11
64.497498
 21
233.060471
  0
LINE
  8
0
  6
CONTINUOUS
 10
22.997499
 20
231.646255
 11
63.083282
 21
231.646255
  0
LINE
  8
0
  6
CONTINUOUS
 10
63.083282
 20
231.646255
 11
64.497498
 21
233.060471
  0
LINE
  8
0
  6
CONTINUOUS
 10
16.997499
 20
101.777496
 11
63.497501
 21
101.777496
  0
LINE
  8
0
  6
CONTINUOUS
 10
65.497490
 20
131.777496
 11
65.497498
 21
103.777496
  0
LINE
  8
0
  6
CONTINUOUS
 10
15.497500
 20
131.777496
 11
15.497500
 21
103.777496
  0
LINE
  8
0
  6
CONTINUOUS
 10
13.497500
 20
113.777496
 11
65.497498
 21
113.777496
  0
LINE
  8
0
  6
CONTINUOUS
 10
63.497501
 20
101.777496
 11
65.497498
 21
103.777496
  0
LINE
  8
0
  6
CONTINUOUS
 10
15.497500
 20
103.777496
 11
17.497499
 21
101.777496
  0
LINE
  8
0
  6
CONTINUOUS
 10
15.497500
 20
103.777496
 11
65.497498
 21
103.777496
  0
LINE
  8
0
  6
CONTINUOUS
 10
16.497499
 20
132.777496
 11
64.497490
 21
132.777496
  0
LINE
  8
0
  6
CONTINUOUS
 10
64.497490
 20
132.777496
 11
65.497490
 21
131.777496
  0
LINE
  8
0
  6
CONTINUOUS
 10
16.497499
 20
132.777496
 11
15.497500
 21
131.777496
  0
LINE
  8
0
  6
CONTINUOUS
 10
15.497500
 20
131.777496
 11
65.497490
 21
131.777496
  0
LINE
  8
0
  6
CENTER
 10
7.553752
 20
123.277496
 11
19.628750
 21
123.277496
  0
LINE
  8
0
  6
CONTINUOUS
 10
13.497508
 20
129.777496
 11
13.497500
 21
113.777496
  0
LINE
  8
0
  6
CONTINUOUS
 10
14.497500
 20
130.777496
 11
15.497500
 21
130.777496
  0
ARC
  8
0
  6
CONTINUOUS
 10
14.497510
 20
129.777496
 40
1.000000
 50
90.000000
 51
180.000000
  0
LINE
  8
0
  6
CONTINUOUS
 10
9.997508
 20
127.277496
 11
9.997508
 21
119.277496
  0
LINE
  8
0
  6
CONTINUOUS
 10
9.997508
 20
127.277496
 11
13.497508
 21
128.777496
  0
LINE
  8
0
  6
CONTINUOUS
 10
9.997500
 20
119.277496
 11
13.497500
 21
117.777496
  0
LINE
  8
0
  6
CENTER
 10
40.497501
 20
97.083748
 11
40.497501
 21
138.164993
  0
LINE
  8
0
  6
CONTINUOUS
 10
16.997499
 20
101.777496
 11
16.997499
 21
100.277496
  0
LINE
  8
0
  6
CONTINUOUS
 10
62.997501
 20
101.777496
 11
62.997501
 21
100.277496
  0
LINE
  8
0
  6
CONTINUOUS
 10
368.997498
 20
131.777496
 11
368.997498
 21
118.541130
  0
LINE
  8
0
  6
CONTINUOUS
 10
318.997498
 20
131.777496
 11
318.997498
 21
118.541023
  0
LINE
  8
0
  6
CONTINUOUS
 10
319.997498
 20
132.777496
 11
367.997498
 21
132.777496
  0
LINE
  8
0
  6
CONTINUOUS
 10
367.997498
 20
132.777496
 11
368.997498
 21
131.777496
  0
LINE
  8
0
  6
CONTINUOUS
 10
319.997498
 20
132.777496
 11
318.997498
 21
131.777496
  0
LINE
  8
0
  6
CONTINUOUS
 10
318.997498
 20
131.777496
 11
368.997498
 21
131.777496
  0
TEXT
  8
0
 10
-9.000000
 20
-1.000000
 40
4.000000
 41
1.000000
  1
HLM-18T-160~240-S40T
 50
0.000000
  0
ENDSEC
  0
EOF
