  0
SECTION
  2
HEADER
  9
$CLAYER
  8
1
  9
$LTSCALE
 40
3.0
  0
ENDSEC
  0
SECTION
  2
TABLES
  0
TABLE
  2
LTYPE
 70
     4
  0
LTYPE
  2
CONTINUOUS
  3
solid line
 70
    64
 72
    65
 73
     0
 40
0.0
  0
LTYPE
  2
DASHED
  3
__ __ __ __ __ __ __ __ __ __ __ __ __ __ __
 70
    64
 72
    65
 73
     2
 40
0.75
 49
0.5
 49
-0.25
  0
LTYPE
  2
CENTER
  3
____ _ ____ _ ____ _ ____ _ ____ _ ____ _ ____
 70
    64
 72
    65
 73
     4
 40
2.0
 49
1.25
 49
-0.25
 49
0.25
 49
-0.25
  0
LTYPE
  2
PHANTOM
  3
_____ _ _ _____ _ _ _____ _ _ _____ _ _ ____
 70
    64
 72
    65
 73
     6
 40
2.5
 49
1.25
 49
-0.25
 49
0.25
 49
-0.25
 49
0.25
 49
-0.25
  0
ENDTAB
  0
TABLE
  2
LAYER
 70
     1
  0
LAYER
  2
0
 70
    64
 62
     7
  6
CONTINUOUS
  0
ENDTAB
  0
TABLE
  2
STYLE
 70
     1
  0
STYLE
  2
STANDARD
 70
     0
 40
0.000000
 41
1.000000
 50
0.000000
 71
     0
 42
3.000000
  3
txt
  4
BIGFONT
  0
ENDTAB
  0
ENDSEC
  0
SECTION
  2
BLOCKS
  0
ENDSEC
  0
SECTION
  2
ENTITIES
  0
LINE
  8
0
  6
CONTINUOUS
 10
50.608742
 20
99.728752
 11
60.108742
 21
99.728752
  0
LINE
  8
0
  6
CONTINUOUS
 10
60.108742
 20
89.138046
 11
50.608742
 21
89.138046
  0
LINE
  8
0
  6
CONTINUOUS
 10
50.608742
 20
9.728750
 11
60.108742
 21
9.728750
  0
LINE
  8
0
  6
CONTINUOUS
 10
60.108742
 20
20.319450
 11
50.608742
 21
20.319450
  0
LINE
  8
0
  6
CONTINUOUS
 10
50.608742
 20
101.728752
 11
50.608742
 21
7.728750
  0
LINE
  8
0
  6
CONTINUOUS
 10
50.608742
 20
83.728752
 11
6.633740
 21
83.728752
  0
LINE
  8
0
  6
CONTINUOUS
 10
50.608742
 20
25.728750
 11
6.633739
 21
25.728750
  0
LINE
  8
0
  6
CONTINUOUS
 10
60.608742
 20
101.228752
 11
60.608742
 21
99.728752
  0
LINE
  8
0
  6
CONTINUOUS
 10
53.608742
 20
101.228752
 11
53.608742
 21
99.728752
  0
LINE
  8
0
  6
CONTINUOUS
 10
53.608742
 20
101.228752
 11
60.608742
 21
101.228752
  0
LINE
  8
0
  6
CONTINUOUS
 10
58.008739
 20
114.228752
 11
58.008739
 21
101.228752
  0
LINE
  8
0
  6
CONTINUOUS
 10
56.208740
 20
114.853752
 11
56.208740
 21
101.228752
  0
LINE
  8
0
  6
CONTINUOUS
 10
54.408741
 20
112.791252
 11
54.408741
 21
101.228752
  0
LINE
  8
0
  6
CONTINUOUS
 10
59.808739
 20
113.603752
 11
59.808739
 21
101.228752
  0
LINE
  8
0
  6
CONTINUOUS
 10
56.208740
 20
114.853752
 11
58.008739
 21
114.228752
  0
LINE
  8
0
  6
CONTINUOUS
 10
54.408741
 20
112.791252
 11
56.208740
 21
113.416252
  0
LINE
  8
0
  6
CONTINUOUS
 10
59.808739
 20
113.603752
 11
58.009750
 21
113.156036
  0
LINE
  8
0
  6
CONTINUOUS
 10
8.108738
 20
101.728752
 11
50.608742
 21
101.728752
  0
LINE
  8
0
  6
CONTINUOUS
 10
8.108738
 20
7.728750
 11
50.608742
 21
7.728750
  0
ARC
  8
0
  6
CONTINUOUS
 10
8.108763
 20
96.728783
 40
5.000000
 50
90.000000
 51
180.000000
  0
ARC
  8
0
  6
CONTINUOUS
 10
8.108737
 20
12.728750
 40
5.000000
 50
180.000000
 51
270.000000
  0
LINE
  8
0
  6
CONTINUOUS
 10
3.108763
 20
96.728760
 11
3.108738
 21
12.728740
  0
LINE
  8
0
  6
CONTINUOUS
 10
60.108742
 20
9.728750
 11
60.108742
 21
99.728752
  0
LINE
  8
0
  6
CENTER
 10
-8.962187
 20
54.728748
 11
155.898254
 21
54.728748
  0
LINE
  8
0
  6
CONTINUOUS
 10
233.608749
 20
12.428750
 11
233.608749
 21
5.428750
  0
LINE
  8
0
  6
CONTINUOUS
 10
60.108742
 20
9.728750
 11
132.608749
 21
9.728750
  0
LINE
  8
0
  6
CONTINUOUS
 10
60.108742
 20
99.728752
 11
139.451248
 21
99.728752
  0
LINE
  8
0
  6
CENTER
 10
183.108749
 20
128.416245
 11
183.108749
 21
-1.790350
  0
LINE
  8
0
  6
CENTER
 10
147.596054
 20
80.428749
 11
218.030472
 21
80.428749
  0
LINE
  8
0
  6
CONTINUOUS
 10
132.608749
 20
5.428750
 11
233.608749
 21
5.428750
  0
LINE
  8
0
  6
CONTINUOUS
 10
167.687653
 20
118.428749
 11
198.529846
 21
118.428749
  0
LINE
  8
0
  6
CONTINUOUS
 10
134.608749
 20
14.428750
 11
231.608749
 21
14.428750
  0
LINE
  8
0
  6
CENTER
 10
221.108749
 20
19.916250
 11
221.108749
 21
-1.333750
  0
LINE
  8
0
  6
CENTER
 10
145.108749
 20
20.166250
 11
145.108749
 21
-1.833750
  0
LINE
  8
0
  6
CONTINUOUS
 10
231.480148
 20
96.421928
 11
201.401245
 21
117.522041
  0
LINE
  8
0
  6
CONTINUOUS
 10
134.737350
 20
96.421928
 11
164.816254
 21
117.522034
  0
ARC
  8
0
  6
CONTINUOUS
 10
198.529953
 20
113.428741
 40
5.000000
 50
54.950878
 51
90.000000
  0
ARC
  8
0
  6
CONTINUOUS
 10
167.687653
 20
113.428749
 40
5.000000
 50
90.000000
 51
125.049698
  0
ARC
  8
0
  6
CONTINUOUS
 10
137.608749
 20
92.328682
 40
5.000000
 50
125.049797
 51
180.000000
  0
ARC
  8
0
  6
CONTINUOUS
 10
228.608749
 20
92.328629
 40
5.000000
 50
0.000000
 51
54.950901
  0
LINE
  8
0
  6
CONTINUOUS
 10
233.608749
 20
12.428750
 11
233.608749
 21
92.328651
  0
ARC
  8
0
  6
CONTINUOUS
 10
231.608749
 20
12.428740
 40
2.000000
 50
0.000000
 51
90.000000
  0
LINE
  8
0
  6
CONTINUOUS
 10
132.608749
 20
92.328682
 11
132.608749
 21
92.328651
  0
ARC
  8
0
  6
CONTINUOUS
 10
134.608749
 20
12.428750
 40
2.000000
 50
90.000000
 51
180.000000
  0
LINE
  8
0
  6
DASHED
 10
225.358749
 20
14.428750
 11
225.358749
 21
5.428750
  0
LINE
  8
0
  6
DASHED
 10
216.858749
 20
14.428750
 11
216.858749
 21
5.428750
  0
LINE
  8
0
  6
DASHED
 10
149.358749
 20
14.428750
 11
149.358749
 21
5.428750
  0
LINE
  8
0
  6
DASHED
 10
140.858749
 20
14.428750
 11
140.858749
 21
5.428750
  0
CIRCLE
  8
0
  6
CONTINUOUS
 10
183.108749
 20
80.428749
 40
23.500000
  0
LINE
  8
0
  6
CONTINUOUS
 10
135.108749
 20
81.120941
 11
135.108749
 21
49.736233
  0
LINE
  8
0
  6
CONTINUOUS
 10
231.108749
 20
81.121109
 11
231.108749
 21
49.736401
  0
ARC
  8
0
  6
CONTINUOUS
 10
183.108749
 20
65.428749
 40
50.500000
 50
198.103806
 51
341.896210
  0
LINE
  8
0
  6
CONTINUOUS
 10
132.608749
 20
92.328659
 11
132.608643
 21
5.428750
  0
ARC
  8
0
  6
CONTINUOUS
 10
183.108749
 20
65.428749
 40
50.500000
 50
18.103790
 51
161.896194
  0
LINE
  8
0
  6
CONTINUOUS
 10
60.108742
 20
89.138046
 11
130.991653
 21
89.138046
  0
LINE
  8
0
  6
CONTINUOUS
 10
60.108742
 20
20.319450
 11
130.991653
 21
20.319450
  0
LINE
  8
0
  6
CONTINUOUS
 10
176.733749
 20
42.981972
 11
176.733749
 21
37.428749
  0
LINE
  8
0
  6
CONTINUOUS
 10
179.921249
 20
44.999062
 11
179.921249
 21
46.991253
  0
LINE
  8
0
  6
CONTINUOUS
 10
186.296249
 20
44.999062
 11
186.296249
 21
46.991253
  0
LINE
  8
0
  6
CONTINUOUS
 10
182.486145
 20
45.820843
 11
182.486145
 21
38.474651
  0
LINE
  8
0
  6
CONTINUOUS
 10
183.681549
 20
45.820843
 11
183.681549
 21
38.474651
  0
LINE
  8
0
  6
CONTINUOUS
 10
189.956848
 20
45.820843
 11
189.956848
 21
38.424839
  0
LINE
  8
0
  6
CONTINUOUS
 10
191.052551
 20
41.898720
 11
191.052551
 21
38.424839
  0
LINE
  8
0
  6
CONTINUOUS
 10
175.221252
 20
45.721230
 11
172.149353
 21
45.721230
  0
LINE
  8
0
  6
CONTINUOUS
 10
172.149353
 20
45.721230
 11
171.429550
 21
44.828735
  0
LINE
  8
0
  6
CONTINUOUS
 10
171.516144
 20
46.991253
 11
170.358749
 21
45.509254
  0
LINE
  8
0
  6
CONTINUOUS
 10
171.429550
 20
39.319672
 11
172.160843
 21
38.549358
  0
LINE
  8
0
  6
CONTINUOUS
 10
170.358749
 20
38.669609
 11
171.588547
 21
37.428749
  0
LINE
  8
0
  6
CONTINUOUS
 10
170.358749
 20
45.509254
 11
170.358749
 21
38.669609
  0
LINE
  8
0
  6
CONTINUOUS
 10
171.429550
 20
44.828735
 11
171.429550
 21
39.319672
  0
LINE
  8
0
  6
CONTINUOUS
 10
175.812347
 20
45.149792
 11
175.209152
 21
45.721230
  0
LINE
  8
0
  6
CONTINUOUS
 10
175.802750
 20
46.991253
 11
176.733749
 21
45.958111
  0
LINE
  8
0
  6
CONTINUOUS
 10
175.812347
 20
44.999062
 11
176.733749
 21
44.999062
  0
LINE
  8
0
  6
CONTINUOUS
 10
171.516144
 20
46.991253
 11
175.802750
 21
46.991253
  0
LINE
  8
0
  6
CONTINUOUS
 10
175.812347
 20
41.936069
 11
174.143951
 21
41.936069
  0
LINE
  8
0
  6
CONTINUOUS
 10
175.812347
 20
40.939980
 11
175.812347
 21
41.736858
  0
LINE
  8
0
  6
CONTINUOUS
 10
173.820145
 20
38.549358
 11
172.160843
 21
38.549358
  0
ARC
  8
0
  6
CONTINUOUS
 10
173.820145
 20
40.541538
 40
1.992187
 50
-89.999786
 51
0.000109
  0
LINE
  8
0
  6
CONTINUOUS
 10
175.812347
 20
38.191021
 11
175.812347
 21
37.428749
  0
LINE
  8
0
  6
CONTINUOUS
 10
176.733749
 20
45.958111
 11
176.733749
 21
44.999062
  0
LINE
  8
0
  6
CONTINUOUS
 10
175.812347
 20
41.936069
 11
175.812347
 21
40.541538
  0
LINE
  8
0
  6
CONTINUOUS
 10
174.143951
 20
42.981972
 11
174.143951
 21
41.936069
  0
LINE
  8
0
  6
CONTINUOUS
 10
175.812347
 20
37.428749
 11
176.733749
 21
37.428749
  0
LINE
  8
0
  6
CONTINUOUS
 10
175.812347
 20
38.191021
 11
174.903854
 21
37.428749
  0
LINE
  8
0
  6
CONTINUOUS
 10
183.681549
 20
38.474651
 11
184.079956
 21
38.474651
  0
LINE
  8
0
  6
CONTINUOUS
 10
182.013046
 20
38.474651
 11
182.013046
 21
37.428749
  0
LINE
  8
0
  6
CONTINUOUS
 10
184.079956
 20
38.474651
 11
184.079956
 21
37.428749
  0
LINE
  8
0
  6
CONTINUOUS
 10
185.631256
 20
44.999062
 11
186.296249
 21
44.999062
  0
LINE
  8
0
  6
CONTINUOUS
 10
179.921249
 20
44.999062
 11
180.628845
 21
44.999062
  0
LINE
  8
0
  6
CONTINUOUS
 10
179.921249
 20
46.991253
 11
186.296249
 21
46.991253
  0
LINE
  8
0
  6
CONTINUOUS
 10
182.013046
 20
37.428749
 11
184.079956
 21
37.428749
  0
LINE
  8
0
  6
CONTINUOUS
 10
182.013046
 20
38.474651
 11
182.486145
 21
38.474651
  0
ARC
  8
0
  6
CONTINUOUS
 10
193.306244
 20
44.438759
 40
2.552490
 50
-73.981873
 51
90.003510
  0
ARC
  8
0
  6
CONTINUOUS
 10
193.306244
 20
44.438759
 40
1.557193
 50
-82.585274
 51
62.411850
  0
LINE
  8
0
  6
CONTINUOUS
 10
189.483749
 20
46.991253
 11
193.306244
 21
46.991253
  0
LINE
  8
0
  6
CONTINUOUS
 10
189.483749
 20
46.991253
 11
189.483749
 21
45.820843
  0
LINE
  8
0
  6
CONTINUOUS
 10
191.052551
 20
45.820843
 11
191.052551
 21
42.894588
  0
LINE
  8
0
  6
CONTINUOUS
 10
194.010544
 20
41.985371
 11
195.590454
 21
38.424839
  0
LINE
  8
0
  6
CONTINUOUS
 10
193.093048
 20
41.898720
 11
194.588150
 21
38.424839
  0
LINE
  8
0
  6
CONTINUOUS
 10
189.483749
 20
38.424839
 11
189.956848
 21
38.424839
  0
LINE
  8
0
  6
CONTINUOUS
 10
191.052551
 20
38.424839
 11
191.488358
 21
38.424839
  0
LINE
  8
0
  6
CONTINUOUS
 10
191.488358
 20
37.428749
 11
189.483749
 21
37.428749
  0
LINE
  8
0
  6
CONTINUOUS
 10
194.389557
 20
38.424839
 11
194.588150
 21
38.424839
  0
LINE
  8
0
  6
CONTINUOUS
 10
195.590454
 20
38.424839
 11
195.858749
 21
38.424839
  0
LINE
  8
0
  6
CONTINUOUS
 10
194.389557
 20
37.428749
 11
195.858749
 21
37.428749
  0
LINE
  8
0
  6
CONTINUOUS
 10
195.858749
 20
38.424839
 11
195.858749
 21
37.428749
  0
LINE
  8
0
  6
CONTINUOUS
 10
194.389557
 20
38.424839
 11
194.389557
 21
37.428749
  0
LINE
  8
0
  6
CONTINUOUS
 10
191.488358
 20
38.424839
 11
191.488358
 21
37.428749
  0
LINE
  8
0
  6
CONTINUOUS
 10
189.483749
 20
38.424839
 11
189.483749
 21
37.428749
  0
LINE
  8
0
  6
CONTINUOUS
 10
180.971252
 20
45.820843
 11
180.628845
 21
44.999062
  0
LINE
  8
0
  6
CONTINUOUS
 10
185.342545
 20
45.820843
 11
185.631256
 21
44.999062
  0
LINE
  8
0
  6
CONTINUOUS
 10
183.681549
 20
45.820843
 11
185.342545
 21
45.820843
  0
LINE
  8
0
  6
CONTINUOUS
 10
182.486145
 20
45.820843
 11
180.971252
 21
45.820843
  0
LINE
  8
0
  6
CONTINUOUS
 10
189.483749
 20
45.820843
 11
189.956848
 21
45.820843
  0
LINE
  8
0
  6
CONTINUOUS
 10
191.052551
 20
45.820843
 11
194.027451
 21
45.818905
  0
LINE
  8
0
  6
CONTINUOUS
 10
175.812347
 20
45.149792
 11
175.812347
 21
44.999062
  0
LINE
  8
0
  6
CONTINUOUS
 10
171.588547
 20
37.428749
 11
174.903854
 21
37.428749
  0
LINE
  8
0
  6
CONTINUOUS
 10
191.052551
 20
42.894588
 11
193.507248
 21
42.894588
  0
LINE
  8
0
  6
CONTINUOUS
 10
191.052551
 20
41.898720
 11
193.093048
 21
41.898720
  0
LINE
  8
0
  6
CONTINUOUS
 10
174.143951
 20
42.981972
 11
176.733749
 21
42.981972
  0
LINE
  8
0
  6
CONTINUOUS
 10
188.608749
 20
77.428772
 11
188.608749
 21
83.428772
  0
LINE
  8
0
  6
CONTINUOUS
 10
194.608749
 20
77.428787
 11
194.608749
 21
83.428787
  0
LINE
  8
0
  6
CONTINUOUS
 10
194.608749
 20
77.428787
 11
188.608749
 21
77.428772
  0
LINE
  8
0
  6
CONTINUOUS
 10
194.608749
 20
83.428787
 11
188.608749
 21
83.428772
  0
ARC
  8
0
  6
CONTINUOUS
 10
183.108749
 20
80.428749
 40
9.000000
 50
19.471210
 51
340.528809
  0
LINE
  8
0
  6
CENTER
 10
373.108765
 20
-1.357940
 11
373.108765
 21
127.385002
  0
LINE
  8
0
  6
CENTER
 10
317.858765
 20
54.728748
 11
429.345306
 21
54.728748
  0
LINE
  8
0
  6
CONTINUOUS
 10
431.108765
 20
12.428750
 11
431.108765
 21
5.428750
  0
LINE
  8
0
  6
CONTINUOUS
 10
315.108765
 20
12.428750
 11
315.108765
 21
5.428750
  0
LINE
  8
0
  6
CENTER
 10
289.858765
 20
80.428749
 11
454.358765
 21
80.428749
  0
LINE
  8
0
  6
CONTINUOUS
 10
315.108765
 20
5.428750
 11
431.108765
 21
5.428750
  0
LINE
  8
0
  6
CONTINUOUS
 10
413.108765
 20
14.428750
 11
429.108765
 21
14.428750
  0
LINE
  8
0
  6
CONTINUOUS
 10
336.108765
 20
17.428749
 11
336.108765
 21
115.817383
  0
LINE
  8
0
  6
CONTINUOUS
 10
410.108765
 20
17.428749
 11
410.108765
 21
115.817513
  0
LINE
  8
0
  6
CONTINUOUS
 10
415.108765
 20
57.928745
 11
415.108765
 21
102.928749
  0
LINE
  8
0
  6
CONTINUOUS
 10
414.108765
 20
103.928749
 11
412.108765
 21
103.928749
  0
LINE
  8
0
  6
CONTINUOUS
 10
414.108765
 20
56.928745
 11
412.108765
 21
56.928745
  0
LINE
  8
0
  6
CONTINUOUS
 10
373.108765
 20
118.428749
 11
408.143646
 21
117.817223
  0
LINE
  8
0
  6
CONTINUOUS
 10
338.073853
 20
117.817078
 11
373.108765
 21
118.428749
  0
ARC
  8
0
  6
CONTINUOUS
 10
412.108765
 20
105.928749
 40
2.000000
 50
180.000000
 51
270.000000
  0
ARC
  8
0
  6
CONTINUOUS
 10
408.108765
 20
115.817513
 40
2.000000
 50
0.000000
 51
89.000137
  0
ARC
  8
0
  6
CONTINUOUS
 10
338.108765
 20
115.817390
 40
2.000000
 50
91.000641
 51
180.000000
  0
ARC
  8
0
  6
CONTINUOUS
 10
412.108765
 20
54.928757
 40
2.000000
 50
90.000000
 51
180.000000
  0
ARC
  8
0
  6
CONTINUOUS
 10
414.108765
 20
102.928741
 40
1.000000
 50
0.000000
 51
90.000000
  0
ARC
  8
0
  6
CONTINUOUS
 10
414.108765
 20
57.928745
 40
1.000000
 50
-90.000000
 51
0.000000
  0
LINE
  8
0
  6
CONTINUOUS
 10
337.958740
 20
94.928749
 11
408.426941
 21
94.928749
  0
ARC
  8
0
  6
CONTINUOUS
 10
429.108765
 20
12.428740
 40
2.000000
 50
0.000000
 51
90.000000
  0
ARC
  8
0
  6
CONTINUOUS
 10
317.108765
 20
12.428760
 40
2.000000
 50
90.000000
 51
180.000000
  0
LINE
  8
0
  6
CENTER
 10
421.108765
 20
18.385000
 11
421.108765
 21
1.135000
  0
LINE
  8
0
  6
CENTER
 10
325.108765
 20
18.385000
 11
325.108765
 21
0.385000
  0
LINE
  8
0
  6
DASHED
 10
329.358765
 20
14.428750
 11
329.358765
 21
5.428750
  0
LINE
  8
0
  6
DASHED
 10
320.858765
 20
14.428750
 11
320.858765
 21
5.428750
  0
LINE
  8
0
  6
DASHED
 10
425.358765
 20
14.428750
 11
425.358765
 21
5.428750
  0
LINE
  8
0
  6
DASHED
 10
416.858765
 20
14.428750
 11
416.858765
 21
5.428750
  0
ARC
  8
0
  6
CONTINUOUS
 10
373.108765
 20
54.728748
 40
45.000000
 50
159.637695
 51
214.692093
  0
ARC
  8
0
  6
CONTINUOUS
 10
373.108765
 20
54.728748
 40
45.000000
 50
-34.692108
 51
20.437799
  0
LINE
  8
0
  6
CONTINUOUS
 10
331.108765
 20
57.928745
 11
331.108765
 21
102.928749
  0
LINE
  8
0
  6
CONTINUOUS
 10
332.108765
 20
103.928749
 11
334.108765
 21
103.928749
  0
LINE
  8
0
  6
CONTINUOUS
 10
332.108765
 20
56.928745
 11
334.108765
 21
56.928745
  0
ARC
  8
0
  6
CONTINUOUS
 10
334.108765
 20
105.928749
 40
2.000000
 50
-90.000000
 51
0.000000
  0
ARC
  8
0
  6
CONTINUOUS
 10
334.108765
 20
54.928757
 40
2.000000
 50
0.000000
 51
90.000000
  0
ARC
  8
0
  6
CONTINUOUS
 10
332.108765
 20
102.928741
 40
1.000000
 50
90.000000
 51
180.000000
  0
ARC
  8
0
  6
CONTINUOUS
 10
332.108765
 20
57.928745
 40
1.000000
 50
180.000000
 51
270.000000
  0
LINE
  8
0
  6
CONTINUOUS
 10
333.108765
 20
14.428750
 11
317.108765
 21
14.428750
  0
ARC
  8
0
  6
CONTINUOUS
 10
333.108765
 20
17.428749
 40
3.000000
 50
-90.000000
 51
0.000000
  0
ARC
  8
0
  6
CONTINUOUS
 10
413.108765
 20
17.428749
 40
3.000000
 50
180.000000
 51
270.000000
  0
LINE
  8
0
  6
CONTINUOUS
 10
420.108765
 20
28.628229
 11
420.108765
 21
71.428749
  0
LINE
  8
0
  6
CONTINUOUS
 10
326.108765
 20
28.628250
 11
326.108765
 21
71.428749
  0
LINE
  8
0
  6
CONTINUOUS
 10
328.159058
 20
23.678499
 11
335.778046
 21
16.059469
  0
LINE
  8
0
  6
CONTINUOUS
 10
418.058563
 20
23.678499
 11
410.439453
 21
16.059420
  0
ARC
  8
0
  6
CONTINUOUS
 10
333.108765
 20
28.628300
 40
7.000000
 50
180.000000
 51
225.000397
  0
ARC
  8
0
  6
CONTINUOUS
 10
413.108765
 20
28.628210
 40
7.000000
 50
-44.999569
 51
0.000000
  0
LINE
  8
0
  6
CONTINUOUS
 10
447.108765
 20
71.428749
 11
447.108765
 21
89.428749
  0
LINE
  8
0
  6
CONTINUOUS
 10
417.108765
 20
89.428749
 11
447.108765
 21
89.428749
  0
LINE
  8
0
  6
CONTINUOUS
 10
417.108765
 20
71.428749
 11
447.108765
 21
71.428749
  0
LINE
  8
0
  6
CONTINUOUS
 10
417.108765
 20
90.428749
 11
417.108765
 21
70.428749
  0
LINE
  8
0
  6
CONTINUOUS
 10
415.108765
 20
90.428749
 11
417.108765
 21
90.428749
  0
LINE
  8
0
  6
CONTINUOUS
 10
415.108765
 20
70.428749
 11
417.108765
 21
70.428749
  0
ARC
  8
0
  6
CONTINUOUS
 10
423.108765
 20
80.428749
 40
3.000000
 50
90.000000
 51
270.000000
  0
LINE
  8
0
  6
CONTINUOUS
 10
423.108765
 20
83.428749
 11
447.108765
 21
83.428749
  0
LINE
  8
0
  6
CONTINUOUS
 10
423.108765
 20
77.428749
 11
447.108765
 21
77.428749
  0
LINE
  8
0
  6
CONTINUOUS
 10
299.108765
 20
71.428749
 11
299.108765
 21
89.428749
  0
LINE
  8
0
  6
CONTINUOUS
 10
329.108765
 20
89.428749
 11
299.108765
 21
89.428749
  0
LINE
  8
0
  6
CONTINUOUS
 10
329.108765
 20
71.428749
 11
299.108765
 21
71.428749
  0
LINE
  8
0
  6
CONTINUOUS
 10
329.108765
 20
90.428749
 11
329.108765
 21
70.428749
  0
LINE
  8
0
  6
CONTINUOUS
 10
331.108765
 20
90.428749
 11
329.108765
 21
90.428749
  0
LINE
  8
0
  6
CONTINUOUS
 10
331.108765
 20
70.428749
 11
329.108765
 21
70.428749
  0
ARC
  8
0
  6
CONTINUOUS
 10
323.108765
 20
80.428749
 40
3.000000
 50
-90.000000
 51
90.000000
  0
LINE
  8
0
  6
CONTINUOUS
 10
323.108765
 20
83.428749
 11
299.108765
 21
83.428749
  0
LINE
  8
0
  6
CONTINUOUS
 10
323.108765
 20
77.428749
 11
299.108765
 21
77.428749
  0
LINE
  8
0
  6
CENTER
 10
183.108749
 20
335.110626
 11
183.108749
 21
173.940002
  0
LINE
  8
0
  6
CENTER
 10
221.108749
 20
310.742493
 11
221.108749
 21
291.980011
  0
LINE
  8
0
  6
CENTER
 10
-8.167812
 20
254.233124
 11
247.250000
 21
254.233124
  0
LINE
  8
0
  6
CONTINUOUS
 10
232.767868
 20
302.407654
 11
233.608749
 21
254.233124
  0
LINE
  8
0
  6
CONTINUOUS
 10
222.769379
 20
312.233124
 11
194.608749
 21
312.233124
  0
LINE
  8
0
  6
CONTINUOUS
 10
134.608749
 20
291.233124
 11
230.997513
 21
291.233124
  0
ARC
  8
0
  6
CONTINUOUS
 10
222.769379
 20
302.233124
 40
10.000000
 50
1.000000
 51
90.000000
  0
ARC
  8
0
  6
CONTINUOUS
 10
230.997513
 20
289.233124
 40
2.000000
 50
1.000000
 51
90.000000
  0
LINE
  8
0
  6
CENTER
 10
211.513443
 20
302.233124
 11
231.855942
 21
302.233124
  0
CIRCLE
  8
0
  6
CONTINUOUS
 10
221.108749
 20
302.233124
 40
4.250000
  0
LINE
  8
0
  6
CENTER
 10
145.108749
 20
310.940002
 11
145.108749
 21
291.980011
  0
LINE
  8
0
  6
CONTINUOUS
 10
133.449646
 20
302.407654
 11
133.263657
 21
291.753021
  0
ARC
  8
0
  6
CONTINUOUS
 10
143.448120
 20
302.233124
 40
10.000000
 50
90.000000
 51
179.000000
  0
ARC
  8
0
  6
CONTINUOUS
 10
135.219986
 20
289.233124
 40
2.000000
 50
90.000000
 51
179.000000
  0
LINE
  8
0
  6
CENTER
 10
154.435944
 20
302.233124
 11
134.883438
 21
302.233124
  0
CIRCLE
  8
0
  6
CONTINUOUS
 10
145.108749
 20
302.233124
 40
4.250000
  0
LINE
  8
0
  6
CONTINUOUS
 10
132.608749
 20
293.233124
 11
132.608749
 21
297.233124
  0
LINE
  8
0
  6
CONTINUOUS
 10
130.608749
 20
299.233124
 11
60.108749
 21
299.233124
  0
ARC
  8
0
  6
CONTINUOUS
 10
130.608749
 20
297.233124
 40
2.000000
 50
0.000000
 51
90.000000
  0
ARC
  8
0
  6
CONTINUOUS
 10
134.608749
 20
293.233124
 40
2.000000
 50
180.000000
 51
270.000000
  0
LINE
  8
0
  6
CONTINUOUS
 10
133.220291
 20
289.268036
 11
133.114944
 21
283.233124
  0
LINE
  8
0
  6
CONTINUOUS
 10
60.108749
 20
283.233124
 11
139.451294
 21
283.233124
  0
LINE
  8
0
  6
CONTINUOUS
 10
60.108749
 20
225.233124
 11
139.451294
 21
225.233124
  0
LINE
  8
0
  6
CONTINUOUS
 10
130.608749
 20
209.233124
 11
60.108749
 21
209.233124
  0
ARC
  8
0
  6
CONTINUOUS
 10
130.608749
 20
211.233124
 40
2.000000
 50
-90.000000
 51
0.000000
  0
LINE
  8
0
  6
CENTER
 10
221.108749
 20
197.377502
 11
221.108749
 21
216.436249
  0
LINE
  8
0
  6
CONTINUOUS
 10
232.767868
 20
206.058594
 11
233.608749
 21
254.233124
  0
LINE
  8
0
  6
CONTINUOUS
 10
222.769379
 20
196.233124
 11
194.608749
 21
196.233124
  0
LINE
  8
0
  6
CONTINUOUS
 10
134.608749
 20
217.233124
 11
230.997513
 21
217.233124
  0
ARC
  8
0
  6
CONTINUOUS
 10
222.769379
 20
206.233124
 40
10.000000
 50
-90.000000
 51
-1.000000
  0
ARC
  8
0
  6
CONTINUOUS
 10
230.997513
 20
219.233124
 40
2.000000
 50
-90.000000
 51
-1.000000
  0
LINE
  8
0
  6
CENTER
 10
212.007187
 20
206.233124
 11
232.053436
 21
206.233124
  0
CIRCLE
  8
0
  6
CONTINUOUS
 10
221.108749
 20
206.233124
 40
4.250000
  0
LINE
  8
0
  6
CENTER
 10
145.108749
 20
196.883743
 11
145.108749
 21
216.238754
  0
LINE
  8
0
  6
CONTINUOUS
 10
133.449646
 20
206.058594
 11
133.263657
 21
216.713242
  0
ARC
  8
0
  6
CONTINUOUS
 10
143.448120
 20
206.233124
 40
10.000000
 50
-179.000000
 51
-90.000000
  0
ARC
  8
0
  6
CONTINUOUS
 10
135.219986
 20
219.233124
 40
2.000000
 50
-179.000000
 51
-90.000000
  0
LINE
  8
0
  6
CENTER
 10
154.929688
 20
206.233124
 11
134.685944
 21
206.233124
  0
CIRCLE
  8
0
  6
CONTINUOUS
 10
145.108749
 20
206.233124
 40
4.250000
  0
LINE
  8
0
  6
CONTINUOUS
 10
132.608749
 20
215.233124
 11
132.608749
 21
211.233124
  0
ARC
  8
0
  6
CONTINUOUS
 10
134.608749
 20
215.233124
 40
2.000000
 50
-270.000000
 51
-180.000000
  0
LINE
  8
0
  6
CONTINUOUS
 10
133.220291
 20
219.198227
 11
133.114944
 21
225.233124
  0
LINE
  8
0
  6
CONTINUOUS
 10
166.108749
 20
286.233124
 11
166.108749
 21
222.233124
  0
LINE
  8
0
  6
CONTINUOUS
 10
200.108749
 20
286.233124
 11
200.108749
 21
222.233124
  0
LINE
  8
0
  6
CONTINUOUS
 10
139.451294
 20
281.233124
 11
139.451294
 21
227.233124
  0
LINE
  8
0
  6
CONTINUOUS
 10
205.608749
 20
296.233124
 11
160.608749
 21
296.233124
  0
LINE
  8
0
  6
CONTINUOUS
 10
159.608749
 20
295.233124
 11
159.608749
 21
293.233124
  0
LINE
  8
0
  6
CONTINUOUS
 10
206.608749
 20
295.233124
 11
206.608749
 21
293.233124
  0
ARC
  8
0
  6
CONTINUOUS
 10
157.608749
 20
293.233124
 40
2.000000
 50
-90.000000
 51
0.000000
  0
ARC
  8
0
  6
CONTINUOUS
 10
208.608749
 20
293.233124
 40
2.000000
 50
180.000000
 51
270.000000
  0
ARC
  8
0
  6
CONTINUOUS
 10
160.608765
 20
295.233124
 40
1.000000
 50
90.000000
 51
180.000000
  0
ARC
  8
0
  6
CONTINUOUS
 10
205.608749
 20
295.233124
 40
1.000000
 50
0.000000
 51
90.000000
  0
LINE
  8
0
  6
CONTINUOUS
 10
194.608749
 20
328.233124
 11
174.108749
 21
328.233124
  0
LINE
  8
0
  6
CONTINUOUS
 10
174.108749
 20
298.233124
 11
174.108749
 21
328.233124
  0
LINE
  8
0
  6
CONTINUOUS
 10
192.108749
 20
298.233124
 11
192.108749
 21
301.233124
  0
LINE
  8
0
  6
CONTINUOUS
 10
173.108749
 20
298.233124
 11
193.108749
 21
298.233124
  0
LINE
  8
0
  6
CONTINUOUS
 10
173.108749
 20
296.233124
 11
173.108749
 21
298.233124
  0
LINE
  8
0
  6
CONTINUOUS
 10
193.108749
 20
296.233124
 11
193.108749
 21
298.233124
  0
LINE
  8
0
  6
CONTINUOUS
 10
194.608749
 20
328.233124
 11
194.608749
 21
301.233124
  0
LINE
  8
0
  6
CONTINUOUS
 10
194.608749
 20
301.233124
 11
191.593750
 21
301.233124
  0
LINE
  8
0
  6
CONTINUOUS
 10
191.593750
 20
328.233124
 11
191.593750
 21
301.233124
  0
LINE
  8
0
  6
CONTINUOUS
 10
174.108749
 20
312.233124
 11
143.448120
 21
312.233124
  0
LINE
  8
0
  6
CONTINUOUS
 10
205.608749
 20
212.233124
 11
160.608749
 21
212.233124
  0
LINE
  8
0
  6
CONTINUOUS
 10
159.608749
 20
213.233124
 11
159.608749
 21
215.233124
  0
LINE
  8
0
  6
CONTINUOUS
 10
206.608749
 20
213.233124
 11
206.608749
 21
215.233124
  0
ARC
  8
0
  6
CONTINUOUS
 10
157.608749
 20
215.233124
 40
2.000000
 50
0.000000
 51
90.000000
  0
ARC
  8
0
  6
CONTINUOUS
 10
208.608749
 20
215.233124
 40
2.000000
 50
-270.000000
 51
-180.000000
  0
ARC
  8
0
  6
CONTINUOUS
 10
160.608765
 20
213.233124
 40
1.000000
 50
-180.000000
 51
-90.000000
  0
ARC
  8
0
  6
CONTINUOUS
 10
205.608749
 20
213.233124
 40
1.000000
 50
-90.000000
 51
0.000000
  0
LINE
  8
0
  6
CONTINUOUS
 10
194.608749
 20
180.233124
 11
174.108749
 21
180.233124
  0
LINE
  8
0
  6
CONTINUOUS
 10
174.108749
 20
210.233124
 11
174.108749
 21
180.233124
  0
LINE
  8
0
  6
CONTINUOUS
 10
192.108749
 20
210.233124
 11
192.108749
 21
207.233124
  0
LINE
  8
0
  6
CONTINUOUS
 10
173.108749
 20
210.233124
 11
193.108749
 21
210.233124
  0
LINE
  8
0
  6
CONTINUOUS
 10
173.108749
 20
212.233124
 11
173.108749
 21
210.233124
  0
LINE
  8
0
  6
CONTINUOUS
 10
193.108749
 20
212.233124
 11
193.108749
 21
210.233124
  0
LINE
  8
0
  6
CONTINUOUS
 10
194.608749
 20
180.233124
 11
194.608749
 21
207.233124
  0
LINE
  8
0
  6
CONTINUOUS
 10
194.608749
 20
207.233124
 11
191.593750
 21
207.233124
  0
LINE
  8
0
  6
CONTINUOUS
 10
191.593750
 20
180.233124
 11
191.593750
 21
207.233124
  0
LINE
  8
0
  6
CONTINUOUS
 10
174.108749
 20
196.233124
 11
143.448120
 21
196.233124
  0
LINE
  8
0
  6
CONTINUOUS
 10
50.608749
 20
299.233124
 11
60.108749
 21
299.233124
  0
LINE
  8
0
  6
CONTINUOUS
 10
60.108749
 20
283.233124
 11
50.608749
 21
283.233124
  0
LINE
  8
0
  6
CONTINUOUS
 10
50.608749
 20
209.233124
 11
60.108749
 21
209.233124
  0
LINE
  8
0
  6
CONTINUOUS
 10
60.108749
 20
209.233124
 11
60.108749
 21
247.367096
  0
LINE
  8
0
  6
CONTINUOUS
 10
60.108749
 20
225.233124
 11
50.608749
 21
225.233124
  0
LINE
  8
0
  6
CONTINUOUS
 10
53.608749
 20
248.233124
 11
53.608749
 21
260.233124
  0
LINE
  8
0
  6
CONTINUOUS
 10
60.608749
 20
248.233124
 11
60.608749
 21
260.233124
  0
LINE
  8
0
  6
CONTINUOUS
 10
54.608749
 20
261.233124
 11
59.608749
 21
261.233124
  0
LINE
  8
0
  6
CONTINUOUS
 10
59.608749
 20
247.233124
 11
54.608749
 21
247.233124
  0
ARC
  8
0
  6
CONTINUOUS
 10
59.608749
 20
260.233124
 40
1.000000
 50
0.000000
 51
90.000000
  0
ARC
  8
0
  6
CONTINUOUS
 10
54.608749
 20
260.233124
 40
1.000000
 50
90.000000
 51
180.000000
  0
ARC
  8
0
  6
CONTINUOUS
 10
54.608749
 20
248.233124
 40
1.000000
 50
180.000000
 51
270.000000
  0
ARC
  8
0
  6
CONTINUOUS
 10
59.608749
 20
248.233124
 40
1.000000
 50
-90.000000
 51
0.000000
  0
LINE
  8
0
  6
CONTINUOUS
 10
58.108749
 20
250.733124
 11
58.108749
 21
257.733124
  0
LINE
  8
0
  6
CONTINUOUS
 10
56.108749
 20
250.733124
 11
56.108749
 21
257.733124
  0
ARC
  8
0
  6
CONTINUOUS
 10
57.108749
 20
257.733124
 40
1.000000
 50
90.000000
 51
180.000000
  0
ARC
  8
0
  6
CONTINUOUS
 10
57.108749
 20
257.733124
 40
1.000000
 50
0.000000
 51
90.000000
  0
ARC
  8
0
  6
CONTINUOUS
 10
57.108749
 20
250.733124
 40
1.000000
 50
180.000000
 51
270.000000
  0
ARC
  8
0
  6
CONTINUOUS
 10
57.108749
 20
250.733124
 40
1.000000
 50
-90.000000
 51
0.000000
  0
LINE
  8
0
  6
CONTINUOUS
 10
60.108749
 20
261.099152
 11
60.108749
 21
299.233124
  0
LINE
  8
0
  6
CONTINUOUS
 10
50.608749
 20
301.233124
 11
50.608749
 21
207.233124
  0
LINE
  8
0
  6
CONTINUOUS
 10
50.608749
 20
283.233124
 11
6.633720
 21
283.233124
  0
LINE
  8
0
  6
CONTINUOUS
 10
50.608749
 20
225.233124
 11
6.633720
 21
225.233124
  0
LINE
  8
0
  6
CONTINUOUS
 10
8.108730
 20
301.233124
 11
50.608749
 21
301.233124
  0
LINE
  8
0
  6
CONTINUOUS
 10
8.108730
 20
207.233124
 11
50.608749
 21
207.233124
  0
ARC
  8
0
  6
CONTINUOUS
 10
8.108760
 20
296.233124
 40
5.000000
 50
90.000000
 51
180.000000
  0
ARC
  8
0
  6
CONTINUOUS
 10
8.108730
 20
212.233124
 40
5.000000
 50
180.000000
 51
270.000000
  0
LINE
  8
0
  6
CONTINUOUS
 10
3.108760
 20
296.233124
 11
3.108730
 21
212.233109
  0
TEXT
  8
0
 10
-8.000000
 20
-1.000000
 40
4.000000
 41
1.000000
  1
HLM-18T-10~240-S60W
 50
0.000000
  0
ENDSEC
  0
EOF
