  0
SECTION
  2
HEADER
  9
$CLAYER
  8
1
  9
$LTSCALE
 40
3.0
  0
ENDSEC
  0
SECTION
  2
TABLES
  0
TABLE
  2
LTYPE
 70
     4
  0
LTYPE
  2
CONTINUOUS
  3
solid line
 70
    64
 72
    65
 73
     0
 40
0.0
  0
LTYPE
  2
DASHED
  3
__ __ __ __ __ __ __ __ __ __ __ __ __ __ __
 70
    64
 72
    65
 73
     2
 40
0.75
 49
0.5
 49
-0.25
  0
LTYPE
  2
CENTER
  3
____ _ ____ _ ____ _ ____ _ ____ _ ____ _ ____
 70
    64
 72
    65
 73
     4
 40
2.0
 49
1.25
 49
-0.25
 49
0.25
 49
-0.25
  0
LTYPE
  2
PHANTOM
  3
_____ _ _ _____ _ _ _____ _ _ _____ _ _ ____
 70
    64
 72
    65
 73
     6
 40
2.5
 49
1.25
 49
-0.25
 49
0.25
 49
-0.25
 49
0.25
 49
-0.25
  0
ENDTAB
  0
TABLE
  2
LAYER
 70
     1
  0
LAYER
  2
0
 70
    64
 62
     7
  6
CONTINUOUS
  0
ENDTAB
  0
TABLE
  2
STYLE
 70
     1
  0
STYLE
  2
STANDARD
 70
     0
 40
0.000000
 41
1.000000
 50
0.000000
 71
     0
 42
3.000000
  3
txt
  4
BIGFONT
  0
ENDTAB
  0
ENDSEC
  0
SECTION
  2
BLOCKS
  0
ENDSEC
  0
SECTION
  2
ENTITIES
  0
LINE
  8
0
  6
CONTINUOUS
 10
53.607491
 20
94.695000
 11
63.107491
 21
94.695000
  0
LINE
  8
0
  6
CONTINUOUS
 10
63.107491
 20
84.104301
 11
53.607491
 21
84.104301
  0
LINE
  8
0
  6
CONTINUOUS
 10
53.607491
 20
4.695000
 11
63.107491
 21
4.695000
  0
LINE
  8
0
  6
CONTINUOUS
 10
63.107491
 20
15.285700
 11
53.607491
 21
15.285700
  0
LINE
  8
0
  6
CONTINUOUS
 10
53.607491
 20
96.695000
 11
53.607491
 21
2.695000
  0
LINE
  8
0
  6
CONTINUOUS
 10
53.607491
 20
78.695000
 11
9.632490
 21
78.695000
  0
LINE
  8
0
  6
CONTINUOUS
 10
53.607491
 20
20.695000
 11
9.632489
 21
20.695000
  0
LINE
  8
0
  6
CONTINUOUS
 10
11.107488
 20
96.695000
 11
53.607491
 21
96.695000
  0
LINE
  8
0
  6
CONTINUOUS
 10
11.107488
 20
2.695000
 11
53.607491
 21
2.695000
  0
ARC
  8
0
  6
CONTINUOUS
 10
11.107513
 20
91.695030
 40
5.000000
 50
90.000000
 51
180.000000
  0
ARC
  8
0
  6
CONTINUOUS
 10
11.107487
 20
7.695000
 40
5.000000
 50
180.000000
 51
270.000000
  0
LINE
  8
0
  6
CONTINUOUS
 10
6.107513
 20
91.695007
 11
6.107488
 21
7.694990
  0
LINE
  8
0
  6
CONTINUOUS
 10
63.107491
 20
4.695000
 11
63.107491
 21
94.695000
  0
LINE
  8
0
  6
CENTER
 10
-5.963437
 20
49.695000
 11
158.897003
 21
49.695000
  0
LINE
  8
0
  6
CONTINUOUS
 10
236.607498
 20
7.395000
 11
236.607498
 21
0.395000
  0
LINE
  8
0
  6
CONTINUOUS
 10
63.107491
 20
4.695000
 11
135.607498
 21
4.695000
  0
LINE
  8
0
  6
CONTINUOUS
 10
63.107491
 20
94.695000
 11
142.449997
 21
94.695000
  0
LINE
  8
0
  6
CENTER
 10
186.107498
 20
123.382500
 11
186.107498
 21
-6.824100
  0
LINE
  8
0
  6
CENTER
 10
150.594803
 20
75.394997
 11
221.029221
 21
75.394997
  0
LINE
  8
0
  6
CONTINUOUS
 10
135.607498
 20
0.395000
 11
236.607498
 21
0.395000
  0
LINE
  8
0
  6
CONTINUOUS
 10
170.686401
 20
113.394997
 11
201.528595
 21
113.394997
  0
LINE
  8
0
  6
CONTINUOUS
 10
137.607498
 20
9.395000
 11
234.607498
 21
9.395000
  0
LINE
  8
0
  6
CENTER
 10
224.107498
 20
14.882500
 11
224.107498
 21
-6.367500
  0
LINE
  8
0
  6
CENTER
 10
148.107498
 20
15.132500
 11
148.107498
 21
-6.867500
  0
LINE
  8
0
  6
CONTINUOUS
 10
234.478897
 20
91.388184
 11
204.399994
 21
112.488289
  0
LINE
  8
0
  6
CONTINUOUS
 10
137.736099
 20
91.388184
 11
167.815002
 21
112.488281
  0
ARC
  8
0
  6
CONTINUOUS
 10
201.528702
 20
108.394989
 40
5.000000
 50
54.950878
 51
90.000000
  0
ARC
  8
0
  6
CONTINUOUS
 10
170.686401
 20
108.394997
 40
5.000000
 50
90.000000
 51
125.049698
  0
ARC
  8
0
  6
CONTINUOUS
 10
140.607498
 20
87.294930
 40
5.000000
 50
125.049797
 51
180.000000
  0
ARC
  8
0
  6
CONTINUOUS
 10
231.607498
 20
87.294884
 40
5.000000
 50
0.000000
 51
54.950901
  0
LINE
  8
0
  6
CONTINUOUS
 10
236.607498
 20
7.395000
 11
236.607498
 21
87.294899
  0
ARC
  8
0
  6
CONTINUOUS
 10
234.607498
 20
7.394990
 40
2.000000
 50
0.000000
 51
90.000000
  0
LINE
  8
0
  6
CONTINUOUS
 10
135.607498
 20
87.294930
 11
135.607498
 21
87.294899
  0
ARC
  8
0
  6
CONTINUOUS
 10
137.607498
 20
7.395000
 40
2.000000
 50
90.000000
 51
180.000000
  0
LINE
  8
0
  6
DASHED
 10
228.357498
 20
9.395000
 11
228.357498
 21
0.395000
  0
LINE
  8
0
  6
DASHED
 10
219.857498
 20
9.395000
 11
219.857498
 21
0.395000
  0
LINE
  8
0
  6
DASHED
 10
152.357498
 20
9.395000
 11
152.357498
 21
0.395000
  0
LINE
  8
0
  6
DASHED
 10
143.857498
 20
9.395000
 11
143.857498
 21
0.395000
  0
CIRCLE
  8
0
  6
CONTINUOUS
 10
186.107498
 20
75.394997
 40
23.500000
  0
LINE
  8
0
  6
CONTINUOUS
 10
138.107498
 20
76.087189
 11
138.107498
 21
44.702484
  0
LINE
  8
0
  6
CONTINUOUS
 10
234.107498
 20
76.087357
 11
234.107498
 21
44.702648
  0
ARC
  8
0
  6
CONTINUOUS
 10
186.107498
 20
60.395000
 40
50.500000
 50
198.103806
 51
341.896210
  0
LINE
  8
0
  6
CONTINUOUS
 10
135.607498
 20
87.294907
 11
135.607407
 21
0.395000
  0
ARC
  8
0
  6
CONTINUOUS
 10
186.107498
 20
60.395000
 40
50.500000
 50
18.103790
 51
161.896194
  0
LINE
  8
0
  6
CONTINUOUS
 10
63.107491
 20
84.104301
 11
133.990402
 21
84.104301
  0
LINE
  8
0
  6
CONTINUOUS
 10
63.107491
 20
15.285700
 11
133.990402
 21
15.285700
  0
LINE
  8
0
  6
CONTINUOUS
 10
179.732498
 20
37.948219
 11
179.732498
 21
32.395000
  0
LINE
  8
0
  6
CONTINUOUS
 10
182.919998
 20
39.965313
 11
182.919998
 21
41.957500
  0
LINE
  8
0
  6
CONTINUOUS
 10
189.294998
 20
39.965313
 11
189.294998
 21
41.957500
  0
LINE
  8
0
  6
CONTINUOUS
 10
185.484894
 20
40.787090
 11
185.484894
 21
33.440899
  0
LINE
  8
0
  6
CONTINUOUS
 10
186.680298
 20
40.787090
 11
186.680298
 21
33.440899
  0
LINE
  8
0
  6
CONTINUOUS
 10
192.955597
 20
40.787090
 11
192.955597
 21
33.391090
  0
LINE
  8
0
  6
CONTINUOUS
 10
194.051300
 20
36.864971
 11
194.051300
 21
33.391090
  0
LINE
  8
0
  6
CONTINUOUS
 10
178.220001
 20
40.687481
 11
175.148102
 21
40.687481
  0
LINE
  8
0
  6
CONTINUOUS
 10
175.148102
 20
40.687481
 11
174.428299
 21
39.794987
  0
LINE
  8
0
  6
CONTINUOUS
 10
174.514893
 20
41.957500
 11
173.357498
 21
40.475506
  0
LINE
  8
0
  6
CONTINUOUS
 10
174.428299
 20
34.285919
 11
175.159607
 21
33.515610
  0
LINE
  8
0
  6
CONTINUOUS
 10
173.357498
 20
33.635860
 11
174.587296
 21
32.395000
  0
LINE
  8
0
  6
CONTINUOUS
 10
173.357498
 20
40.475506
 11
173.357498
 21
33.635860
  0
LINE
  8
0
  6
CONTINUOUS
 10
174.428299
 20
39.794987
 11
174.428299
 21
34.285919
  0
LINE
  8
0
  6
CONTINUOUS
 10
178.811096
 20
40.116039
 11
178.207901
 21
40.687481
  0
LINE
  8
0
  6
CONTINUOUS
 10
178.801498
 20
41.957500
 11
179.732498
 21
40.924358
  0
LINE
  8
0
  6
CONTINUOUS
 10
178.811096
 20
39.965313
 11
179.732498
 21
39.965313
  0
LINE
  8
0
  6
CONTINUOUS
 10
174.514893
 20
41.957500
 11
178.801498
 21
41.957500
  0
LINE
  8
0
  6
CONTINUOUS
 10
178.811096
 20
36.902321
 11
177.142700
 21
36.902321
  0
LINE
  8
0
  6
CONTINUOUS
 10
178.811096
 20
35.906231
 11
178.811096
 21
36.703110
  0
LINE
  8
0
  6
CONTINUOUS
 10
176.818893
 20
33.515610
 11
175.159607
 21
33.515610
  0
ARC
  8
0
  6
CONTINUOUS
 10
176.818893
 20
35.507790
 40
1.992187
 50
-89.999786
 51
0.000109
  0
LINE
  8
0
  6
CONTINUOUS
 10
178.811096
 20
33.157269
 11
178.811096
 21
32.395000
  0
LINE
  8
0
  6
CONTINUOUS
 10
179.732498
 20
40.924358
 11
179.732498
 21
39.965313
  0
LINE
  8
0
  6
CONTINUOUS
 10
178.811096
 20
36.902321
 11
178.811096
 21
35.507790
  0
LINE
  8
0
  6
CONTINUOUS
 10
177.142700
 20
37.948219
 11
177.142700
 21
36.902321
  0
LINE
  8
0
  6
CONTINUOUS
 10
178.811096
 20
32.395000
 11
179.732498
 21
32.395000
  0
LINE
  8
0
  6
CONTINUOUS
 10
178.811096
 20
33.157269
 11
177.902603
 21
32.395000
  0
LINE
  8
0
  6
CONTINUOUS
 10
186.680298
 20
33.440899
 11
187.078705
 21
33.440899
  0
LINE
  8
0
  6
CONTINUOUS
 10
185.011795
 20
33.440899
 11
185.011795
 21
32.395000
  0
LINE
  8
0
  6
CONTINUOUS
 10
187.078705
 20
33.440899
 11
187.078705
 21
32.395000
  0
LINE
  8
0
  6
CONTINUOUS
 10
188.630005
 20
39.965313
 11
189.294998
 21
39.965313
  0
LINE
  8
0
  6
CONTINUOUS
 10
182.919998
 20
39.965313
 11
183.627594
 21
39.965313
  0
LINE
  8
0
  6
CONTINUOUS
 10
182.919998
 20
41.957500
 11
189.294998
 21
41.957500
  0
LINE
  8
0
  6
CONTINUOUS
 10
185.011795
 20
32.395000
 11
187.078705
 21
32.395000
  0
LINE
  8
0
  6
CONTINUOUS
 10
185.011795
 20
33.440899
 11
185.484894
 21
33.440899
  0
ARC
  8
0
  6
CONTINUOUS
 10
196.304993
 20
39.405010
 40
2.552490
 50
-73.981873
 51
90.003510
  0
ARC
  8
0
  6
CONTINUOUS
 10
196.304993
 20
39.405010
 40
1.557193
 50
-82.585274
 51
62.411850
  0
LINE
  8
0
  6
CONTINUOUS
 10
192.482498
 20
41.957500
 11
196.304993
 21
41.957500
  0
LINE
  8
0
  6
CONTINUOUS
 10
192.482498
 20
41.957500
 11
192.482498
 21
40.787090
  0
LINE
  8
0
  6
CONTINUOUS
 10
194.051300
 20
40.787090
 11
194.051300
 21
37.860840
  0
LINE
  8
0
  6
CONTINUOUS
 10
197.009293
 20
36.951618
 11
198.589203
 21
33.391090
  0
LINE
  8
0
  6
CONTINUOUS
 10
196.091797
 20
36.864971
 11
197.586899
 21
33.391090
  0
LINE
  8
0
  6
CONTINUOUS
 10
192.482498
 20
33.391090
 11
192.955597
 21
33.391090
  0
LINE
  8
0
  6
CONTINUOUS
 10
194.051300
 20
33.391090
 11
194.487106
 21
33.391090
  0
LINE
  8
0
  6
CONTINUOUS
 10
194.487106
 20
32.395000
 11
192.482498
 21
32.395000
  0
LINE
  8
0
  6
CONTINUOUS
 10
197.388306
 20
33.391090
 11
197.586899
 21
33.391090
  0
LINE
  8
0
  6
CONTINUOUS
 10
198.589203
 20
33.391090
 11
198.857498
 21
33.391090
  0
LINE
  8
0
  6
CONTINUOUS
 10
197.388306
 20
32.395000
 11
198.857498
 21
32.395000
  0
LINE
  8
0
  6
CONTINUOUS
 10
198.857498
 20
33.391090
 11
198.857498
 21
32.395000
  0
LINE
  8
0
  6
CONTINUOUS
 10
197.388306
 20
33.391090
 11
197.388306
 21
32.395000
  0
LINE
  8
0
  6
CONTINUOUS
 10
194.487106
 20
33.391090
 11
194.487106
 21
32.395000
  0
LINE
  8
0
  6
CONTINUOUS
 10
192.482498
 20
33.391090
 11
192.482498
 21
32.395000
  0
LINE
  8
0
  6
CONTINUOUS
 10
183.970001
 20
40.787090
 11
183.627594
 21
39.965313
  0
LINE
  8
0
  6
CONTINUOUS
 10
188.341293
 20
40.787090
 11
188.630005
 21
39.965313
  0
LINE
  8
0
  6
CONTINUOUS
 10
186.680298
 20
40.787090
 11
188.341293
 21
40.787090
  0
LINE
  8
0
  6
CONTINUOUS
 10
185.484894
 20
40.787090
 11
183.970001
 21
40.787090
  0
LINE
  8
0
  6
CONTINUOUS
 10
192.482498
 20
40.787090
 11
192.955597
 21
40.787090
  0
LINE
  8
0
  6
CONTINUOUS
 10
194.051300
 20
40.787090
 11
197.026199
 21
40.785152
  0
LINE
  8
0
  6
CONTINUOUS
 10
178.811096
 20
40.116039
 11
178.811096
 21
39.965313
  0
LINE
  8
0
  6
CONTINUOUS
 10
174.587296
 20
32.395000
 11
177.902603
 21
32.395000
  0
LINE
  8
0
  6
CONTINUOUS
 10
194.051300
 20
37.860840
 11
196.505997
 21
37.860840
  0
LINE
  8
0
  6
CONTINUOUS
 10
194.051300
 20
36.864971
 11
196.091797
 21
36.864971
  0
LINE
  8
0
  6
CONTINUOUS
 10
177.142700
 20
37.948219
 11
179.732498
 21
37.948219
  0
LINE
  8
0
  6
CONTINUOUS
 10
191.607498
 20
72.395020
 11
191.607498
 21
78.395020
  0
LINE
  8
0
  6
CONTINUOUS
 10
197.607498
 20
72.395042
 11
197.607498
 21
78.395042
  0
LINE
  8
0
  6
CONTINUOUS
 10
197.607498
 20
72.395042
 11
191.607498
 21
72.395020
  0
LINE
  8
0
  6
CONTINUOUS
 10
197.607498
 20
78.395042
 11
191.607498
 21
78.395020
  0
ARC
  8
0
  6
CONTINUOUS
 10
186.107498
 20
75.394997
 40
9.000000
 50
19.471210
 51
340.528809
  0
LINE
  8
0
  6
CENTER
 10
376.107513
 20
-6.391690
 11
376.107513
 21
151.770630
  0
LINE
  8
0
  6
CENTER
 10
320.857513
 20
49.695000
 11
432.396240
 21
49.695000
  0
LINE
  8
0
  6
CONTINUOUS
 10
434.107513
 20
7.395000
 11
434.107513
 21
0.395000
  0
LINE
  8
0
  6
CONTINUOUS
 10
318.107513
 20
7.395000
 11
318.107513
 21
0.395000
  0
LINE
  8
0
  6
CENTER
 10
292.857513
 20
75.394997
 11
457.357513
 21
75.394997
  0
LINE
  8
0
  6
CONTINUOUS
 10
318.107513
 20
0.395000
 11
434.107513
 21
0.395000
  0
LINE
  8
0
  6
CONTINUOUS
 10
416.107513
 20
9.395000
 11
432.107513
 21
9.395000
  0
LINE
  8
0
  6
CONTINUOUS
 10
339.107513
 20
12.395000
 11
339.107513
 21
110.783630
  0
LINE
  8
0
  6
CONTINUOUS
 10
413.107513
 20
12.395000
 11
413.107513
 21
110.783760
  0
LINE
  8
0
  6
CONTINUOUS
 10
418.107513
 20
52.894997
 11
418.107513
 21
97.894997
  0
LINE
  8
0
  6
CONTINUOUS
 10
417.107513
 20
98.894997
 11
415.107513
 21
98.894997
  0
LINE
  8
0
  6
CONTINUOUS
 10
417.107513
 20
51.894997
 11
415.107513
 21
51.894997
  0
LINE
  8
0
  6
CONTINUOUS
 10
376.107513
 20
113.394997
 11
411.142395
 21
112.783470
  0
LINE
  8
0
  6
CONTINUOUS
 10
341.072601
 20
112.783333
 11
376.107513
 21
113.394997
  0
ARC
  8
0
  6
CONTINUOUS
 10
415.107513
 20
100.894997
 40
2.000000
 50
180.000000
 51
270.000000
  0
ARC
  8
0
  6
CONTINUOUS
 10
411.107513
 20
110.783760
 40
2.000000
 50
0.000000
 51
89.000137
  0
ARC
  8
0
  6
CONTINUOUS
 10
341.107513
 20
110.783638
 40
2.000000
 50
91.000641
 51
180.000000
  0
ARC
  8
0
  6
CONTINUOUS
 10
415.107513
 20
49.895008
 40
2.000000
 50
90.000000
 51
180.000000
  0
ARC
  8
0
  6
CONTINUOUS
 10
417.107513
 20
97.894989
 40
1.000000
 50
0.000000
 51
90.000000
  0
ARC
  8
0
  6
CONTINUOUS
 10
417.107513
 20
52.894997
 40
1.000000
 50
-90.000000
 51
0.000000
  0
LINE
  8
0
  6
CONTINUOUS
 10
340.957489
 20
89.894997
 11
411.425690
 21
89.894997
  0
ARC
  8
0
  6
CONTINUOUS
 10
432.107513
 20
7.394990
 40
2.000000
 50
0.000000
 51
90.000000
  0
ARC
  8
0
  6
CONTINUOUS
 10
320.107513
 20
7.395010
 40
2.000000
 50
90.000000
 51
180.000000
  0
LINE
  8
0
  6
CENTER
 10
424.107513
 20
13.351250
 11
424.107513
 21
-3.898750
  0
LINE
  8
0
  6
CENTER
 10
328.107513
 20
13.351250
 11
328.107513
 21
-4.648750
  0
LINE
  8
0
  6
DASHED
 10
332.357513
 20
9.395000
 11
332.357513
 21
0.395000
  0
LINE
  8
0
  6
DASHED
 10
323.857513
 20
9.395000
 11
323.857513
 21
0.395000
  0
LINE
  8
0
  6
DASHED
 10
428.357513
 20
9.395000
 11
428.357513
 21
0.395000
  0
LINE
  8
0
  6
DASHED
 10
419.857513
 20
9.395000
 11
419.857513
 21
0.395000
  0
ARC
  8
0
  6
CONTINUOUS
 10
376.107513
 20
49.695000
 40
45.000000
 50
159.637695
 51
214.692093
  0
ARC
  8
0
  6
CONTINUOUS
 10
376.107513
 20
49.695000
 40
45.000000
 50
-34.692108
 51
20.437799
  0
LINE
  8
0
  6
CONTINUOUS
 10
334.107513
 20
52.894997
 11
334.107513
 21
97.894997
  0
LINE
  8
0
  6
CONTINUOUS
 10
335.107513
 20
98.894997
 11
337.107513
 21
98.894997
  0
LINE
  8
0
  6
CONTINUOUS
 10
335.107513
 20
51.894997
 11
337.107513
 21
51.894997
  0
ARC
  8
0
  6
CONTINUOUS
 10
337.107513
 20
100.894997
 40
2.000000
 50
-90.000000
 51
0.000000
  0
ARC
  8
0
  6
CONTINUOUS
 10
337.107513
 20
49.895008
 40
2.000000
 50
0.000000
 51
90.000000
  0
ARC
  8
0
  6
CONTINUOUS
 10
335.107513
 20
97.894989
 40
1.000000
 50
90.000000
 51
180.000000
  0
ARC
  8
0
  6
CONTINUOUS
 10
335.107513
 20
52.894997
 40
1.000000
 50
180.000000
 51
270.000000
  0
LINE
  8
0
  6
CONTINUOUS
 10
336.107513
 20
9.395000
 11
320.107513
 21
9.395000
  0
ARC
  8
0
  6
CONTINUOUS
 10
336.107513
 20
12.395000
 40
3.000000
 50
-90.000000
 51
0.000000
  0
ARC
  8
0
  6
CONTINUOUS
 10
416.107513
 20
12.395000
 40
3.000000
 50
180.000000
 51
270.000000
  0
LINE
  8
0
  6
CONTINUOUS
 10
423.107513
 20
23.594481
 11
423.107513
 21
66.394997
  0
LINE
  8
0
  6
CONTINUOUS
 10
329.107513
 20
23.594500
 11
329.107513
 21
66.394997
  0
LINE
  8
0
  6
CONTINUOUS
 10
331.157806
 20
18.644751
 11
338.776794
 21
11.025720
  0
LINE
  8
0
  6
CONTINUOUS
 10
421.057312
 20
18.644751
 11
413.438202
 21
11.025670
  0
ARC
  8
0
  6
CONTINUOUS
 10
336.107513
 20
23.594549
 40
7.000000
 50
180.000000
 51
225.000397
  0
ARC
  8
0
  6
CONTINUOUS
 10
416.107513
 20
23.594460
 40
7.000000
 50
-44.999569
 51
0.000000
  0
LINE
  8
0
  6
CONTINUOUS
 10
450.107513
 20
66.394997
 11
450.107513
 21
84.394997
  0
LINE
  8
0
  6
CONTINUOUS
 10
420.107513
 20
84.394997
 11
450.107513
 21
84.394997
  0
LINE
  8
0
  6
CONTINUOUS
 10
420.107513
 20
66.394997
 11
450.107513
 21
66.394997
  0
LINE
  8
0
  6
CONTINUOUS
 10
420.107513
 20
85.394997
 11
420.107513
 21
65.394997
  0
LINE
  8
0
  6
CONTINUOUS
 10
418.107513
 20
85.394997
 11
420.107513
 21
85.394997
  0
LINE
  8
0
  6
CONTINUOUS
 10
418.107513
 20
65.394997
 11
420.107513
 21
65.394997
  0
ARC
  8
0
  6
CONTINUOUS
 10
426.107513
 20
75.394997
 40
3.000000
 50
90.000000
 51
270.000000
  0
LINE
  8
0
  6
CONTINUOUS
 10
426.107513
 20
78.394997
 11
450.107513
 21
78.394997
  0
LINE
  8
0
  6
CONTINUOUS
 10
426.107513
 20
72.394997
 11
450.107513
 21
72.394997
  0
LINE
  8
0
  6
CONTINUOUS
 10
302.107513
 20
66.394997
 11
302.107513
 21
84.394997
  0
LINE
  8
0
  6
CONTINUOUS
 10
332.107513
 20
84.394997
 11
302.107513
 21
84.394997
  0
LINE
  8
0
  6
CONTINUOUS
 10
332.107513
 20
66.394997
 11
302.107513
 21
66.394997
  0
LINE
  8
0
  6
CONTINUOUS
 10
332.107513
 20
85.394997
 11
332.107513
 21
65.394997
  0
LINE
  8
0
  6
CONTINUOUS
 10
334.107513
 20
85.394997
 11
332.107513
 21
85.394997
  0
LINE
  8
0
  6
CONTINUOUS
 10
334.107513
 20
65.394997
 11
332.107513
 21
65.394997
  0
ARC
  8
0
  6
CONTINUOUS
 10
326.107513
 20
75.394997
 40
3.000000
 50
-90.000000
 51
90.000000
  0
LINE
  8
0
  6
CONTINUOUS
 10
326.107513
 20
78.394997
 11
302.107513
 21
78.394997
  0
LINE
  8
0
  6
CONTINUOUS
 10
326.107513
 20
72.394997
 11
302.107513
 21
72.394997
  0
LINE
  8
0
  6
CENTER
 10
186.107498
 20
330.076874
 11
186.107498
 21
168.906250
  0
LINE
  8
0
  6
CENTER
 10
224.107498
 20
305.708740
 11
224.107498
 21
286.946259
  0
LINE
  8
0
  6
CENTER
 10
-5.169062
 20
249.199371
 11
250.248749
 21
249.199371
  0
LINE
  8
0
  6
CONTINUOUS
 10
235.766617
 20
297.373901
 11
236.607498
 21
249.199371
  0
LINE
  8
0
  6
CONTINUOUS
 10
225.768127
 20
307.199371
 11
197.607498
 21
307.199371
  0
LINE
  8
0
  6
CONTINUOUS
 10
137.607498
 20
286.199371
 11
233.996262
 21
286.199371
  0
ARC
  8
0
  6
CONTINUOUS
 10
225.768127
 20
297.199371
 40
10.000000
 50
1.000000
 51
90.000000
  0
ARC
  8
0
  6
CONTINUOUS
 10
233.996262
 20
284.199371
 40
2.000000
 50
1.000000
 51
90.000000
  0
LINE
  8
0
  6
CENTER
 10
214.512192
 20
297.199371
 11
234.854691
 21
297.199371
  0
CIRCLE
  8
0
  6
CONTINUOUS
 10
224.107498
 20
297.199371
 40
4.250000
  0
LINE
  8
0
  6
CENTER
 10
148.107498
 20
305.906250
 11
148.107498
 21
286.946259
  0
LINE
  8
0
  6
CONTINUOUS
 10
136.448395
 20
297.373901
 11
136.262405
 21
286.719269
  0
ARC
  8
0
  6
CONTINUOUS
 10
146.446869
 20
297.199371
 40
10.000000
 50
90.000000
 51
179.000000
  0
ARC
  8
0
  6
CONTINUOUS
 10
138.218735
 20
284.199371
 40
2.000000
 50
90.000000
 51
179.000000
  0
LINE
  8
0
  6
CENTER
 10
157.434692
 20
297.199371
 11
137.882187
 21
297.199371
  0
CIRCLE
  8
0
  6
CONTINUOUS
 10
148.107498
 20
297.199371
 40
4.250000
  0
LINE
  8
0
  6
CONTINUOUS
 10
135.607498
 20
288.199371
 11
135.607498
 21
292.199371
  0
LINE
  8
0
  6
CONTINUOUS
 10
133.607498
 20
294.199371
 11
63.107498
 21
294.199371
  0
ARC
  8
0
  6
CONTINUOUS
 10
133.607498
 20
292.199371
 40
2.000000
 50
0.000000
 51
90.000000
  0
ARC
  8
0
  6
CONTINUOUS
 10
137.607498
 20
288.199371
 40
2.000000
 50
180.000000
 51
270.000000
  0
LINE
  8
0
  6
CONTINUOUS
 10
136.219040
 20
284.234283
 11
136.113693
 21
278.199371
  0
LINE
  8
0
  6
CONTINUOUS
 10
63.107498
 20
278.199371
 11
142.450043
 21
278.199371
  0
LINE
  8
0
  6
CONTINUOUS
 10
63.107498
 20
220.199371
 11
142.450043
 21
220.199371
  0
LINE
  8
0
  6
CONTINUOUS
 10
133.607498
 20
204.199371
 11
63.107498
 21
204.199371
  0
ARC
  8
0
  6
CONTINUOUS
 10
133.607498
 20
206.199371
 40
2.000000
 50
-90.000000
 51
0.000000
  0
LINE
  8
0
  6
CENTER
 10
224.107498
 20
192.343750
 11
224.107498
 21
211.402496
  0
LINE
  8
0
  6
CONTINUOUS
 10
235.766617
 20
201.024857
 11
236.607498
 21
249.199371
  0
LINE
  8
0
  6
CONTINUOUS
 10
225.768127
 20
191.199371
 11
197.607498
 21
191.199371
  0
LINE
  8
0
  6
CONTINUOUS
 10
137.607498
 20
212.199371
 11
233.996262
 21
212.199371
  0
ARC
  8
0
  6
CONTINUOUS
 10
225.768127
 20
201.199371
 40
10.000000
 50
-90.000000
 51
-1.000000
  0
ARC
  8
0
  6
CONTINUOUS
 10
233.996262
 20
214.199371
 40
2.000000
 50
-90.000000
 51
-1.000000
  0
LINE
  8
0
  6
CENTER
 10
215.005936
 20
201.199371
 11
235.052185
 21
201.199371
  0
CIRCLE
  8
0
  6
CONTINUOUS
 10
224.107498
 20
201.199371
 40
4.250000
  0
LINE
  8
0
  6
CENTER
 10
148.107498
 20
191.850006
 11
148.107498
 21
211.205002
  0
LINE
  8
0
  6
CONTINUOUS
 10
136.448395
 20
201.024857
 11
136.262405
 21
211.679489
  0
ARC
  8
0
  6
CONTINUOUS
 10
146.446869
 20
201.199371
 40
10.000000
 50
-179.000000
 51
-90.000000
  0
ARC
  8
0
  6
CONTINUOUS
 10
138.218735
 20
214.199371
 40
2.000000
 50
-179.000000
 51
-90.000000
  0
LINE
  8
0
  6
CENTER
 10
157.928436
 20
201.199371
 11
137.684692
 21
201.199371
  0
CIRCLE
  8
0
  6
CONTINUOUS
 10
148.107498
 20
201.199371
 40
4.250000
  0
LINE
  8
0
  6
CONTINUOUS
 10
135.607498
 20
210.199371
 11
135.607498
 21
206.199371
  0
ARC
  8
0
  6
CONTINUOUS
 10
137.607498
 20
210.199371
 40
2.000000
 50
-270.000000
 51
-180.000000
  0
LINE
  8
0
  6
CONTINUOUS
 10
136.219040
 20
214.164474
 11
136.113693
 21
220.199371
  0
LINE
  8
0
  6
CONTINUOUS
 10
169.107498
 20
281.199371
 11
169.107498
 21
217.199371
  0
LINE
  8
0
  6
CONTINUOUS
 10
203.107498
 20
281.199371
 11
203.107498
 21
217.199371
  0
LINE
  8
0
  6
CONTINUOUS
 10
142.450043
 20
276.199371
 11
142.450043
 21
222.199371
  0
LINE
  8
0
  6
CONTINUOUS
 10
208.607498
 20
291.199371
 11
163.607498
 21
291.199371
  0
LINE
  8
0
  6
CONTINUOUS
 10
162.607498
 20
290.199371
 11
162.607498
 21
288.199371
  0
LINE
  8
0
  6
CONTINUOUS
 10
209.607498
 20
290.199371
 11
209.607498
 21
288.199371
  0
ARC
  8
0
  6
CONTINUOUS
 10
160.607498
 20
288.199371
 40
2.000000
 50
-90.000000
 51
0.000000
  0
ARC
  8
0
  6
CONTINUOUS
 10
211.607498
 20
288.199371
 40
2.000000
 50
180.000000
 51
270.000000
  0
ARC
  8
0
  6
CONTINUOUS
 10
163.607513
 20
290.199371
 40
1.000000
 50
90.000000
 51
180.000000
  0
ARC
  8
0
  6
CONTINUOUS
 10
208.607498
 20
290.199371
 40
1.000000
 50
0.000000
 51
90.000000
  0
LINE
  8
0
  6
CONTINUOUS
 10
197.607498
 20
323.199371
 11
177.107498
 21
323.199371
  0
LINE
  8
0
  6
CONTINUOUS
 10
177.107498
 20
293.199371
 11
177.107498
 21
323.199371
  0
LINE
  8
0
  6
CONTINUOUS
 10
195.107498
 20
293.199371
 11
195.107498
 21
296.199371
  0
LINE
  8
0
  6
CONTINUOUS
 10
176.107498
 20
293.199371
 11
196.107498
 21
293.199371
  0
LINE
  8
0
  6
CONTINUOUS
 10
176.107498
 20
291.199371
 11
176.107498
 21
293.199371
  0
LINE
  8
0
  6
CONTINUOUS
 10
196.107498
 20
291.199371
 11
196.107498
 21
293.199371
  0
LINE
  8
0
  6
CONTINUOUS
 10
197.607498
 20
323.199371
 11
197.607498
 21
296.199371
  0
LINE
  8
0
  6
CONTINUOUS
 10
197.607498
 20
296.199371
 11
194.592499
 21
296.199371
  0
LINE
  8
0
  6
CONTINUOUS
 10
194.592499
 20
323.199371
 11
194.592499
 21
296.199371
  0
LINE
  8
0
  6
CONTINUOUS
 10
177.107498
 20
307.199371
 11
146.446869
 21
307.199371
  0
LINE
  8
0
  6
CONTINUOUS
 10
208.607498
 20
207.199371
 11
163.607498
 21
207.199371
  0
LINE
  8
0
  6
CONTINUOUS
 10
162.607498
 20
208.199371
 11
162.607498
 21
210.199371
  0
LINE
  8
0
  6
CONTINUOUS
 10
209.607498
 20
208.199371
 11
209.607498
 21
210.199371
  0
ARC
  8
0
  6
CONTINUOUS
 10
160.607498
 20
210.199371
 40
2.000000
 50
0.000000
 51
90.000000
  0
ARC
  8
0
  6
CONTINUOUS
 10
211.607498
 20
210.199371
 40
2.000000
 50
-270.000000
 51
-180.000000
  0
ARC
  8
0
  6
CONTINUOUS
 10
163.607513
 20
208.199371
 40
1.000000
 50
-180.000000
 51
-90.000000
  0
ARC
  8
0
  6
CONTINUOUS
 10
208.607498
 20
208.199371
 40
1.000000
 50
-90.000000
 51
0.000000
  0
LINE
  8
0
  6
CONTINUOUS
 10
197.607498
 20
175.199371
 11
177.107498
 21
175.199371
  0
LINE
  8
0
  6
CONTINUOUS
 10
177.107498
 20
205.199371
 11
177.107498
 21
175.199371
  0
LINE
  8
0
  6
CONTINUOUS
 10
195.107498
 20
205.199371
 11
195.107498
 21
202.199371
  0
LINE
  8
0
  6
CONTINUOUS
 10
176.107498
 20
205.199371
 11
196.107498
 21
205.199371
  0
LINE
  8
0
  6
CONTINUOUS
 10
176.107498
 20
207.199371
 11
176.107498
 21
205.199371
  0
LINE
  8
0
  6
CONTINUOUS
 10
196.107498
 20
207.199371
 11
196.107498
 21
205.199371
  0
LINE
  8
0
  6
CONTINUOUS
 10
197.607498
 20
175.199371
 11
197.607498
 21
202.199371
  0
LINE
  8
0
  6
CONTINUOUS
 10
197.607498
 20
202.199371
 11
194.592499
 21
202.199371
  0
LINE
  8
0
  6
CONTINUOUS
 10
194.592499
 20
175.199371
 11
194.592499
 21
202.199371
  0
LINE
  8
0
  6
CONTINUOUS
 10
177.107498
 20
191.199371
 11
146.446869
 21
191.199371
  0
LINE
  8
0
  6
CONTINUOUS
 10
53.607498
 20
294.199371
 11
63.107498
 21
294.199371
  0
LINE
  8
0
  6
CONTINUOUS
 10
63.107498
 20
278.199371
 11
53.607498
 21
278.199371
  0
LINE
  8
0
  6
CONTINUOUS
 10
53.607498
 20
204.199371
 11
63.107498
 21
204.199371
  0
LINE
  8
0
  6
CONTINUOUS
 10
63.107498
 20
204.199371
 11
63.107498
 21
224.199356
  0
LINE
  8
0
  6
CONTINUOUS
 10
63.107498
 20
220.199371
 11
53.607498
 21
220.199371
  0
LINE
  8
0
  6
CONTINUOUS
 10
63.107498
 20
274.199341
 11
63.107498
 21
294.199371
  0
LINE
  8
0
  6
CONTINUOUS
 10
53.607498
 20
296.199371
 11
53.607498
 21
249.199371
  0
LINE
  8
0
  6
CONTINUOUS
 10
53.607498
 20
278.199371
 11
9.632470
 21
278.199371
  0
LINE
  8
0
  6
CONTINUOUS
 10
53.607498
 20
220.199371
 11
9.632470
 21
220.199371
  0
LINE
  8
0
  6
CONTINUOUS
 10
11.107480
 20
296.199371
 11
53.607498
 21
296.199371
  0
LINE
  8
0
  6
CONTINUOUS
 10
11.107480
 20
202.199371
 11
53.607498
 21
202.199371
  0
ARC
  8
0
  6
CONTINUOUS
 10
11.107510
 20
291.199371
 40
5.000000
 50
90.000000
 51
180.000000
  0
ARC
  8
0
  6
CONTINUOUS
 10
11.107480
 20
207.199371
 40
5.000000
 50
180.000000
 51
270.000000
  0
LINE
  8
0
  6
CONTINUOUS
 10
6.107510
 20
291.199371
 11
6.107480
 21
207.199371
  0
LINE
  8
0
  6
CONTINUOUS
 10
53.607498
 20
249.199371
 11
53.607498
 21
202.199371
  0
LINE
  8
0
  6
CONTINUOUS
 10
54.107498
 20
226.199356
 11
54.107498
 21
272.199341
  0
LINE
  8
0
  6
CONTINUOUS
 10
56.107498
 20
274.199341
 11
54.107498
 21
272.199341
  0
LINE
  8
0
  6
CONTINUOUS
 10
56.107498
 20
274.199341
 11
102.107491
 21
274.199341
  0
LINE
  8
0
  6
CONTINUOUS
 10
96.607498
 20
269.699341
 11
96.607498
 21
274.199341
  0
ARC
  8
0
  6
CONTINUOUS
 10
99.607498
 20
269.699341
 40
3.000000
 50
180.000000
 51
270.000000
  0
LINE
  8
0
  6
CONTINUOUS
 10
99.607498
 20
266.699341
 11
104.107491
 21
266.699341
  0
CIRCLE
  8
0
  6
CONTINUOUS
 10
100.607498
 20
270.699341
 40
2.250000
  0
LINE
  8
0
  6
CONTINUOUS
 10
104.107491
 20
226.199356
 11
104.107491
 21
272.199341
  0
LINE
  8
0
  6
CONTINUOUS
 10
102.107491
 20
274.199341
 11
104.107491
 21
272.199341
  0
LINE
  8
0
  6
CONTINUOUS
 10
102.107491
 20
224.199356
 11
104.107491
 21
226.199356
  0
LINE
  8
0
  6
CONTINUOUS
 10
102.107491
 20
224.199356
 11
56.107498
 21
224.199356
  0
LINE
  8
0
  6
CONTINUOUS
 10
54.107498
 20
226.199356
 11
56.107498
 21
224.199356
  0
LINE
  8
0
  6
CONTINUOUS
 10
58.607498
 20
231.699356
 11
54.107510
 21
231.699356
  0
CIRCLE
  8
0
  6
CONTINUOUS
 10
57.607498
 20
227.699356
 40
2.250000
  0
ARC
  8
0
  6
CONTINUOUS
 10
58.607498
 20
228.699356
 40
3.000000
 50
0.000000
 51
90.000000
  0
LINE
  8
0
  6
CONTINUOUS
 10
61.607498
 20
228.699356
 11
61.607498
 21
224.199356
  0
LINE
  8
0
  6
CENTER
 10
79.107498
 20
216.733582
 11
79.107498
 21
280.865601
  0
LINE
  8
0
  6
CONTINUOUS
 10
55.107506
 20
231.699371
 11
55.107506
 21
266.699371
  0
LINE
  8
0
  6
CONTINUOUS
 10
96.607498
 20
273.199371
 11
61.607521
 21
273.199371
  0
LINE
  8
0
  6
CONTINUOUS
 10
103.107491
 20
266.699371
 11
103.107491
 21
231.699371
  0
LINE
  8
0
  6
CONTINUOUS
 10
61.607498
 20
225.199371
 11
96.607483
 21
225.199371
  0
LINE
  8
0
  6
CONTINUOUS
 10
58.607521
 20
266.699371
 11
54.107521
 21
266.699371
  0
ARC
  8
0
  6
CONTINUOUS
 10
58.607521
 20
269.699371
 40
3.000000
 50
-90.000000
 51
0.000000
  0
LINE
  8
0
  6
CONTINUOUS
 10
61.607521
 20
269.699371
 11
61.607521
 21
274.199371
  0
CIRCLE
  8
0
  6
CONTINUOUS
 10
57.607521
 20
270.699371
 40
2.250000
  0
LINE
  8
0
  6
CONTINUOUS
 10
99.607483
 20
231.699371
 11
104.107483
 21
231.699371
  0
ARC
  8
0
  6
CONTINUOUS
 10
99.607483
 20
228.699371
 40
3.000000
 50
90.000000
 51
180.000000
  0
LINE
  8
0
  6
CONTINUOUS
 10
96.607483
 20
228.699371
 11
96.607483
 21
224.199387
  0
CIRCLE
  8
0
  6
CONTINUOUS
 10
100.607483
 20
227.699371
 40
2.250000
  0
LINE
  8
0
  6
CONTINUOUS
 10
55.607491
 20
96.195000
 11
102.107491
 21
96.195000
  0
LINE
  8
0
  6
CONTINUOUS
 10
104.107468
 20
140.195007
 11
104.107491
 21
98.195000
  0
LINE
  8
0
  6
CONTINUOUS
 10
54.107491
 20
140.195007
 11
54.107491
 21
98.195000
  0
LINE
  8
0
  6
CONTINUOUS
 10
54.107491
 20
108.195000
 11
104.107491
 21
108.195000
  0
LINE
  8
0
  6
CONTINUOUS
 10
102.107491
 20
96.195000
 11
104.107491
 21
98.195000
  0
LINE
  8
0
  6
CONTINUOUS
 10
54.107491
 20
98.195000
 11
56.107491
 21
96.195000
  0
LINE
  8
0
  6
CONTINUOUS
 10
54.107491
 20
98.195000
 11
104.107491
 21
98.195000
  0
LINE
  8
0
  6
CONTINUOUS
 10
54.107491
 20
109.195000
 11
104.107483
 21
109.195000
  0
LINE
  8
0
  6
CONTINUOUS
 10
55.107491
 20
141.195007
 11
103.107468
 21
141.195007
  0
LINE
  8
0
  6
CONTINUOUS
 10
103.107468
 20
141.195007
 11
104.107468
 21
140.195007
  0
LINE
  8
0
  6
CONTINUOUS
 10
55.107491
 20
141.195007
 11
54.107491
 21
140.195007
  0
LINE
  8
0
  6
CONTINUOUS
 10
54.107491
 20
140.195007
 11
104.107468
 21
140.195007
  0
LINE
  8
0
  6
CENTER
 10
79.107491
 20
89.805489
 11
79.107491
 21
146.505493
  0
LINE
  8
0
  6
CENTER
 10
51.732491
 20
124.195000
 11
56.357491
 21
124.195000
  0
LINE
  8
0
  6
CONTINUOUS
 10
55.607491
 20
96.195000
 11
55.607491
 21
94.695000
  0
LINE
  8
0
  6
CONTINUOUS
 10
101.607491
 20
96.195000
 11
101.607491
 21
94.695000
  0
LINE
  8
0
  6
CONTINUOUS
 10
53.232491
 20
134.695007
 11
55.232491
 21
134.695007
  0
LINE
  8
0
  6
CONTINUOUS
 10
53.232491
 20
113.695000
 11
55.232491
 21
113.695000
  0
LINE
  8
0
  6
CONTINUOUS
 10
401.107483
 20
140.195007
 11
401.107513
 21
112.958633
  0
LINE
  8
0
  6
CONTINUOUS
 10
351.107513
 20
140.195007
 11
351.107513
 21
112.958527
  0
LINE
  8
0
  6
CONTINUOUS
 10
352.107513
 20
141.195007
 11
400.107483
 21
141.195007
  0
LINE
  8
0
  6
CONTINUOUS
 10
400.107483
 20
141.195007
 11
401.107483
 21
140.195007
  0
LINE
  8
0
  6
CONTINUOUS
 10
352.107513
 20
141.195007
 11
351.107513
 21
140.195007
  0
LINE
  8
0
  6
CONTINUOUS
 10
351.107513
 20
140.195007
 11
401.107483
 21
140.195007
  0
TEXT
  8
0
 10
-5.000000
 20
-6.000000
 40
4.000000
 41
1.000000
  1
HLM-18T-10~240-S90K
 50
0.000000
  0
ENDSEC
  0
EOF
