  0
SECTION
  2
HEADER
  9
$CLAYER
  8
1
  9
$LTSCALE
 40
3.0
  0
ENDSEC
  0
SECTION
  2
TABLES
  0
TABLE
  2
LTYPE
 70
     4
  0
LTYPE
  2
CONTINUOUS
  3
solid line
 70
    64
 72
    65
 73
     0
 40
0.0
  0
LTYPE
  2
DASHED
  3
__ __ __ __ __ __ __ __ __ __ __ __ __ __ __
 70
    64
 72
    65
 73
     2
 40
0.75
 49
0.5
 49
-0.25
  0
LTYPE
  2
CENTER
  3
____ _ ____ _ ____ _ ____ _ ____ _ ____ _ ____
 70
    64
 72
    65
 73
     4
 40
2.0
 49
1.25
 49
-0.25
 49
0.25
 49
-0.25
  0
LTYPE
  2
PHANTOM
  3
_____ _ _ _____ _ _ _____ _ _ _____ _ _ ____
 70
    64
 72
    65
 73
     6
 40
2.5
 49
1.25
 49
-0.25
 49
0.25
 49
-0.25
 49
0.25
 49
-0.25
  0
ENDTAB
  0
TABLE
  2
LAYER
 70
     1
  0
LAYER
  2
0
 70
    64
 62
     7
  6
CONTINUOUS
  0
ENDTAB
  0
TABLE
  2
STYLE
 70
     1
  0
STYLE
  2
STANDARD
 70
     0
 40
0.000000
 41
1.000000
 50
0.000000
 71
     0
 42
3.000000
  3
txt
  4
BIGFONT
  0
ENDTAB
  0
ENDSEC
  0
SECTION
  2
BLOCKS
  0
ENDSEC
  0
SECTION
  2
ENTITIES
  0
LINE
  8
0
  6
CONTINUOUS
 10
16.848749
 20
247.923126
 11
16.848749
 21
259.923126
  0
LINE
  8
0
  6
CONTINUOUS
 10
23.848749
 20
247.923126
 11
23.848749
 21
259.923126
  0
LINE
  8
0
  6
CONTINUOUS
 10
17.848749
 20
260.923126
 11
22.848749
 21
260.923126
  0
LINE
  8
0
  6
CONTINUOUS
 10
22.848749
 20
246.923126
 11
17.848749
 21
246.923126
  0
ARC
  8
0
  6
CONTINUOUS
 10
22.848749
 20
259.923126
 40
1.000000
 50
0.000000
 51
90.000000
  0
ARC
  8
0
  6
CONTINUOUS
 10
17.848749
 20
259.923126
 40
1.000000
 50
90.000000
 51
180.000000
  0
ARC
  8
0
  6
CONTINUOUS
 10
17.848749
 20
247.923126
 40
1.000000
 50
180.000000
 51
270.000000
  0
ARC
  8
0
  6
CONTINUOUS
 10
22.848749
 20
247.923126
 40
1.000000
 50
-90.000000
 51
0.000000
  0
LINE
  8
0
  6
CONTINUOUS
 10
21.348749
 20
250.423126
 11
21.348749
 21
257.423126
  0
LINE
  8
0
  6
CONTINUOUS
 10
19.348749
 20
250.423126
 11
19.348749
 21
257.423126
  0
ARC
  8
0
  6
CONTINUOUS
 10
20.348749
 20
257.423126
 40
1.000000
 50
90.000000
 51
180.000000
  0
ARC
  8
0
  6
CONTINUOUS
 10
20.348749
 20
257.423126
 40
1.000000
 50
0.000000
 51
90.000000
  0
ARC
  8
0
  6
CONTINUOUS
 10
20.348749
 20
250.423126
 40
1.000000
 50
180.000000
 51
270.000000
  0
ARC
  8
0
  6
CONTINUOUS
 10
20.348749
 20
250.423126
 40
1.000000
 50
-90.000000
 51
0.000000
  0
LINE
  8
0
  6
CONTINUOUS
 10
2.848750
 20
18.554375
 11
2.848750
 21
88.554375
  0
LINE
  8
0
  6
CONTINUOUS
 10
7.390199
 20
98.554375
 11
23.348749
 21
98.554375
  0
LINE
  8
0
  6
CONTINUOUS
 10
3.348750
 20
95.554375
 11
3.348750
 21
11.554375
  0
LINE
  8
0
  6
CONTINUOUS
 10
23.348749
 20
87.963676
 11
5.098750
 21
87.963676
  0
ARC
  8
0
  6
CONTINUOUS
 10
2.848749
 20
89.054375
 40
0.500000
 50
-90.000000
 51
0.000000
  0
LINE
  8
0
  6
CONTINUOUS
 10
3.926093
 20
96.554367
 11
3.348750
 21
95.554375
  0
ARC
  8
0
  6
CONTINUOUS
 10
7.390213
 20
94.554382
 40
4.000000
 50
90.000000
 51
150.000397
  0
LINE
  8
0
  6
CONTINUOUS
 10
7.390199
 20
8.554375
 11
23.348749
 21
8.554375
  0
LINE
  8
0
  6
CONTINUOUS
 10
23.348749
 20
19.145075
 11
5.098750
 21
19.145075
  0
ARC
  8
0
  6
CONTINUOUS
 10
2.848749
 20
18.054375
 40
0.500000
 50
0.000000
 51
90.000000
  0
LINE
  8
0
  6
CONTINUOUS
 10
3.926093
 20
10.554385
 11
3.348750
 21
11.554375
  0
ARC
  8
0
  6
CONTINUOUS
 10
7.390213
 20
12.554365
 40
4.000000
 50
-150.000397
 51
-90.000000
  0
LINE
  8
0
  6
CONTINUOUS
 10
23.848749
 20
100.054375
 11
23.848749
 21
98.554375
  0
LINE
  8
0
  6
CONTINUOUS
 10
16.848749
 20
100.054375
 11
16.848749
 21
98.554375
  0
LINE
  8
0
  6
CONTINUOUS
 10
16.848749
 20
100.054375
 11
23.848749
 21
100.054375
  0
LINE
  8
0
  6
CONTINUOUS
 10
21.248751
 20
113.054375
 11
21.248751
 21
100.054375
  0
LINE
  8
0
  6
CONTINUOUS
 10
19.448750
 20
113.679375
 11
19.448750
 21
100.054375
  0
LINE
  8
0
  6
CONTINUOUS
 10
17.648750
 20
111.616875
 11
17.648750
 21
100.054375
  0
LINE
  8
0
  6
CONTINUOUS
 10
23.048750
 20
112.429375
 11
23.048750
 21
100.054375
  0
LINE
  8
0
  6
CONTINUOUS
 10
19.448750
 20
113.679375
 11
21.248751
 21
113.054375
  0
LINE
  8
0
  6
CONTINUOUS
 10
17.648750
 20
111.616875
 11
19.448750
 21
112.241875
  0
LINE
  8
0
  6
CONTINUOUS
 10
23.048750
 20
112.429375
 11
21.249760
 21
111.981667
  0
LINE
  8
0
  6
CONTINUOUS
 10
23.348749
 20
8.554375
 11
23.348749
 21
98.554375
  0
LINE
  8
0
  6
CENTER
 10
-8.300000
 20
53.554375
 11
119.138252
 21
53.554375
  0
LINE
  8
0
  6
CONTINUOUS
 10
196.848755
 20
11.254375
 11
196.848755
 21
4.254375
  0
LINE
  8
0
  6
CONTINUOUS
 10
23.348749
 20
8.554375
 11
95.848747
 21
8.554375
  0
LINE
  8
0
  6
CONTINUOUS
 10
23.348749
 20
98.554375
 11
102.691299
 21
98.554375
  0
LINE
  8
0
  6
CENTER
 10
146.348755
 20
334.800629
 11
146.348755
 21
173.630005
  0
LINE
  8
0
  6
CENTER
 10
110.836052
 20
79.254372
 11
182.789993
 21
79.254372
  0
LINE
  8
0
  6
CONTINUOUS
 10
95.848747
 20
4.254375
 11
196.848755
 21
4.254375
  0
LINE
  8
0
  6
CONTINUOUS
 10
160.190979
 20
117.254372
 11
132.506531
 21
117.254372
  0
LINE
  8
0
  6
CONTINUOUS
 10
97.848747
 20
13.254375
 11
194.848755
 21
13.254375
  0
LINE
  8
0
  6
CENTER
 10
184.348755
 20
310.432495
 11
184.348755
 21
291.670013
  0
LINE
  8
0
  6
CENTER
 10
108.348747
 20
18.991875
 11
108.348747
 21
-3.008125
  0
LINE
  8
0
  6
CONTINUOUS
 10
192.591568
 20
96.740738
 11
165.933807
 21
115.440948
  0
LINE
  8
0
  6
CONTINUOUS
 10
126.763718
 20
115.440956
 11
100.105949
 21
96.740761
  0
LINE
  8
0
  6
CONTINUOUS
 10
196.848755
 20
88.554161
 11
196.848755
 21
11.254375
  0
ARC
  8
0
  6
CONTINUOUS
 10
194.848755
 20
11.254365
 40
2.000000
 50
0.000000
 51
90.000000
  0
ARC
  8
0
  6
CONTINUOUS
 10
97.848763
 20
11.254375
 40
2.000000
 50
90.000000
 51
180.000000
  0
LINE
  8
0
  6
DASHED
 10
188.598755
 20
13.254375
 11
188.598755
 21
4.254375
  0
LINE
  8
0
  6
DASHED
 10
180.098755
 20
13.254375
 11
180.098755
 21
4.254375
  0
LINE
  8
0
  6
DASHED
 10
112.598747
 20
13.254375
 11
112.598747
 21
4.254375
  0
LINE
  8
0
  6
DASHED
 10
104.098747
 20
13.254375
 11
104.098747
 21
4.254375
  0
CIRCLE
  8
0
  6
CONTINUOUS
 10
146.348755
 20
79.254372
 40
23.500000
  0
LINE
  8
0
  6
CONTINUOUS
 10
98.348747
 20
79.946564
 11
98.348747
 21
48.561859
  0
LINE
  8
0
  6
CONTINUOUS
 10
194.348755
 20
79.946732
 11
194.348755
 21
48.562023
  0
ARC
  8
0
  6
CONTINUOUS
 10
146.348755
 20
64.254372
 40
50.500000
 50
198.103806
 51
341.896210
  0
LINE
  8
0
  6
CONTINUOUS
 10
95.848770
 20
88.554192
 11
95.848701
 21
4.254375
  0
ARC
  8
0
  6
CONTINUOUS
 10
146.348755
 20
64.254372
 40
50.500000
 50
18.103790
 51
161.896194
  0
LINE
  8
0
  6
CONTINUOUS
 10
23.348749
 20
87.963676
 11
94.231659
 21
87.963676
  0
LINE
  8
0
  6
CONTINUOUS
 10
23.348749
 20
19.145075
 11
94.231659
 21
19.145075
  0
LINE
  8
0
  6
CONTINUOUS
 10
139.973755
 20
41.807594
 11
139.973755
 21
36.254375
  0
LINE
  8
0
  6
CONTINUOUS
 10
143.161255
 20
43.824688
 11
143.161255
 21
45.816875
  0
LINE
  8
0
  6
CONTINUOUS
 10
149.536255
 20
43.824688
 11
149.536255
 21
45.816875
  0
LINE
  8
0
  6
CONTINUOUS
 10
145.726151
 20
44.646465
 11
145.726151
 21
37.300274
  0
LINE
  8
0
  6
CONTINUOUS
 10
146.921555
 20
44.646465
 11
146.921555
 21
37.300274
  0
LINE
  8
0
  6
CONTINUOUS
 10
153.196854
 20
44.646465
 11
153.196854
 21
37.250465
  0
LINE
  8
0
  6
CONTINUOUS
 10
154.292557
 20
40.724346
 11
154.292557
 21
37.250465
  0
LINE
  8
0
  6
CONTINUOUS
 10
138.461243
 20
44.546856
 11
135.389343
 21
44.546856
  0
LINE
  8
0
  6
CONTINUOUS
 10
135.389343
 20
44.546856
 11
134.669556
 21
43.654362
  0
LINE
  8
0
  6
CONTINUOUS
 10
134.756149
 20
45.816875
 11
133.598755
 21
44.334881
  0
LINE
  8
0
  6
CONTINUOUS
 10
134.669556
 20
38.145294
 11
135.400848
 21
37.374985
  0
LINE
  8
0
  6
CONTINUOUS
 10
133.598755
 20
37.495235
 11
134.828552
 21
36.254375
  0
LINE
  8
0
  6
CONTINUOUS
 10
133.598755
 20
44.334881
 11
133.598755
 21
37.495235
  0
LINE
  8
0
  6
CONTINUOUS
 10
134.669556
 20
43.654362
 11
134.669556
 21
38.145294
  0
LINE
  8
0
  6
CONTINUOUS
 10
139.052353
 20
43.975414
 11
138.449142
 21
44.546856
  0
LINE
  8
0
  6
CONTINUOUS
 10
139.042755
 20
45.816875
 11
139.973755
 21
44.783733
  0
LINE
  8
0
  6
CONTINUOUS
 10
139.052353
 20
43.824688
 11
139.973755
 21
43.824688
  0
LINE
  8
0
  6
CONTINUOUS
 10
134.756149
 20
45.816875
 11
139.042755
 21
45.816875
  0
LINE
  8
0
  6
CONTINUOUS
 10
139.052353
 20
40.761696
 11
137.383957
 21
40.761696
  0
LINE
  8
0
  6
CONTINUOUS
 10
139.052353
 20
39.765606
 11
139.052353
 21
40.562485
  0
LINE
  8
0
  6
CONTINUOUS
 10
137.060150
 20
37.374985
 11
135.400848
 21
37.374985
  0
ARC
  8
0
  6
CONTINUOUS
 10
137.060150
 20
39.367165
 40
1.992187
 50
-89.999786
 51
0.000109
  0
LINE
  8
0
  6
CONTINUOUS
 10
139.052353
 20
37.016644
 11
139.052353
 21
36.254375
  0
LINE
  8
0
  6
CONTINUOUS
 10
139.973755
 20
44.783733
 11
139.973755
 21
43.824688
  0
LINE
  8
0
  6
CONTINUOUS
 10
139.052353
 20
40.761696
 11
139.052353
 21
39.367165
  0
LINE
  8
0
  6
CONTINUOUS
 10
137.383957
 20
41.807594
 11
137.383957
 21
40.761696
  0
LINE
  8
0
  6
CONTINUOUS
 10
139.052353
 20
36.254375
 11
139.973755
 21
36.254375
  0
LINE
  8
0
  6
CONTINUOUS
 10
139.052353
 20
37.016644
 11
138.143845
 21
36.254375
  0
LINE
  8
0
  6
CONTINUOUS
 10
146.921555
 20
37.300274
 11
147.319946
 21
37.300274
  0
LINE
  8
0
  6
CONTINUOUS
 10
145.253052
 20
37.300274
 11
145.253052
 21
36.254375
  0
LINE
  8
0
  6
CONTINUOUS
 10
147.319946
 20
37.300274
 11
147.319946
 21
36.254375
  0
LINE
  8
0
  6
CONTINUOUS
 10
148.871246
 20
43.824688
 11
149.536255
 21
43.824688
  0
LINE
  8
0
  6
CONTINUOUS
 10
143.161255
 20
43.824688
 11
143.868851
 21
43.824688
  0
LINE
  8
0
  6
CONTINUOUS
 10
143.161255
 20
45.816875
 11
149.536255
 21
45.816875
  0
LINE
  8
0
  6
CONTINUOUS
 10
145.253052
 20
36.254375
 11
147.319946
 21
36.254375
  0
LINE
  8
0
  6
CONTINUOUS
 10
145.253052
 20
37.300274
 11
145.726151
 21
37.300274
  0
ARC
  8
0
  6
CONTINUOUS
 10
156.546249
 20
43.264385
 40
2.552490
 50
-73.981873
 51
90.003510
  0
ARC
  8
0
  6
CONTINUOUS
 10
156.546249
 20
43.264385
 40
1.557193
 50
-82.585274
 51
62.411850
  0
LINE
  8
0
  6
CONTINUOUS
 10
152.723755
 20
45.816875
 11
156.546249
 21
45.816875
  0
LINE
  8
0
  6
CONTINUOUS
 10
152.723755
 20
45.816875
 11
152.723755
 21
44.646465
  0
LINE
  8
0
  6
CONTINUOUS
 10
154.292557
 20
44.646465
 11
154.292557
 21
41.720215
  0
LINE
  8
0
  6
CONTINUOUS
 10
157.250549
 20
40.810993
 11
158.830444
 21
37.250465
  0
LINE
  8
0
  6
CONTINUOUS
 10
156.333054
 20
40.724346
 11
157.828156
 21
37.250465
  0
LINE
  8
0
  6
CONTINUOUS
 10
152.723755
 20
37.250465
 11
153.196854
 21
37.250465
  0
LINE
  8
0
  6
CONTINUOUS
 10
154.292557
 20
37.250465
 11
154.728348
 21
37.250465
  0
LINE
  8
0
  6
CONTINUOUS
 10
154.728348
 20
36.254375
 11
152.723755
 21
36.254375
  0
LINE
  8
0
  6
CONTINUOUS
 10
157.629547
 20
37.250465
 11
157.828156
 21
37.250465
  0
LINE
  8
0
  6
CONTINUOUS
 10
158.830444
 20
37.250465
 11
159.098755
 21
37.250465
  0
LINE
  8
0
  6
CONTINUOUS
 10
157.629547
 20
36.254375
 11
159.098755
 21
36.254375
  0
LINE
  8
0
  6
CONTINUOUS
 10
159.098755
 20
37.250465
 11
159.098755
 21
36.254375
  0
LINE
  8
0
  6
CONTINUOUS
 10
157.629547
 20
37.250465
 11
157.629547
 21
36.254375
  0
LINE
  8
0
  6
CONTINUOUS
 10
154.728348
 20
37.250465
 11
154.728348
 21
36.254375
  0
LINE
  8
0
  6
CONTINUOUS
 10
152.723755
 20
37.250465
 11
152.723755
 21
36.254375
  0
LINE
  8
0
  6
CONTINUOUS
 10
144.211243
 20
44.646465
 11
143.868851
 21
43.824688
  0
LINE
  8
0
  6
CONTINUOUS
 10
148.582550
 20
44.646465
 11
148.871246
 21
43.824688
  0
LINE
  8
0
  6
CONTINUOUS
 10
146.921555
 20
44.646465
 11
148.582550
 21
44.646465
  0
LINE
  8
0
  6
CONTINUOUS
 10
145.726151
 20
44.646465
 11
144.211243
 21
44.646465
  0
LINE
  8
0
  6
CONTINUOUS
 10
152.723755
 20
44.646465
 11
153.196854
 21
44.646465
  0
LINE
  8
0
  6
CONTINUOUS
 10
154.292557
 20
44.646465
 11
157.267456
 21
44.644527
  0
LINE
  8
0
  6
CONTINUOUS
 10
139.052353
 20
43.975414
 11
139.052353
 21
43.824688
  0
LINE
  8
0
  6
CONTINUOUS
 10
134.828552
 20
36.254375
 11
138.143845
 21
36.254375
  0
LINE
  8
0
  6
CONTINUOUS
 10
154.292557
 20
41.720215
 11
156.747253
 21
41.720215
  0
LINE
  8
0
  6
CONTINUOUS
 10
154.292557
 20
40.724346
 11
156.333054
 21
40.724346
  0
LINE
  8
0
  6
CONTINUOUS
 10
137.383957
 20
41.807594
 11
139.973755
 21
41.807594
  0
LINE
  8
0
  6
CENTER
 10
342.848755
 20
-2.532315
 11
342.848755
 21
126.210625
  0
LINE
  8
0
  6
CENTER
 10
287.598755
 20
53.554375
 11
394.848755
 21
53.554375
  0
LINE
  8
0
  6
CONTINUOUS
 10
400.848755
 20
11.254375
 11
400.848755
 21
4.254375
  0
LINE
  8
0
  6
CONTINUOUS
 10
284.848755
 20
11.254375
 11
284.848755
 21
4.254375
  0
LINE
  8
0
  6
CENTER
 10
259.598755
 20
79.254372
 11
424.098755
 21
79.254372
  0
LINE
  8
0
  6
CONTINUOUS
 10
284.848755
 20
4.254375
 11
400.848755
 21
4.254375
  0
LINE
  8
0
  6
CONTINUOUS
 10
382.848755
 20
13.254375
 11
398.848755
 21
13.254375
  0
LINE
  8
0
  6
CONTINUOUS
 10
305.848755
 20
16.254375
 11
305.848755
 21
114.643005
  0
LINE
  8
0
  6
CONTINUOUS
 10
379.848755
 20
16.254375
 11
379.848755
 21
114.643135
  0
LINE
  8
0
  6
CONTINUOUS
 10
384.848755
 20
56.754372
 11
384.848755
 21
101.754372
  0
LINE
  8
0
  6
CONTINUOUS
 10
383.848755
 20
102.754372
 11
381.848755
 21
102.754372
  0
LINE
  8
0
  6
CONTINUOUS
 10
383.848755
 20
55.754372
 11
381.848755
 21
55.754372
  0
LINE
  8
0
  6
CONTINUOUS
 10
342.848755
 20
117.254372
 11
377.883636
 21
116.642845
  0
LINE
  8
0
  6
CONTINUOUS
 10
307.813843
 20
116.642708
 11
342.848755
 21
117.254372
  0
ARC
  8
0
  6
CONTINUOUS
 10
381.848755
 20
104.754372
 40
2.000000
 50
180.000000
 51
270.000000
  0
ARC
  8
0
  6
CONTINUOUS
 10
377.848755
 20
114.643135
 40
2.000000
 50
0.000000
 51
89.000137
  0
ARC
  8
0
  6
CONTINUOUS
 10
307.848755
 20
114.643013
 40
2.000000
 50
91.000641
 51
180.000000
  0
ARC
  8
0
  6
CONTINUOUS
 10
381.848755
 20
53.754383
 40
2.000000
 50
90.000000
 51
180.000000
  0
ARC
  8
0
  6
CONTINUOUS
 10
383.848755
 20
101.754364
 40
1.000000
 50
0.000000
 51
90.000000
  0
ARC
  8
0
  6
CONTINUOUS
 10
383.848755
 20
56.754372
 40
1.000000
 50
-90.000000
 51
0.000000
  0
LINE
  8
0
  6
CONTINUOUS
 10
307.098755
 20
93.754372
 11
378.848755
 21
93.754372
  0
ARC
  8
0
  6
CONTINUOUS
 10
398.848755
 20
11.254365
 40
2.000000
 50
0.000000
 51
90.000000
  0
ARC
  8
0
  6
CONTINUOUS
 10
286.848755
 20
11.254385
 40
2.000000
 50
90.000000
 51
180.000000
  0
LINE
  8
0
  6
CENTER
 10
390.848755
 20
17.210625
 11
390.848755
 21
-0.039375
  0
LINE
  8
0
  6
CENTER
 10
294.848755
 20
17.210625
 11
294.848755
 21
-0.789375
  0
LINE
  8
0
  6
DASHED
 10
299.098755
 20
13.254375
 11
299.098755
 21
4.254375
  0
LINE
  8
0
  6
DASHED
 10
290.598755
 20
13.254375
 11
290.598755
 21
4.254375
  0
LINE
  8
0
  6
DASHED
 10
395.098755
 20
13.254375
 11
395.098755
 21
4.254375
  0
LINE
  8
0
  6
DASHED
 10
386.598755
 20
13.254375
 11
386.598755
 21
4.254375
  0
ARC
  8
0
  6
CONTINUOUS
 10
342.848755
 20
53.554375
 40
45.000000
 50
159.637695
 51
214.692093
  0
ARC
  8
0
  6
CONTINUOUS
 10
342.848755
 20
53.554375
 40
45.000000
 50
-34.692108
 51
20.437799
  0
LINE
  8
0
  6
CONTINUOUS
 10
300.848755
 20
56.754372
 11
300.848755
 21
101.754372
  0
LINE
  8
0
  6
CONTINUOUS
 10
301.848755
 20
102.754372
 11
303.848755
 21
102.754372
  0
LINE
  8
0
  6
CONTINUOUS
 10
301.848755
 20
55.754372
 11
303.848755
 21
55.754372
  0
ARC
  8
0
  6
CONTINUOUS
 10
303.848755
 20
104.754372
 40
2.000000
 50
-90.000000
 51
0.000000
  0
ARC
  8
0
  6
CONTINUOUS
 10
303.848755
 20
53.754383
 40
2.000000
 50
0.000000
 51
90.000000
  0
ARC
  8
0
  6
CONTINUOUS
 10
301.848755
 20
101.754364
 40
1.000000
 50
90.000000
 51
180.000000
  0
ARC
  8
0
  6
CONTINUOUS
 10
301.848755
 20
56.754372
 40
1.000000
 50
180.000000
 51
270.000000
  0
LINE
  8
0
  6
CONTINUOUS
 10
302.848755
 20
13.254375
 11
286.848755
 21
13.254375
  0
ARC
  8
0
  6
CONTINUOUS
 10
302.848755
 20
16.254375
 40
3.000000
 50
-90.000000
 51
0.000000
  0
ARC
  8
0
  6
CONTINUOUS
 10
382.848755
 20
16.254375
 40
3.000000
 50
180.000000
 51
270.000000
  0
LINE
  8
0
  6
CONTINUOUS
 10
151.848755
 20
76.254395
 11
151.848755
 21
82.254395
  0
LINE
  8
0
  6
CONTINUOUS
 10
157.848755
 20
76.254417
 11
157.848755
 21
82.254417
  0
LINE
  8
0
  6
CONTINUOUS
 10
157.848755
 20
76.254417
 11
151.848755
 21
76.254395
  0
LINE
  8
0
  6
CONTINUOUS
 10
157.848755
 20
82.254417
 11
151.848755
 21
82.254395
  0
ARC
  8
0
  6
CONTINUOUS
 10
146.348755
 20
79.254372
 40
9.000000
 50
19.471210
 51
340.528809
  0
LINE
  8
0
  6
CONTINUOUS
 10
268.848755
 20
70.254372
 11
268.848755
 21
88.254372
  0
LINE
  8
0
  6
CONTINUOUS
 10
298.848755
 20
88.254372
 11
268.848755
 21
88.254372
  0
LINE
  8
0
  6
CONTINUOUS
 10
298.848755
 20
70.254372
 11
268.848755
 21
70.254372
  0
LINE
  8
0
  6
CONTINUOUS
 10
298.848755
 20
89.254372
 11
298.848755
 21
69.254372
  0
LINE
  8
0
  6
CONTINUOUS
 10
300.848755
 20
89.254372
 11
298.848755
 21
89.254372
  0
LINE
  8
0
  6
CONTINUOUS
 10
300.848755
 20
69.254372
 11
298.848755
 21
69.254372
  0
ARC
  8
0
  6
CONTINUOUS
 10
292.848755
 20
79.254372
 40
3.000000
 50
-90.000000
 51
90.000000
  0
LINE
  8
0
  6
CONTINUOUS
 10
292.848755
 20
82.254372
 11
268.848755
 21
82.254372
  0
LINE
  8
0
  6
CONTINUOUS
 10
292.848663
 20
76.254372
 11
268.848755
 21
76.254372
  0
LINE
  8
0
  6
CONTINUOUS
 10
416.848755
 20
70.254372
 11
416.848755
 21
88.254372
  0
LINE
  8
0
  6
CONTINUOUS
 10
386.848755
 20
88.254372
 11
416.848755
 21
88.254372
  0
LINE
  8
0
  6
CONTINUOUS
 10
386.848755
 20
70.254372
 11
416.848755
 21
70.254372
  0
LINE
  8
0
  6
CONTINUOUS
 10
386.848755
 20
89.254372
 11
386.848755
 21
69.254372
  0
LINE
  8
0
  6
CONTINUOUS
 10
384.848755
 20
89.254372
 11
386.848755
 21
89.254372
  0
LINE
  8
0
  6
CONTINUOUS
 10
384.848755
 20
69.254372
 11
386.848755
 21
69.254372
  0
ARC
  8
0
  6
CONTINUOUS
 10
392.848755
 20
79.254372
 40
3.000000
 50
90.000000
 51
270.000000
  0
LINE
  8
0
  6
CONTINUOUS
 10
392.848755
 20
82.254372
 11
416.848755
 21
82.254372
  0
LINE
  8
0
  6
CONTINUOUS
 10
392.848755
 20
76.254372
 11
416.848755
 21
76.254372
  0
LINE
  8
0
  6
CENTER
 10
-10.637500
 20
253.923126
 11
210.490005
 21
253.923126
  0
LINE
  8
0
  6
CONTINUOUS
 10
196.007858
 20
302.097656
 11
196.848755
 21
253.923126
  0
LINE
  8
0
  6
CONTINUOUS
 10
186.009384
 20
311.923126
 11
157.848755
 21
311.923126
  0
LINE
  8
0
  6
CONTINUOUS
 10
97.848747
 20
290.923126
 11
194.237518
 21
290.923126
  0
LINE
  8
0
  6
CENTER
 10
146.348755
 20
130.503128
 11
146.348755
 21
-2.964725
  0
ARC
  8
0
  6
CONTINUOUS
 10
186.009384
 20
301.923126
 40
10.000000
 50
1.000000
 51
90.000000
  0
ARC
  8
0
  6
CONTINUOUS
 10
194.237518
 20
288.923126
 40
2.000000
 50
1.000000
 51
90.000000
  0
LINE
  8
0
  6
CENTER
 10
174.753433
 20
301.923126
 11
195.095932
 21
301.923126
  0
CIRCLE
  8
0
  6
CONTINUOUS
 10
184.348755
 20
301.923126
 40
4.250000
  0
LINE
  8
0
  6
CONTINUOUS
 10
2.848750
 20
218.923126
 11
2.848750
 21
288.923126
  0
LINE
  8
0
  6
CONTINUOUS
 10
7.390199
 20
298.923126
 11
23.348749
 21
298.923126
  0
LINE
  8
0
  6
CONTINUOUS
 10
3.348750
 20
295.923126
 11
3.348750
 21
211.923126
  0
LINE
  8
0
  6
CONTINUOUS
 10
23.348749
 20
282.923126
 11
5.098750
 21
282.923126
  0
ARC
  8
0
  6
CONTINUOUS
 10
2.848749
 20
289.423126
 40
0.500000
 50
-90.000000
 51
0.000000
  0
LINE
  8
0
  6
CONTINUOUS
 10
3.926093
 20
296.923126
 11
3.348750
 21
295.923126
  0
ARC
  8
0
  6
CONTINUOUS
 10
7.390213
 20
294.923126
 40
4.000000
 50
90.000000
 51
150.000397
  0
LINE
  8
0
  6
CONTINUOUS
 10
7.390199
 20
208.923126
 11
23.348749
 21
208.923126
  0
ARC
  8
0
  6
CONTINUOUS
 10
2.848749
 20
218.423126
 40
0.500000
 50
0.000000
 51
90.000000
  0
LINE
  8
0
  6
CONTINUOUS
 10
3.926093
 20
210.923141
 11
3.348750
 21
211.923126
  0
ARC
  8
0
  6
CONTINUOUS
 10
7.390213
 20
212.923111
 40
4.000000
 50
-150.000397
 51
-90.000000
  0
LINE
  8
0
  6
CONTINUOUS
 10
23.348749
 20
208.923126
 11
23.348749
 21
247.057098
  0
LINE
  8
0
  6
CENTER
 10
108.348747
 20
310.630005
 11
108.348747
 21
291.670013
  0
LINE
  8
0
  6
CONTINUOUS
 10
96.689636
 20
302.097656
 11
96.503662
 21
291.443024
  0
ARC
  8
0
  6
CONTINUOUS
 10
106.688118
 20
301.923126
 40
10.000000
 50
90.000000
 51
179.000000
  0
ARC
  8
0
  6
CONTINUOUS
 10
98.459984
 20
288.923126
 40
2.000000
 50
90.000000
 51
179.000000
  0
LINE
  8
0
  6
CENTER
 10
117.675941
 20
301.923126
 11
98.123436
 21
301.923126
  0
CIRCLE
  8
0
  6
CONTINUOUS
 10
108.348747
 20
301.923126
 40
4.250000
  0
LINE
  8
0
  6
CONTINUOUS
 10
95.848747
 20
292.923126
 11
95.848747
 21
296.923126
  0
LINE
  8
0
  6
CONTINUOUS
 10
93.848747
 20
298.923126
 11
23.348749
 21
298.923126
  0
ARC
  8
0
  6
CONTINUOUS
 10
105.848770
 20
88.554192
 40
10.000000
 50
125.049377
 51
180.000000
  0
ARC
  8
0
  6
CONTINUOUS
 10
132.506531
 20
107.254372
 40
10.000000
 50
90.000000
 51
125.049332
  0
ARC
  8
0
  6
CONTINUOUS
 10
160.190979
 20
107.254372
 40
10.000000
 50
54.950645
 51
90.000000
  0
ARC
  8
0
  6
CONTINUOUS
 10
186.848755
 20
88.554161
 40
10.000000
 50
0.000000
 51
54.950645
  0
ARC
  8
0
  6
CONTINUOUS
 10
93.848747
 20
296.923126
 40
2.000000
 50
0.000000
 51
90.000000
  0
ARC
  8
0
  6
CONTINUOUS
 10
97.848747
 20
292.923126
 40
2.000000
 50
180.000000
 51
270.000000
  0
LINE
  8
0
  6
CONTINUOUS
 10
96.460289
 20
288.958038
 11
96.354950
 21
282.923126
  0
LINE
  8
0
  6
CONTINUOUS
 10
23.348749
 20
282.923126
 11
102.691299
 21
282.923126
  0
LINE
  8
0
  6
CONTINUOUS
 10
23.348749
 20
224.923126
 11
5.098750
 21
224.923126
  0
LINE
  8
0
  6
CONTINUOUS
 10
23.348749
 20
224.923126
 11
102.691299
 21
224.923126
  0
LINE
  8
0
  6
CONTINUOUS
 10
93.848747
 20
208.923126
 11
23.348749
 21
208.923126
  0
ARC
  8
0
  6
CONTINUOUS
 10
93.848747
 20
210.923126
 40
2.000000
 50
-90.000000
 51
0.000000
  0
LINE
  8
0
  6
CENTER
 10
184.348755
 20
197.067505
 11
184.348755
 21
216.126251
  0
LINE
  8
0
  6
CONTINUOUS
 10
196.007858
 20
205.748596
 11
196.848755
 21
253.923126
  0
LINE
  8
0
  6
CONTINUOUS
 10
186.009384
 20
195.923126
 11
157.848755
 21
195.923126
  0
LINE
  8
0
  6
CONTINUOUS
 10
97.848747
 20
216.923126
 11
194.237518
 21
216.923126
  0
ARC
  8
0
  6
CONTINUOUS
 10
186.009384
 20
205.923126
 40
10.000000
 50
-90.000000
 51
-1.000000
  0
ARC
  8
0
  6
CONTINUOUS
 10
194.237518
 20
218.923126
 40
2.000000
 50
-90.000000
 51
-1.000000
  0
LINE
  8
0
  6
CENTER
 10
175.247192
 20
205.923126
 11
195.293442
 21
205.923126
  0
CIRCLE
  8
0
  6
CONTINUOUS
 10
184.348755
 20
205.923126
 40
4.250000
  0
LINE
  8
0
  6
CENTER
 10
108.348747
 20
196.573746
 11
108.348747
 21
215.928757
  0
LINE
  8
0
  6
CONTINUOUS
 10
96.689636
 20
205.748596
 11
96.503662
 21
216.403244
  0
ARC
  8
0
  6
CONTINUOUS
 10
106.688118
 20
205.923126
 40
10.000000
 50
-179.000000
 51
-90.000000
  0
ARC
  8
0
  6
CONTINUOUS
 10
98.459984
 20
218.923126
 40
2.000000
 50
-179.000000
 51
-90.000000
  0
LINE
  8
0
  6
CENTER
 10
118.169685
 20
205.923126
 11
97.925941
 21
205.923126
  0
CIRCLE
  8
0
  6
CONTINUOUS
 10
108.348747
 20
205.923126
 40
4.250000
  0
LINE
  8
0
  6
CONTINUOUS
 10
95.848747
 20
214.923126
 11
95.848747
 21
210.923126
  0
ARC
  8
0
  6
CONTINUOUS
 10
97.848747
 20
214.923126
 40
2.000000
 50
-270.000000
 51
-180.000000
  0
LINE
  8
0
  6
CONTINUOUS
 10
96.460289
 20
218.888214
 11
96.354950
 21
224.923126
  0
LINE
  8
0
  6
CONTINUOUS
 10
129.348755
 20
285.923126
 11
129.348755
 21
221.923126
  0
LINE
  8
0
  6
CONTINUOUS
 10
163.348755
 20
285.923126
 11
163.348755
 21
221.923126
  0
LINE
  8
0
  6
CONTINUOUS
 10
102.691299
 20
280.923126
 11
102.691299
 21
226.923126
  0
LINE
  8
0
  6
CONTINUOUS
 10
168.848755
 20
295.923126
 11
123.848747
 21
295.923126
  0
LINE
  8
0
  6
CONTINUOUS
 10
122.848747
 20
294.923126
 11
122.848747
 21
292.923126
  0
LINE
  8
0
  6
CONTINUOUS
 10
169.848755
 20
294.923126
 11
169.848755
 21
292.923126
  0
ARC
  8
0
  6
CONTINUOUS
 10
120.848747
 20
292.923126
 40
2.000000
 50
-90.000000
 51
0.000000
  0
ARC
  8
0
  6
CONTINUOUS
 10
171.848740
 20
292.923126
 40
2.000000
 50
180.000000
 51
270.000000
  0
ARC
  8
0
  6
CONTINUOUS
 10
123.848763
 20
294.923126
 40
1.000000
 50
90.000000
 51
180.000000
  0
ARC
  8
0
  6
CONTINUOUS
 10
168.848755
 20
294.923126
 40
1.000000
 50
0.000000
 51
90.000000
  0
LINE
  8
0
  6
CONTINUOUS
 10
157.848755
 20
327.923126
 11
137.348755
 21
327.923126
  0
LINE
  8
0
  6
CONTINUOUS
 10
137.348755
 20
297.923126
 11
137.348755
 21
327.923126
  0
LINE
  8
0
  6
CONTINUOUS
 10
155.348755
 20
297.923126
 11
155.348755
 21
300.923126
  0
LINE
  8
0
  6
CONTINUOUS
 10
136.348755
 20
297.923126
 11
156.348755
 21
297.923126
  0
LINE
  8
0
  6
CONTINUOUS
 10
136.348755
 20
295.923126
 11
136.348755
 21
297.923126
  0
LINE
  8
0
  6
CONTINUOUS
 10
156.348755
 20
295.923126
 11
156.348755
 21
297.923126
  0
LINE
  8
0
  6
CONTINUOUS
 10
157.848755
 20
327.923126
 11
157.848755
 21
300.923126
  0
LINE
  8
0
  6
CONTINUOUS
 10
157.848755
 20
300.923126
 11
154.833755
 21
300.923126
  0
LINE
  8
0
  6
CONTINUOUS
 10
154.833755
 20
327.923126
 11
154.833755
 21
300.923126
  0
LINE
  8
0
  6
CONTINUOUS
 10
137.348755
 20
311.923126
 11
106.688118
 21
311.923126
  0
LINE
  8
0
  6
CONTINUOUS
 10
168.848755
 20
211.923126
 11
123.848747
 21
211.923126
  0
LINE
  8
0
  6
CONTINUOUS
 10
122.848747
 20
212.923126
 11
122.848747
 21
214.923126
  0
LINE
  8
0
  6
CONTINUOUS
 10
169.848755
 20
212.923126
 11
169.848755
 21
214.923126
  0
ARC
  8
0
  6
CONTINUOUS
 10
120.848747
 20
214.923126
 40
2.000000
 50
0.000000
 51
90.000000
  0
ARC
  8
0
  6
CONTINUOUS
 10
171.848740
 20
214.923126
 40
2.000000
 50
-270.000000
 51
-180.000000
  0
ARC
  8
0
  6
CONTINUOUS
 10
123.848763
 20
212.923126
 40
1.000000
 50
-180.000000
 51
-90.000000
  0
ARC
  8
0
  6
CONTINUOUS
 10
168.848755
 20
212.923126
 40
1.000000
 50
-90.000000
 51
0.000000
  0
LINE
  8
0
  6
CONTINUOUS
 10
157.848755
 20
179.923126
 11
137.348755
 21
179.923126
  0
LINE
  8
0
  6
CONTINUOUS
 10
137.348755
 20
209.923126
 11
137.348755
 21
179.923126
  0
LINE
  8
0
  6
CONTINUOUS
 10
155.348755
 20
209.923126
 11
155.348755
 21
206.923126
  0
LINE
  8
0
  6
CONTINUOUS
 10
136.348755
 20
209.923126
 11
156.348755
 21
209.923126
  0
LINE
  8
0
  6
CONTINUOUS
 10
136.348755
 20
211.923126
 11
136.348755
 21
209.923126
  0
LINE
  8
0
  6
CONTINUOUS
 10
156.348755
 20
211.923126
 11
156.348755
 21
209.923126
  0
LINE
  8
0
  6
CONTINUOUS
 10
157.848755
 20
179.923126
 11
157.848755
 21
206.923126
  0
LINE
  8
0
  6
CONTINUOUS
 10
157.848755
 20
206.923126
 11
154.833755
 21
206.923126
  0
LINE
  8
0
  6
CONTINUOUS
 10
154.833755
 20
179.923126
 11
154.833755
 21
206.923126
  0
LINE
  8
0
  6
CONTINUOUS
 10
137.348755
 20
195.923126
 11
106.688118
 21
195.923126
  0
LINE
  8
0
  6
CONTINUOUS
 10
23.348749
 20
260.789154
 11
23.348749
 21
298.923126
  0
LINE
  8
0
  6
CENTER
 10
184.348755
 20
18.991875
 11
184.348755
 21
-3.008125
  0
TEXT
  8
0
 10
-10.000000
 20
-3.000000
 40
4.000000
 41
1.000000
  1
HLM-18T-10~240-T60W
 50
0.000000
  0
ENDSEC
  0
EOF
