  0
SECTION
  2
HEADER
  9
$CLAYER
  8
1
  9
$LTSCALE
 40
3.0
  0
ENDSEC
  0
SECTION
  2
TABLES
  0
TABLE
  2
LTYPE
 70
     4
  0
LTYPE
  2
CONTINUOUS
  3
solid line
 70
    64
 72
    65
 73
     0
 40
0.0
  0
LTYPE
  2
DASHED
  3
__ __ __ __ __ __ __ __ __ __ __ __ __ __ __
 70
    64
 72
    65
 73
     2
 40
0.75
 49
0.5
 49
-0.25
  0
LTYPE
  2
CENTER
  3
____ _ ____ _ ____ _ ____ _ ____ _ ____ _ ____
 70
    64
 72
    65
 73
     4
 40
2.0
 49
1.25
 49
-0.25
 49
0.25
 49
-0.25
  0
LTYPE
  2
PHANTOM
  3
_____ _ _ _____ _ _ _____ _ _ _____ _ _ ____
 70
    64
 72
    65
 73
     6
 40
2.5
 49
1.25
 49
-0.25
 49
0.25
 49
-0.25
 49
0.25
 49
-0.25
  0
ENDTAB
  0
TABLE
  2
LAYER
 70
     1
  0
LAYER
  2
0
 70
    64
 62
     7
  6
CONTINUOUS
  0
ENDTAB
  0
TABLE
  2
STYLE
 70
     1
  0
STYLE
  2
STANDARD
 70
     0
 40
0.000000
 41
1.000000
 50
0.000000
 71
     0
 42
3.000000
  3
txt
  4
BIGFONT
  0
ENDTAB
  0
ENDSEC
  0
SECTION
  2
BLOCKS
  0
ENDSEC
  0
SECTION
  2
ENTITIES
  0
LINE
  8
0
  6
CONTINUOUS
 10
2.848750
 20
17.980000
 11
2.848750
 21
87.980003
  0
LINE
  8
0
  6
CONTINUOUS
 10
7.390199
 20
97.980003
 11
23.348749
 21
97.980003
  0
LINE
  8
0
  6
CONTINUOUS
 10
3.348750
 20
94.980003
 11
3.348750
 21
10.980000
  0
LINE
  8
0
  6
CONTINUOUS
 10
23.348749
 20
87.389297
 11
5.098750
 21
87.389297
  0
ARC
  8
0
  6
CONTINUOUS
 10
2.848749
 20
88.480003
 40
0.500000
 50
-90.000000
 51
0.000000
  0
LINE
  8
0
  6
CONTINUOUS
 10
3.926093
 20
95.979988
 11
3.348750
 21
94.980003
  0
ARC
  8
0
  6
CONTINUOUS
 10
7.390213
 20
93.980011
 40
4.000000
 50
90.000000
 51
150.000397
  0
LINE
  8
0
  6
CONTINUOUS
 10
7.390199
 20
7.980000
 11
23.348749
 21
7.980000
  0
LINE
  8
0
  6
CONTINUOUS
 10
23.348749
 20
18.570700
 11
5.098750
 21
18.570700
  0
ARC
  8
0
  6
CONTINUOUS
 10
2.848749
 20
17.480000
 40
0.500000
 50
0.000000
 51
90.000000
  0
LINE
  8
0
  6
CONTINUOUS
 10
3.926093
 20
9.980010
 11
3.348750
 21
10.980000
  0
ARC
  8
0
  6
CONTINUOUS
 10
7.390213
 20
11.979990
 40
4.000000
 50
-150.000397
 51
-90.000000
  0
LINE
  8
0
  6
CONTINUOUS
 10
23.348749
 20
7.980000
 11
23.348749
 21
97.980003
  0
LINE
  8
0
  6
CENTER
 10
-8.300000
 20
52.980000
 11
119.138252
 21
52.980000
  0
LINE
  8
0
  6
CONTINUOUS
 10
196.848755
 20
10.680000
 11
196.848755
 21
3.680000
  0
LINE
  8
0
  6
CONTINUOUS
 10
23.348749
 20
7.980000
 11
95.848747
 21
7.980000
  0
LINE
  8
0
  6
CONTINUOUS
 10
23.348749
 20
97.980003
 11
102.691299
 21
97.980003
  0
LINE
  8
0
  6
CENTER
 10
146.348755
 20
356.577515
 11
146.348755
 21
195.406876
  0
LINE
  8
0
  6
CENTER
 10
110.836052
 20
78.680000
 11
182.789993
 21
78.680000
  0
LINE
  8
0
  6
CONTINUOUS
 10
95.848747
 20
3.680000
 11
196.848755
 21
3.680000
  0
LINE
  8
0
  6
CONTINUOUS
 10
160.190979
 20
116.680000
 11
132.506531
 21
116.680000
  0
LINE
  8
0
  6
CONTINUOUS
 10
97.848747
 20
12.680000
 11
194.848755
 21
12.680000
  0
LINE
  8
0
  6
CENTER
 10
184.348755
 20
332.209381
 11
184.348755
 21
313.446869
  0
LINE
  8
0
  6
CENTER
 10
108.348747
 20
18.417500
 11
108.348747
 21
-3.582500
  0
LINE
  8
0
  6
CONTINUOUS
 10
192.591568
 20
96.166367
 11
165.933807
 21
114.866577
  0
LINE
  8
0
  6
CONTINUOUS
 10
126.763718
 20
114.866577
 11
100.105949
 21
96.166382
  0
LINE
  8
0
  6
CONTINUOUS
 10
196.848755
 20
87.979790
 11
196.848755
 21
10.680000
  0
ARC
  8
0
  6
CONTINUOUS
 10
194.848755
 20
10.679990
 40
2.000000
 50
0.000000
 51
90.000000
  0
ARC
  8
0
  6
CONTINUOUS
 10
97.848763
 20
10.680000
 40
2.000000
 50
90.000000
 51
180.000000
  0
LINE
  8
0
  6
DASHED
 10
188.598755
 20
12.680000
 11
188.598755
 21
3.680000
  0
LINE
  8
0
  6
DASHED
 10
180.098755
 20
12.680000
 11
180.098755
 21
3.680000
  0
LINE
  8
0
  6
DASHED
 10
112.598747
 20
12.680000
 11
112.598747
 21
3.680000
  0
LINE
  8
0
  6
DASHED
 10
104.098747
 20
12.680000
 11
104.098747
 21
3.680000
  0
CIRCLE
  8
0
  6
CONTINUOUS
 10
146.348755
 20
78.680000
 40
23.500000
  0
LINE
  8
0
  6
CONTINUOUS
 10
98.348747
 20
79.372192
 11
98.348747
 21
47.987484
  0
LINE
  8
0
  6
CONTINUOUS
 10
194.348755
 20
79.372360
 11
194.348755
 21
47.987648
  0
ARC
  8
0
  6
CONTINUOUS
 10
146.348755
 20
63.680000
 40
50.500000
 50
198.103806
 51
341.896210
  0
LINE
  8
0
  6
CONTINUOUS
 10
95.848770
 20
87.979813
 11
95.848701
 21
3.680000
  0
ARC
  8
0
  6
CONTINUOUS
 10
146.348755
 20
63.680000
 40
50.500000
 50
18.103790
 51
161.896194
  0
LINE
  8
0
  6
CONTINUOUS
 10
23.348749
 20
87.389297
 11
94.231659
 21
87.389297
  0
LINE
  8
0
  6
CONTINUOUS
 10
23.348749
 20
18.570700
 11
94.231659
 21
18.570700
  0
LINE
  8
0
  6
CONTINUOUS
 10
139.973755
 20
41.233219
 11
139.973755
 21
35.680000
  0
LINE
  8
0
  6
CONTINUOUS
 10
143.161255
 20
43.250313
 11
143.161255
 21
45.242500
  0
LINE
  8
0
  6
CONTINUOUS
 10
149.536255
 20
43.250313
 11
149.536255
 21
45.242500
  0
LINE
  8
0
  6
CONTINUOUS
 10
145.726151
 20
44.072090
 11
145.726151
 21
36.725899
  0
LINE
  8
0
  6
CONTINUOUS
 10
146.921555
 20
44.072090
 11
146.921555
 21
36.725899
  0
LINE
  8
0
  6
CONTINUOUS
 10
153.196854
 20
44.072090
 11
153.196854
 21
36.676090
  0
LINE
  8
0
  6
CONTINUOUS
 10
154.292557
 20
40.149971
 11
154.292557
 21
36.676090
  0
LINE
  8
0
  6
CONTINUOUS
 10
138.461243
 20
43.972481
 11
135.389343
 21
43.972481
  0
LINE
  8
0
  6
CONTINUOUS
 10
135.389343
 20
43.972481
 11
134.669556
 21
43.079987
  0
LINE
  8
0
  6
CONTINUOUS
 10
134.756149
 20
45.242500
 11
133.598755
 21
43.760506
  0
LINE
  8
0
  6
CONTINUOUS
 10
134.669556
 20
37.570919
 11
135.400848
 21
36.800610
  0
LINE
  8
0
  6
CONTINUOUS
 10
133.598755
 20
36.920860
 11
134.828552
 21
35.680000
  0
LINE
  8
0
  6
CONTINUOUS
 10
133.598755
 20
43.760506
 11
133.598755
 21
36.920860
  0
LINE
  8
0
  6
CONTINUOUS
 10
134.669556
 20
43.079987
 11
134.669556
 21
37.570919
  0
LINE
  8
0
  6
CONTINUOUS
 10
139.052353
 20
43.401039
 11
138.449142
 21
43.972481
  0
LINE
  8
0
  6
CONTINUOUS
 10
139.042755
 20
45.242500
 11
139.973755
 21
44.209358
  0
LINE
  8
0
  6
CONTINUOUS
 10
139.052353
 20
43.250313
 11
139.973755
 21
43.250313
  0
LINE
  8
0
  6
CONTINUOUS
 10
134.756149
 20
45.242500
 11
139.042755
 21
45.242500
  0
LINE
  8
0
  6
CONTINUOUS
 10
139.052353
 20
40.187321
 11
137.383957
 21
40.187321
  0
LINE
  8
0
  6
CONTINUOUS
 10
139.052353
 20
39.191231
 11
139.052353
 21
39.988110
  0
LINE
  8
0
  6
CONTINUOUS
 10
137.060150
 20
36.800610
 11
135.400848
 21
36.800610
  0
ARC
  8
0
  6
CONTINUOUS
 10
137.060150
 20
38.792789
 40
1.992187
 50
-89.999786
 51
0.000109
  0
LINE
  8
0
  6
CONTINUOUS
 10
139.052353
 20
36.442268
 11
139.052353
 21
35.680000
  0
LINE
  8
0
  6
CONTINUOUS
 10
139.973755
 20
44.209358
 11
139.973755
 21
43.250313
  0
LINE
  8
0
  6
CONTINUOUS
 10
139.052353
 20
40.187321
 11
139.052353
 21
38.792789
  0
LINE
  8
0
  6
CONTINUOUS
 10
137.383957
 20
41.233219
 11
137.383957
 21
40.187321
  0
LINE
  8
0
  6
CONTINUOUS
 10
139.052353
 20
35.680000
 11
139.973755
 21
35.680000
  0
LINE
  8
0
  6
CONTINUOUS
 10
139.052353
 20
36.442268
 11
138.143845
 21
35.680000
  0
LINE
  8
0
  6
CONTINUOUS
 10
146.921555
 20
36.725899
 11
147.319946
 21
36.725899
  0
LINE
  8
0
  6
CONTINUOUS
 10
145.253052
 20
36.725899
 11
145.253052
 21
35.680000
  0
LINE
  8
0
  6
CONTINUOUS
 10
147.319946
 20
36.725899
 11
147.319946
 21
35.680000
  0
LINE
  8
0
  6
CONTINUOUS
 10
148.871246
 20
43.250313
 11
149.536255
 21
43.250313
  0
LINE
  8
0
  6
CONTINUOUS
 10
143.161255
 20
43.250313
 11
143.868851
 21
43.250313
  0
LINE
  8
0
  6
CONTINUOUS
 10
143.161255
 20
45.242500
 11
149.536255
 21
45.242500
  0
LINE
  8
0
  6
CONTINUOUS
 10
145.253052
 20
35.680000
 11
147.319946
 21
35.680000
  0
LINE
  8
0
  6
CONTINUOUS
 10
145.253052
 20
36.725899
 11
145.726151
 21
36.725899
  0
ARC
  8
0
  6
CONTINUOUS
 10
156.546249
 20
42.690010
 40
2.552490
 50
-73.981873
 51
90.003510
  0
ARC
  8
0
  6
CONTINUOUS
 10
156.546249
 20
42.690010
 40
1.557193
 50
-82.585274
 51
62.411850
  0
LINE
  8
0
  6
CONTINUOUS
 10
152.723755
 20
45.242500
 11
156.546249
 21
45.242500
  0
LINE
  8
0
  6
CONTINUOUS
 10
152.723755
 20
45.242500
 11
152.723755
 21
44.072090
  0
LINE
  8
0
  6
CONTINUOUS
 10
154.292557
 20
44.072090
 11
154.292557
 21
41.145840
  0
LINE
  8
0
  6
CONTINUOUS
 10
157.250549
 20
40.236622
 11
158.830444
 21
36.676090
  0
LINE
  8
0
  6
CONTINUOUS
 10
156.333054
 20
40.149971
 11
157.828156
 21
36.676090
  0
LINE
  8
0
  6
CONTINUOUS
 10
152.723755
 20
36.676090
 11
153.196854
 21
36.676090
  0
LINE
  8
0
  6
CONTINUOUS
 10
154.292557
 20
36.676090
 11
154.728348
 21
36.676090
  0
LINE
  8
0
  6
CONTINUOUS
 10
154.728348
 20
35.680000
 11
152.723755
 21
35.680000
  0
LINE
  8
0
  6
CONTINUOUS
 10
157.629547
 20
36.676090
 11
157.828156
 21
36.676090
  0
LINE
  8
0
  6
CONTINUOUS
 10
158.830444
 20
36.676090
 11
159.098755
 21
36.676090
  0
LINE
  8
0
  6
CONTINUOUS
 10
157.629547
 20
35.680000
 11
159.098755
 21
35.680000
  0
LINE
  8
0
  6
CONTINUOUS
 10
159.098755
 20
36.676090
 11
159.098755
 21
35.680000
  0
LINE
  8
0
  6
CONTINUOUS
 10
157.629547
 20
36.676090
 11
157.629547
 21
35.680000
  0
LINE
  8
0
  6
CONTINUOUS
 10
154.728348
 20
36.676090
 11
154.728348
 21
35.680000
  0
LINE
  8
0
  6
CONTINUOUS
 10
152.723755
 20
36.676090
 11
152.723755
 21
35.680000
  0
LINE
  8
0
  6
CONTINUOUS
 10
144.211243
 20
44.072090
 11
143.868851
 21
43.250313
  0
LINE
  8
0
  6
CONTINUOUS
 10
148.582550
 20
44.072090
 11
148.871246
 21
43.250313
  0
LINE
  8
0
  6
CONTINUOUS
 10
146.921555
 20
44.072090
 11
148.582550
 21
44.072090
  0
LINE
  8
0
  6
CONTINUOUS
 10
145.726151
 20
44.072090
 11
144.211243
 21
44.072090
  0
LINE
  8
0
  6
CONTINUOUS
 10
152.723755
 20
44.072090
 11
153.196854
 21
44.072090
  0
LINE
  8
0
  6
CONTINUOUS
 10
154.292557
 20
44.072090
 11
157.267456
 21
44.070152
  0
LINE
  8
0
  6
CONTINUOUS
 10
139.052353
 20
43.401039
 11
139.052353
 21
43.250313
  0
LINE
  8
0
  6
CONTINUOUS
 10
134.828552
 20
35.680000
 11
138.143845
 21
35.680000
  0
LINE
  8
0
  6
CONTINUOUS
 10
154.292557
 20
41.145840
 11
156.747253
 21
41.145840
  0
LINE
  8
0
  6
CONTINUOUS
 10
154.292557
 20
40.149971
 11
156.333054
 21
40.149971
  0
LINE
  8
0
  6
CONTINUOUS
 10
137.383957
 20
41.233219
 11
139.973755
 21
41.233219
  0
LINE
  8
0
  6
CENTER
 10
342.848755
 20
-3.106690
 11
342.848755
 21
153.070938
  0
LINE
  8
0
  6
CENTER
 10
287.598755
 20
52.980000
 11
393.816559
 21
52.980000
  0
LINE
  8
0
  6
CONTINUOUS
 10
400.848755
 20
10.680000
 11
400.848755
 21
3.680000
  0
LINE
  8
0
  6
CONTINUOUS
 10
284.848755
 20
10.680000
 11
284.848755
 21
3.680000
  0
LINE
  8
0
  6
CENTER
 10
259.598755
 20
78.680000
 11
424.098755
 21
78.680000
  0
LINE
  8
0
  6
CONTINUOUS
 10
284.848755
 20
3.680000
 11
400.848755
 21
3.680000
  0
LINE
  8
0
  6
CONTINUOUS
 10
382.848755
 20
12.680000
 11
398.848755
 21
12.680000
  0
LINE
  8
0
  6
CONTINUOUS
 10
305.848755
 20
15.680000
 11
305.848755
 21
114.068626
  0
LINE
  8
0
  6
CONTINUOUS
 10
379.848755
 20
15.680000
 11
379.848755
 21
114.068764
  0
LINE
  8
0
  6
CONTINUOUS
 10
384.848755
 20
56.179996
 11
384.848755
 21
101.180000
  0
LINE
  8
0
  6
CONTINUOUS
 10
383.848755
 20
102.180000
 11
381.848755
 21
102.180000
  0
LINE
  8
0
  6
CONTINUOUS
 10
383.848755
 20
55.179996
 11
381.848755
 21
55.179996
  0
LINE
  8
0
  6
CONTINUOUS
 10
342.848755
 20
116.680000
 11
377.883636
 21
116.068466
  0
LINE
  8
0
  6
CONTINUOUS
 10
307.813843
 20
116.068329
 11
342.848755
 21
116.680000
  0
ARC
  8
0
  6
CONTINUOUS
 10
381.848755
 20
104.180000
 40
2.000000
 50
180.000000
 51
270.000000
  0
ARC
  8
0
  6
CONTINUOUS
 10
377.848755
 20
114.068764
 40
2.000000
 50
0.000000
 51
89.000137
  0
ARC
  8
0
  6
CONTINUOUS
 10
307.848755
 20
114.068642
 40
2.000000
 50
91.000641
 51
180.000000
  0
ARC
  8
0
  6
CONTINUOUS
 10
381.848755
 20
53.180008
 40
2.000000
 50
90.000000
 51
180.000000
  0
ARC
  8
0
  6
CONTINUOUS
 10
383.848755
 20
101.179993
 40
1.000000
 50
0.000000
 51
90.000000
  0
ARC
  8
0
  6
CONTINUOUS
 10
383.848755
 20
56.179996
 40
1.000000
 50
-90.000000
 51
0.000000
  0
LINE
  8
0
  6
CONTINUOUS
 10
307.098755
 20
93.180000
 11
378.848755
 21
93.180000
  0
ARC
  8
0
  6
CONTINUOUS
 10
398.848755
 20
10.679990
 40
2.000000
 50
0.000000
 51
90.000000
  0
ARC
  8
0
  6
CONTINUOUS
 10
286.848755
 20
10.680010
 40
2.000000
 50
90.000000
 51
180.000000
  0
LINE
  8
0
  6
CENTER
 10
390.848755
 20
16.636250
 11
390.848755
 21
-0.613750
  0
LINE
  8
0
  6
CENTER
 10
294.848755
 20
16.636250
 11
294.848755
 21
-1.363750
  0
LINE
  8
0
  6
DASHED
 10
299.098755
 20
12.680000
 11
299.098755
 21
3.680000
  0
LINE
  8
0
  6
DASHED
 10
290.598755
 20
12.680000
 11
290.598755
 21
3.680000
  0
LINE
  8
0
  6
DASHED
 10
395.098755
 20
12.680000
 11
395.098755
 21
3.680000
  0
LINE
  8
0
  6
DASHED
 10
386.598755
 20
12.680000
 11
386.598755
 21
3.680000
  0
ARC
  8
0
  6
CONTINUOUS
 10
342.848755
 20
52.980000
 40
45.000000
 50
159.637695
 51
214.692093
  0
ARC
  8
0
  6
CONTINUOUS
 10
342.848755
 20
52.980000
 40
45.000000
 50
-34.692108
 51
20.437799
  0
LINE
  8
0
  6
CONTINUOUS
 10
300.848755
 20
56.179996
 11
300.848755
 21
101.180000
  0
LINE
  8
0
  6
CONTINUOUS
 10
301.848755
 20
102.180000
 11
303.848755
 21
102.180000
  0
LINE
  8
0
  6
CONTINUOUS
 10
301.848755
 20
55.179996
 11
303.848755
 21
55.179996
  0
ARC
  8
0
  6
CONTINUOUS
 10
303.848755
 20
104.180000
 40
2.000000
 50
-90.000000
 51
0.000000
  0
ARC
  8
0
  6
CONTINUOUS
 10
303.848755
 20
53.180008
 40
2.000000
 50
0.000000
 51
90.000000
  0
ARC
  8
0
  6
CONTINUOUS
 10
301.848755
 20
101.179993
 40
1.000000
 50
90.000000
 51
180.000000
  0
ARC
  8
0
  6
CONTINUOUS
 10
301.848755
 20
56.179996
 40
1.000000
 50
180.000000
 51
270.000000
  0
LINE
  8
0
  6
CONTINUOUS
 10
302.848755
 20
12.680000
 11
286.848755
 21
12.680000
  0
ARC
  8
0
  6
CONTINUOUS
 10
302.848755
 20
15.680000
 40
3.000000
 50
-90.000000
 51
0.000000
  0
ARC
  8
0
  6
CONTINUOUS
 10
382.848755
 20
15.680000
 40
3.000000
 50
180.000000
 51
270.000000
  0
LINE
  8
0
  6
CONTINUOUS
 10
151.848755
 20
75.680023
 11
151.848755
 21
81.680023
  0
LINE
  8
0
  6
CONTINUOUS
 10
157.848755
 20
75.680038
 11
157.848755
 21
81.680038
  0
LINE
  8
0
  6
CONTINUOUS
 10
157.848755
 20
75.680038
 11
151.848755
 21
75.680023
  0
LINE
  8
0
  6
CONTINUOUS
 10
157.848755
 20
81.680038
 11
151.848755
 21
81.680023
  0
ARC
  8
0
  6
CONTINUOUS
 10
146.348755
 20
78.680000
 40
9.000000
 50
19.471210
 51
340.528809
  0
LINE
  8
0
  6
CONTINUOUS
 10
268.848755
 20
69.680000
 11
268.848755
 21
87.680000
  0
LINE
  8
0
  6
CONTINUOUS
 10
298.848755
 20
87.680000
 11
268.848755
 21
87.680000
  0
LINE
  8
0
  6
CONTINUOUS
 10
298.848755
 20
69.680000
 11
268.848755
 21
69.680000
  0
LINE
  8
0
  6
CONTINUOUS
 10
298.848755
 20
88.680000
 11
298.848755
 21
68.680000
  0
LINE
  8
0
  6
CONTINUOUS
 10
300.848755
 20
88.680000
 11
298.848755
 21
88.680000
  0
LINE
  8
0
  6
CONTINUOUS
 10
300.848755
 20
68.680000
 11
298.848755
 21
68.680000
  0
ARC
  8
0
  6
CONTINUOUS
 10
292.848755
 20
78.680000
 40
3.000000
 50
-90.000000
 51
90.000000
  0
LINE
  8
0
  6
CONTINUOUS
 10
292.848755
 20
81.680000
 11
268.848755
 21
81.680000
  0
LINE
  8
0
  6
CONTINUOUS
 10
292.848663
 20
75.680000
 11
268.848755
 21
75.680000
  0
LINE
  8
0
  6
CONTINUOUS
 10
416.848755
 20
69.680000
 11
416.848755
 21
87.680000
  0
LINE
  8
0
  6
CONTINUOUS
 10
386.848755
 20
87.680000
 11
416.848755
 21
87.680000
  0
LINE
  8
0
  6
CONTINUOUS
 10
386.848755
 20
69.680000
 11
416.848755
 21
69.680000
  0
LINE
  8
0
  6
CONTINUOUS
 10
386.848755
 20
88.680000
 11
386.848755
 21
68.680000
  0
LINE
  8
0
  6
CONTINUOUS
 10
384.848755
 20
88.680000
 11
386.848755
 21
88.680000
  0
LINE
  8
0
  6
CONTINUOUS
 10
384.848755
 20
68.680000
 11
386.848755
 21
68.680000
  0
ARC
  8
0
  6
CONTINUOUS
 10
392.848755
 20
78.680000
 40
3.000000
 50
90.000000
 51
270.000000
  0
LINE
  8
0
  6
CONTINUOUS
 10
392.848755
 20
81.680000
 11
416.848755
 21
81.680000
  0
LINE
  8
0
  6
CONTINUOUS
 10
392.848755
 20
75.680000
 11
416.848755
 21
75.680000
  0
LINE
  8
0
  6
CENTER
 10
-10.637500
 20
275.700012
 11
210.490005
 21
275.700012
  0
LINE
  8
0
  6
CONTINUOUS
 10
196.007858
 20
323.874512
 11
196.848755
 21
275.700012
  0
LINE
  8
0
  6
CONTINUOUS
 10
186.009384
 20
333.700012
 11
157.848755
 21
333.700012
  0
LINE
  8
0
  6
CONTINUOUS
 10
97.848747
 20
312.700012
 11
194.237518
 21
312.700012
  0
LINE
  8
0
  6
CENTER
 10
146.348755
 20
129.928757
 11
146.348755
 21
-3.539100
  0
ARC
  8
0
  6
CONTINUOUS
 10
186.009384
 20
323.700012
 40
10.000000
 50
1.000000
 51
90.000000
  0
ARC
  8
0
  6
CONTINUOUS
 10
194.237518
 20
310.700012
 40
2.000000
 50
1.000000
 51
90.000000
  0
LINE
  8
0
  6
CENTER
 10
174.753433
 20
323.700012
 11
195.095932
 21
323.700012
  0
CIRCLE
  8
0
  6
CONTINUOUS
 10
184.348755
 20
323.700012
 40
4.250000
  0
LINE
  8
0
  6
CONTINUOUS
 10
2.848750
 20
240.699997
 11
2.848750
 21
310.700012
  0
LINE
  8
0
  6
CONTINUOUS
 10
7.390199
 20
320.700012
 11
23.348749
 21
320.700012
  0
LINE
  8
0
  6
CONTINUOUS
 10
3.348750
 20
317.700012
 11
3.348750
 21
233.699997
  0
LINE
  8
0
  6
CONTINUOUS
 10
23.348749
 20
304.700012
 11
5.098750
 21
304.700012
  0
ARC
  8
0
  6
CONTINUOUS
 10
2.848749
 20
311.200012
 40
0.500000
 50
-90.000000
 51
0.000000
  0
LINE
  8
0
  6
CONTINUOUS
 10
3.926093
 20
318.699982
 11
3.348750
 21
317.700012
  0
ARC
  8
0
  6
CONTINUOUS
 10
7.390213
 20
316.700012
 40
4.000000
 50
90.000000
 51
150.000397
  0
LINE
  8
0
  6
CONTINUOUS
 10
7.390199
 20
230.699997
 11
23.348749
 21
230.699997
  0
ARC
  8
0
  6
CONTINUOUS
 10
2.848749
 20
240.199997
 40
0.500000
 50
0.000000
 51
90.000000
  0
LINE
  8
0
  6
CONTINUOUS
 10
3.926093
 20
232.700012
 11
3.348750
 21
233.699997
  0
ARC
  8
0
  6
CONTINUOUS
 10
7.390213
 20
234.699997
 40
4.000000
 50
-150.000397
 51
-90.000000
  0
LINE
  8
0
  6
CONTINUOUS
 10
23.348749
 20
230.699997
 11
23.348749
 21
250.699982
  0
LINE
  8
0
  6
CENTER
 10
108.348747
 20
332.406860
 11
108.348747
 21
313.446869
  0
LINE
  8
0
  6
CONTINUOUS
 10
96.689636
 20
323.874512
 11
96.503662
 21
313.219879
  0
ARC
  8
0
  6
CONTINUOUS
 10
106.688118
 20
323.700012
 40
10.000000
 50
90.000000
 51
179.000000
  0
ARC
  8
0
  6
CONTINUOUS
 10
98.459984
 20
310.700012
 40
2.000000
 50
90.000000
 51
179.000000
  0
LINE
  8
0
  6
CENTER
 10
117.675941
 20
323.700012
 11
98.123436
 21
323.700012
  0
CIRCLE
  8
0
  6
CONTINUOUS
 10
108.348747
 20
323.700012
 40
4.250000
  0
LINE
  8
0
  6
CONTINUOUS
 10
95.848747
 20
314.700012
 11
95.848747
 21
318.700012
  0
LINE
  8
0
  6
CONTINUOUS
 10
93.848747
 20
320.700012
 11
23.348749
 21
320.700012
  0
ARC
  8
0
  6
CONTINUOUS
 10
105.848770
 20
87.979813
 40
10.000000
 50
125.049377
 51
180.000000
  0
ARC
  8
0
  6
CONTINUOUS
 10
132.506531
 20
106.680000
 40
10.000000
 50
90.000000
 51
125.049332
  0
ARC
  8
0
  6
CONTINUOUS
 10
160.190979
 20
106.680000
 40
10.000000
 50
54.950645
 51
90.000000
  0
ARC
  8
0
  6
CONTINUOUS
 10
186.848755
 20
87.979790
 40
10.000000
 50
0.000000
 51
54.950645
  0
ARC
  8
0
  6
CONTINUOUS
 10
93.848747
 20
318.700012
 40
2.000000
 50
0.000000
 51
90.000000
  0
ARC
  8
0
  6
CONTINUOUS
 10
97.848747
 20
314.700012
 40
2.000000
 50
180.000000
 51
270.000000
  0
LINE
  8
0
  6
CONTINUOUS
 10
96.460289
 20
310.734894
 11
96.354950
 21
304.700012
  0
LINE
  8
0
  6
CONTINUOUS
 10
23.348749
 20
304.700012
 11
102.691299
 21
304.700012
  0
LINE
  8
0
  6
CONTINUOUS
 10
23.348749
 20
246.699997
 11
5.098750
 21
246.699997
  0
LINE
  8
0
  6
CONTINUOUS
 10
23.348749
 20
246.699997
 11
102.691299
 21
246.699997
  0
LINE
  8
0
  6
CONTINUOUS
 10
93.848747
 20
230.699997
 11
23.348749
 21
230.699997
  0
ARC
  8
0
  6
CONTINUOUS
 10
93.848747
 20
232.699997
 40
2.000000
 50
-90.000000
 51
0.000000
  0
LINE
  8
0
  6
CENTER
 10
184.348755
 20
218.844376
 11
184.348755
 21
237.903122
  0
LINE
  8
0
  6
CONTINUOUS
 10
196.007858
 20
227.525482
 11
196.848755
 21
275.700012
  0
LINE
  8
0
  6
CONTINUOUS
 10
186.009384
 20
217.699997
 11
157.848755
 21
217.699997
  0
LINE
  8
0
  6
CONTINUOUS
 10
97.848747
 20
238.699997
 11
194.237518
 21
238.699997
  0
ARC
  8
0
  6
CONTINUOUS
 10
186.009384
 20
227.699997
 40
10.000000
 50
-90.000000
 51
-1.000000
  0
ARC
  8
0
  6
CONTINUOUS
 10
194.237518
 20
240.699997
 40
2.000000
 50
-90.000000
 51
-1.000000
  0
LINE
  8
0
  6
CENTER
 10
175.247192
 20
227.699997
 11
195.293442
 21
227.699997
  0
CIRCLE
  8
0
  6
CONTINUOUS
 10
184.348755
 20
227.699997
 40
4.250000
  0
LINE
  8
0
  6
CENTER
 10
108.348747
 20
218.350632
 11
108.348747
 21
237.705627
  0
LINE
  8
0
  6
CONTINUOUS
 10
96.689636
 20
227.525482
 11
96.503662
 21
238.180115
  0
ARC
  8
0
  6
CONTINUOUS
 10
106.688118
 20
227.699997
 40
10.000000
 50
-179.000000
 51
-90.000000
  0
ARC
  8
0
  6
CONTINUOUS
 10
98.459984
 20
240.699997
 40
2.000000
 50
-179.000000
 51
-90.000000
  0
LINE
  8
0
  6
CENTER
 10
118.169685
 20
227.699997
 11
97.925941
 21
227.699997
  0
CIRCLE
  8
0
  6
CONTINUOUS
 10
108.348747
 20
227.699997
 40
4.250000
  0
LINE
  8
0
  6
CONTINUOUS
 10
95.848747
 20
236.699997
 11
95.848747
 21
232.699997
  0
ARC
  8
0
  6
CONTINUOUS
 10
97.848747
 20
236.699997
 40
2.000000
 50
-270.000000
 51
-180.000000
  0
LINE
  8
0
  6
CONTINUOUS
 10
96.460289
 20
240.665100
 11
96.354950
 21
246.699997
  0
LINE
  8
0
  6
CONTINUOUS
 10
129.348755
 20
307.700012
 11
129.348755
 21
243.699997
  0
LINE
  8
0
  6
CONTINUOUS
 10
163.348755
 20
307.700012
 11
163.348755
 21
243.699997
  0
LINE
  8
0
  6
CONTINUOUS
 10
102.691299
 20
302.700012
 11
102.691299
 21
248.699997
  0
LINE
  8
0
  6
CONTINUOUS
 10
168.848755
 20
317.700012
 11
123.848747
 21
317.700012
  0
LINE
  8
0
  6
CONTINUOUS
 10
122.848747
 20
316.700012
 11
122.848747
 21
314.700012
  0
LINE
  8
0
  6
CONTINUOUS
 10
169.848755
 20
316.700012
 11
169.848755
 21
314.700012
  0
ARC
  8
0
  6
CONTINUOUS
 10
120.848747
 20
314.700012
 40
2.000000
 50
-90.000000
 51
0.000000
  0
ARC
  8
0
  6
CONTINUOUS
 10
171.848740
 20
314.700012
 40
2.000000
 50
180.000000
 51
270.000000
  0
ARC
  8
0
  6
CONTINUOUS
 10
123.848763
 20
316.700012
 40
1.000000
 50
90.000000
 51
180.000000
  0
ARC
  8
0
  6
CONTINUOUS
 10
168.848755
 20
316.700012
 40
1.000000
 50
0.000000
 51
90.000000
  0
LINE
  8
0
  6
CONTINUOUS
 10
157.848755
 20
349.700012
 11
137.348755
 21
349.700012
  0
LINE
  8
0
  6
CONTINUOUS
 10
137.348755
 20
319.700012
 11
137.348755
 21
349.700012
  0
LINE
  8
0
  6
CONTINUOUS
 10
155.348755
 20
319.700012
 11
155.348755
 21
322.700012
  0
LINE
  8
0
  6
CONTINUOUS
 10
136.348755
 20
319.700012
 11
156.348755
 21
319.700012
  0
LINE
  8
0
  6
CONTINUOUS
 10
136.348755
 20
317.700012
 11
136.348755
 21
319.700012
  0
LINE
  8
0
  6
CONTINUOUS
 10
156.348755
 20
317.700012
 11
156.348755
 21
319.700012
  0
LINE
  8
0
  6
CONTINUOUS
 10
157.848755
 20
349.700012
 11
157.848755
 21
322.700012
  0
LINE
  8
0
  6
CONTINUOUS
 10
157.848755
 20
322.700012
 11
154.833755
 21
322.700012
  0
LINE
  8
0
  6
CONTINUOUS
 10
154.833755
 20
349.700012
 11
154.833755
 21
322.700012
  0
LINE
  8
0
  6
CONTINUOUS
 10
137.348755
 20
333.700012
 11
106.688118
 21
333.700012
  0
LINE
  8
0
  6
CONTINUOUS
 10
168.848755
 20
233.699997
 11
123.848747
 21
233.699997
  0
LINE
  8
0
  6
CONTINUOUS
 10
122.848747
 20
234.699997
 11
122.848747
 21
236.699997
  0
LINE
  8
0
  6
CONTINUOUS
 10
169.848755
 20
234.699997
 11
169.848755
 21
236.699997
  0
ARC
  8
0
  6
CONTINUOUS
 10
120.848747
 20
236.699997
 40
2.000000
 50
0.000000
 51
90.000000
  0
ARC
  8
0
  6
CONTINUOUS
 10
171.848740
 20
236.699997
 40
2.000000
 50
-270.000000
 51
-180.000000
  0
ARC
  8
0
  6
CONTINUOUS
 10
123.848763
 20
234.699997
 40
1.000000
 50
-180.000000
 51
-90.000000
  0
ARC
  8
0
  6
CONTINUOUS
 10
168.848755
 20
234.699997
 40
1.000000
 50
-90.000000
 51
0.000000
  0
LINE
  8
0
  6
CONTINUOUS
 10
157.848755
 20
201.699997
 11
137.348755
 21
201.699997
  0
LINE
  8
0
  6
CONTINUOUS
 10
137.348755
 20
231.699997
 11
137.348755
 21
201.699997
  0
LINE
  8
0
  6
CONTINUOUS
 10
155.348755
 20
231.699997
 11
155.348755
 21
228.699997
  0
LINE
  8
0
  6
CONTINUOUS
 10
136.348755
 20
231.699997
 11
156.348755
 21
231.699997
  0
LINE
  8
0
  6
CONTINUOUS
 10
136.348755
 20
233.699997
 11
136.348755
 21
231.699997
  0
LINE
  8
0
  6
CONTINUOUS
 10
156.348755
 20
233.699997
 11
156.348755
 21
231.699997
  0
LINE
  8
0
  6
CONTINUOUS
 10
157.848755
 20
201.699997
 11
157.848755
 21
228.699997
  0
LINE
  8
0
  6
CONTINUOUS
 10
157.848755
 20
228.699997
 11
154.833755
 21
228.699997
  0
LINE
  8
0
  6
CONTINUOUS
 10
154.833755
 20
201.699997
 11
154.833755
 21
228.699997
  0
LINE
  8
0
  6
CONTINUOUS
 10
137.348755
 20
217.699997
 11
106.688118
 21
217.699997
  0
LINE
  8
0
  6
CONTINUOUS
 10
23.348749
 20
300.699982
 11
23.348749
 21
320.700012
  0
LINE
  8
0
  6
CENTER
 10
184.348755
 20
18.417500
 11
184.348755
 21
-3.582500
  0
LINE
  8
0
  6
CONTINUOUS
 10
14.348750
 20
252.699982
 11
14.348750
 21
298.699982
  0
LINE
  8
0
  6
CONTINUOUS
 10
16.348749
 20
300.699982
 11
14.348750
 21
298.699982
  0
LINE
  8
0
  6
CONTINUOUS
 10
16.348749
 20
300.699982
 11
62.348740
 21
300.699982
  0
LINE
  8
0
  6
CONTINUOUS
 10
56.848751
 20
296.199982
 11
56.848751
 21
300.699982
  0
ARC
  8
0
  6
CONTINUOUS
 10
59.848751
 20
296.199982
 40
3.000000
 50
180.000000
 51
270.000000
  0
LINE
  8
0
  6
CONTINUOUS
 10
59.848751
 20
293.199982
 11
64.348740
 21
293.199982
  0
CIRCLE
  8
0
  6
CONTINUOUS
 10
60.848751
 20
297.199982
 40
2.250000
  0
LINE
  8
0
  6
CONTINUOUS
 10
64.348747
 20
252.699982
 11
64.348740
 21
298.699982
  0
LINE
  8
0
  6
CONTINUOUS
 10
62.348740
 20
300.699982
 11
64.348740
 21
298.699982
  0
LINE
  8
0
  6
CONTINUOUS
 10
62.348743
 20
250.699982
 11
64.348747
 21
252.699982
  0
LINE
  8
0
  6
CONTINUOUS
 10
62.348743
 20
250.699982
 11
16.348749
 21
250.699982
  0
LINE
  8
0
  6
CONTINUOUS
 10
14.348750
 20
252.699982
 11
16.348749
 21
250.699982
  0
LINE
  8
0
  6
CONTINUOUS
 10
18.848749
 20
258.199982
 11
14.348760
 21
258.199982
  0
CIRCLE
  8
0
  6
CONTINUOUS
 10
17.848749
 20
254.199982
 40
2.250000
  0
ARC
  8
0
  6
CONTINUOUS
 10
18.848749
 20
255.199982
 40
3.000000
 50
0.000000
 51
90.000000
  0
LINE
  8
0
  6
CONTINUOUS
 10
21.848749
 20
255.199982
 11
21.848749
 21
250.699982
  0
LINE
  8
0
  6
CENTER
 10
39.348751
 20
243.234192
 11
39.348751
 21
307.366241
  0
LINE
  8
0
  6
CONTINUOUS
 10
15.348756
 20
258.200012
 11
15.348756
 21
293.200012
  0
LINE
  8
0
  6
CONTINUOUS
 10
56.848751
 20
299.700012
 11
21.848770
 21
299.700012
  0
LINE
  8
0
  6
CONTINUOUS
 10
63.348743
 20
293.200012
 11
63.348743
 21
258.200012
  0
LINE
  8
0
  6
CONTINUOUS
 10
21.848749
 20
251.699997
 11
56.848728
 21
251.699997
  0
LINE
  8
0
  6
CONTINUOUS
 10
18.848770
 20
293.200012
 11
14.348770
 21
293.200012
  0
ARC
  8
0
  6
CONTINUOUS
 10
18.848770
 20
296.200012
 40
3.000000
 50
-90.000000
 51
0.000000
  0
LINE
  8
0
  6
CONTINUOUS
 10
21.848770
 20
296.200012
 11
21.848770
 21
300.699982
  0
CIRCLE
  8
0
  6
CONTINUOUS
 10
17.848770
 20
297.200012
 40
2.250000
  0
LINE
  8
0
  6
CONTINUOUS
 10
59.848728
 20
258.200012
 11
64.348732
 21
258.200012
  0
ARC
  8
0
  6
CONTINUOUS
 10
59.848728
 20
255.199997
 40
3.000000
 50
90.000000
 51
180.000000
  0
LINE
  8
0
  6
CONTINUOUS
 10
56.848728
 20
255.199997
 11
56.848728
 21
250.700012
  0
CIRCLE
  8
0
  6
CONTINUOUS
 10
60.848728
 20
254.199997
 40
2.250000
  0
LINE
  8
0
  6
CONTINUOUS
 10
15.848750
 20
99.480003
 11
62.348751
 21
99.480003
  0
LINE
  8
0
  6
CONTINUOUS
 10
64.348732
 20
143.479996
 11
64.348747
 21
101.480003
  0
LINE
  8
0
  6
CONTINUOUS
 10
14.348750
 20
143.479996
 11
14.348750
 21
101.480003
  0
LINE
  8
0
  6
CONTINUOUS
 10
14.348750
 20
111.480003
 11
64.348747
 21
111.480003
  0
LINE
  8
0
  6
CONTINUOUS
 10
62.348751
 20
99.480003
 11
64.348747
 21
101.480003
  0
LINE
  8
0
  6
CONTINUOUS
 10
14.348750
 20
101.480003
 11
16.348749
 21
99.480003
  0
LINE
  8
0
  6
CONTINUOUS
 10
14.348750
 20
101.480003
 11
64.348747
 21
101.480003
  0
LINE
  8
0
  6
CONTINUOUS
 10
14.348750
 20
112.480003
 11
64.348740
 21
112.480003
  0
LINE
  8
0
  6
CONTINUOUS
 10
15.348750
 20
144.479996
 11
63.348728
 21
144.479996
  0
LINE
  8
0
  6
CONTINUOUS
 10
63.348728
 20
144.479996
 11
64.348732
 21
143.479996
  0
LINE
  8
0
  6
CONTINUOUS
 10
15.348750
 20
144.479996
 11
14.348750
 21
143.479996
  0
LINE
  8
0
  6
CONTINUOUS
 10
14.348750
 20
143.479996
 11
64.348732
 21
143.479996
  0
LINE
  8
0
  6
CENTER
 10
39.348751
 20
93.090492
 11
39.348751
 21
149.790497
  0
LINE
  8
0
  6
CENTER
 10
11.973750
 20
127.480003
 11
16.598749
 21
127.480003
  0
LINE
  8
0
  6
CONTINUOUS
 10
15.848750
 20
99.480003
 11
15.848750
 21
97.980003
  0
LINE
  8
0
  6
CONTINUOUS
 10
61.848751
 20
99.480003
 11
61.848751
 21
97.980003
  0
LINE
  8
0
  6
CONTINUOUS
 10
13.473750
 20
137.979996
 11
15.473750
 21
137.979996
  0
LINE
  8
0
  6
CONTINUOUS
 10
13.473750
 20
116.980003
 11
15.473750
 21
116.980003
  0
LINE
  8
0
  6
CONTINUOUS
 10
367.848724
 20
143.479996
 11
367.848755
 21
116.243629
  0
LINE
  8
0
  6
CONTINUOUS
 10
317.848755
 20
143.479996
 11
317.848755
 21
116.243530
  0
LINE
  8
0
  6
CONTINUOUS
 10
318.848755
 20
144.479996
 11
366.848724
 21
144.479996
  0
LINE
  8
0
  6
CONTINUOUS
 10
366.848724
 20
144.479996
 11
367.848724
 21
143.479996
  0
LINE
  8
0
  6
CONTINUOUS
 10
318.848755
 20
144.479996
 11
317.848755
 21
143.479996
  0
LINE
  8
0
  6
CONTINUOUS
 10
317.848755
 20
143.479996
 11
367.848724
 21
143.479996
  0
TEXT
  8
0
 10
-10.000000
 20
-3.000000
 40
4.000000
 41
1.000000
  1
HLM-18T-10~240-T60WK
 50
0.000000
  0
ENDSEC
  0
EOF
