  0
SECTION
  2
HEADER
  9
$CLAYER
  8
1
  9
$LTSCALE
 40
3.0
  0
ENDSEC
  0
SECTION
  2
TABLES
  0
TABLE
  2
LTYPE
 70
     4
  0
LTYPE
  2
CONTINUOUS
  3
solid line
 70
    64
 72
    65
 73
     0
 40
0.0
  0
LTYPE
  2
DASHED
  3
__ __ __ __ __ __ __ __ __ __ __ __ __ __ __
 70
    64
 72
    65
 73
     2
 40
0.75
 49
0.5
 49
-0.25
  0
LTYPE
  2
CENTER
  3
____ _ ____ _ ____ _ ____ _ ____ _ ____ _ ____
 70
    64
 72
    65
 73
     4
 40
2.0
 49
1.25
 49
-0.25
 49
0.25
 49
-0.25
  0
LTYPE
  2
PHANTOM
  3
_____ _ _ _____ _ _ _____ _ _ _____ _ _ ____
 70
    64
 72
    65
 73
     6
 40
2.5
 49
1.25
 49
-0.25
 49
0.25
 49
-0.25
 49
0.25
 49
-0.25
  0
ENDTAB
  0
TABLE
  2
LAYER
 70
     1
  0
LAYER
  2
0
 70
    64
 62
     7
  6
CONTINUOUS
  0
ENDTAB
  0
TABLE
  2
STYLE
 70
     1
  0
STYLE
  2
STANDARD
 70
     0
 40
0.000000
 41
1.000000
 50
0.000000
 71
     0
 42
3.000000
  3
txt
  4
BIGFONT
  0
ENDTAB
  0
ENDSEC
  0
SECTION
  2
BLOCKS
  0
ENDSEC
  0
SECTION
  2
ENTITIES
  0
LINE
  8
0
  6
CONTINUOUS
 10
52.906239
 20
104.323753
 11
62.406239
 21
104.323753
  0
LINE
  8
0
  6
CONTINUOUS
 10
62.406239
 20
93.733047
 11
52.906239
 21
93.733047
  0
LINE
  8
0
  6
CONTINUOUS
 10
52.906239
 20
14.323750
 11
62.406239
 21
14.323750
  0
LINE
  8
0
  6
CONTINUOUS
 10
62.406239
 20
24.914450
 11
52.906239
 21
24.914450
  0
LINE
  8
0
  6
CONTINUOUS
 10
52.906239
 20
106.323753
 11
52.906239
 21
12.323750
  0
LINE
  8
0
  6
CONTINUOUS
 10
52.906239
 20
88.323753
 11
8.931240
 21
88.323753
  0
LINE
  8
0
  6
CONTINUOUS
 10
52.906239
 20
30.323750
 11
8.931239
 21
30.323750
  0
LINE
  8
0
  6
CONTINUOUS
 10
10.406238
 20
106.323753
 11
52.906239
 21
106.323753
  0
LINE
  8
0
  6
CONTINUOUS
 10
10.406238
 20
12.323750
 11
52.906239
 21
12.323750
  0
ARC
  8
0
  6
CONTINUOUS
 10
10.406263
 20
101.323776
 40
5.000000
 50
90.000000
 51
180.000000
  0
ARC
  8
0
  6
CONTINUOUS
 10
10.406237
 20
17.323750
 40
5.000000
 50
180.000000
 51
270.000000
  0
LINE
  8
0
  6
CONTINUOUS
 10
5.406263
 20
101.323761
 11
5.406238
 21
17.323740
  0
LINE
  8
0
  6
CONTINUOUS
 10
62.406239
 20
14.323750
 11
62.406239
 21
104.323753
  0
LINE
  8
0
  6
CENTER
 10
-6.664687
 20
59.323750
 11
158.195755
 21
59.323750
  0
LINE
  8
0
  6
CONTINUOUS
 10
235.906250
 20
17.023750
 11
235.906250
 21
10.023750
  0
LINE
  8
0
  6
CONTINUOUS
 10
62.406239
 20
14.323750
 11
134.906250
 21
14.323750
  0
LINE
  8
0
  6
CONTINUOUS
 10
62.406239
 20
104.323753
 11
141.748749
 21
104.323753
  0
LINE
  8
0
  6
CENTER
 10
185.406250
 20
133.011246
 11
185.406250
 21
2.804650
  0
LINE
  8
0
  6
CENTER
 10
149.893555
 20
85.023750
 11
220.327972
 21
85.023750
  0
LINE
  8
0
  6
CONTINUOUS
 10
134.906250
 20
10.023750
 11
235.906250
 21
10.023750
  0
LINE
  8
0
  6
CONTINUOUS
 10
169.985153
 20
123.023750
 11
200.827347
 21
123.023750
  0
LINE
  8
0
  6
CONTINUOUS
 10
136.906250
 20
19.023750
 11
233.906250
 21
19.023750
  0
LINE
  8
0
  6
CENTER
 10
223.406250
 20
24.511250
 11
223.406250
 21
3.261250
  0
LINE
  8
0
  6
CENTER
 10
147.406250
 20
24.761250
 11
147.406250
 21
2.761250
  0
LINE
  8
0
  6
CONTINUOUS
 10
233.777649
 20
101.016930
 11
203.698746
 21
122.117043
  0
LINE
  8
0
  6
CONTINUOUS
 10
137.034851
 20
101.016930
 11
167.113754
 21
122.117027
  0
ARC
  8
0
  6
CONTINUOUS
 10
200.827454
 20
118.023743
 40
5.000000
 50
54.950878
 51
90.000000
  0
ARC
  8
0
  6
CONTINUOUS
 10
169.985153
 20
118.023750
 40
5.000000
 50
90.000000
 51
125.049698
  0
ARC
  8
0
  6
CONTINUOUS
 10
139.906250
 20
96.923683
 40
5.000000
 50
125.049797
 51
180.000000
  0
ARC
  8
0
  6
CONTINUOUS
 10
230.906250
 20
96.923630
 40
5.000000
 50
0.000000
 51
54.950901
  0
LINE
  8
0
  6
CONTINUOUS
 10
235.906250
 20
17.023750
 11
235.906250
 21
96.923653
  0
ARC
  8
0
  6
CONTINUOUS
 10
233.906250
 20
17.023741
 40
2.000000
 50
0.000000
 51
90.000000
  0
LINE
  8
0
  6
CONTINUOUS
 10
134.906250
 20
96.923683
 11
134.906250
 21
96.923653
  0
ARC
  8
0
  6
CONTINUOUS
 10
136.906250
 20
17.023750
 40
2.000000
 50
90.000000
 51
180.000000
  0
LINE
  8
0
  6
DASHED
 10
227.656250
 20
19.023750
 11
227.656250
 21
10.023750
  0
LINE
  8
0
  6
DASHED
 10
219.156250
 20
19.023750
 11
219.156250
 21
10.023750
  0
LINE
  8
0
  6
DASHED
 10
151.656250
 20
19.023750
 11
151.656250
 21
10.023750
  0
LINE
  8
0
  6
DASHED
 10
143.156250
 20
19.023750
 11
143.156250
 21
10.023750
  0
CIRCLE
  8
0
  6
CONTINUOUS
 10
185.406250
 20
85.023750
 40
23.500000
  0
LINE
  8
0
  6
CONTINUOUS
 10
137.406250
 20
85.715942
 11
137.406250
 21
54.331234
  0
LINE
  8
0
  6
CONTINUOUS
 10
233.406250
 20
85.716110
 11
233.406250
 21
54.331398
  0
ARC
  8
0
  6
CONTINUOUS
 10
185.406250
 20
70.023750
 40
50.500000
 50
198.103806
 51
341.896210
  0
LINE
  8
0
  6
CONTINUOUS
 10
134.906250
 20
96.923660
 11
134.906143
 21
10.023750
  0
ARC
  8
0
  6
CONTINUOUS
 10
185.406250
 20
70.023750
 40
50.500000
 50
18.103790
 51
161.896194
  0
LINE
  8
0
  6
CONTINUOUS
 10
62.406239
 20
93.733047
 11
133.289154
 21
93.733047
  0
LINE
  8
0
  6
CONTINUOUS
 10
62.406239
 20
24.914450
 11
133.289154
 21
24.914450
  0
LINE
  8
0
  6
CONTINUOUS
 10
179.031250
 20
47.576969
 11
179.031250
 21
42.023750
  0
LINE
  8
0
  6
CONTINUOUS
 10
182.218750
 20
49.594063
 11
182.218750
 21
51.586250
  0
LINE
  8
0
  6
CONTINUOUS
 10
188.593750
 20
49.594063
 11
188.593750
 21
51.586250
  0
LINE
  8
0
  6
CONTINUOUS
 10
184.783646
 20
50.415840
 11
184.783646
 21
43.069649
  0
LINE
  8
0
  6
CONTINUOUS
 10
185.979050
 20
50.415840
 11
185.979050
 21
43.069649
  0
LINE
  8
0
  6
CONTINUOUS
 10
192.254349
 20
50.415840
 11
192.254349
 21
43.019840
  0
LINE
  8
0
  6
CONTINUOUS
 10
193.350052
 20
46.493721
 11
193.350052
 21
43.019840
  0
LINE
  8
0
  6
CONTINUOUS
 10
177.518753
 20
50.316231
 11
174.446854
 21
50.316231
  0
LINE
  8
0
  6
CONTINUOUS
 10
174.446854
 20
50.316231
 11
173.727051
 21
49.423737
  0
LINE
  8
0
  6
CONTINUOUS
 10
173.813644
 20
51.586250
 11
172.656250
 21
50.104256
  0
LINE
  8
0
  6
CONTINUOUS
 10
173.727051
 20
43.914669
 11
174.458344
 21
43.144360
  0
LINE
  8
0
  6
CONTINUOUS
 10
172.656250
 20
43.264610
 11
173.886047
 21
42.023750
  0
LINE
  8
0
  6
CONTINUOUS
 10
172.656250
 20
50.104256
 11
172.656250
 21
43.264610
  0
LINE
  8
0
  6
CONTINUOUS
 10
173.727051
 20
49.423737
 11
173.727051
 21
43.914669
  0
LINE
  8
0
  6
CONTINUOUS
 10
178.109848
 20
49.744789
 11
177.506653
 21
50.316231
  0
LINE
  8
0
  6
CONTINUOUS
 10
178.100250
 20
51.586250
 11
179.031250
 21
50.553108
  0
LINE
  8
0
  6
CONTINUOUS
 10
178.109848
 20
49.594063
 11
179.031250
 21
49.594063
  0
LINE
  8
0
  6
CONTINUOUS
 10
173.813644
 20
51.586250
 11
178.100250
 21
51.586250
  0
LINE
  8
0
  6
CONTINUOUS
 10
178.109848
 20
46.531071
 11
176.441452
 21
46.531071
  0
LINE
  8
0
  6
CONTINUOUS
 10
178.109848
 20
45.534981
 11
178.109848
 21
46.331860
  0
LINE
  8
0
  6
CONTINUOUS
 10
176.117645
 20
43.144360
 11
174.458344
 21
43.144360
  0
ARC
  8
0
  6
CONTINUOUS
 10
176.117645
 20
45.136539
 40
1.992187
 50
-89.999786
 51
0.000109
  0
LINE
  8
0
  6
CONTINUOUS
 10
178.109848
 20
42.786018
 11
178.109848
 21
42.023750
  0
LINE
  8
0
  6
CONTINUOUS
 10
179.031250
 20
50.553108
 11
179.031250
 21
49.594063
  0
LINE
  8
0
  6
CONTINUOUS
 10
178.109848
 20
46.531071
 11
178.109848
 21
45.136539
  0
LINE
  8
0
  6
CONTINUOUS
 10
176.441452
 20
47.576969
 11
176.441452
 21
46.531071
  0
LINE
  8
0
  6
CONTINUOUS
 10
178.109848
 20
42.023750
 11
179.031250
 21
42.023750
  0
LINE
  8
0
  6
CONTINUOUS
 10
178.109848
 20
42.786018
 11
177.201355
 21
42.023750
  0
LINE
  8
0
  6
CONTINUOUS
 10
185.979050
 20
43.069649
 11
186.377457
 21
43.069649
  0
LINE
  8
0
  6
CONTINUOUS
 10
184.310547
 20
43.069649
 11
184.310547
 21
42.023750
  0
LINE
  8
0
  6
CONTINUOUS
 10
186.377457
 20
43.069649
 11
186.377457
 21
42.023750
  0
LINE
  8
0
  6
CONTINUOUS
 10
187.928757
 20
49.594063
 11
188.593750
 21
49.594063
  0
LINE
  8
0
  6
CONTINUOUS
 10
182.218750
 20
49.594063
 11
182.926346
 21
49.594063
  0
LINE
  8
0
  6
CONTINUOUS
 10
182.218750
 20
51.586250
 11
188.593750
 21
51.586250
  0
LINE
  8
0
  6
CONTINUOUS
 10
184.310547
 20
42.023750
 11
186.377457
 21
42.023750
  0
LINE
  8
0
  6
CONTINUOUS
 10
184.310547
 20
43.069649
 11
184.783646
 21
43.069649
  0
ARC
  8
0
  6
CONTINUOUS
 10
195.603745
 20
49.033760
 40
2.552490
 50
-73.981873
 51
90.003510
  0
ARC
  8
0
  6
CONTINUOUS
 10
195.603745
 20
49.033760
 40
1.557193
 50
-82.585274
 51
62.411850
  0
LINE
  8
0
  6
CONTINUOUS
 10
191.781250
 20
51.586250
 11
195.603745
 21
51.586250
  0
LINE
  8
0
  6
CONTINUOUS
 10
191.781250
 20
51.586250
 11
191.781250
 21
50.415840
  0
LINE
  8
0
  6
CONTINUOUS
 10
193.350052
 20
50.415840
 11
193.350052
 21
47.489590
  0
LINE
  8
0
  6
CONTINUOUS
 10
196.308044
 20
46.580372
 11
197.887955
 21
43.019840
  0
LINE
  8
0
  6
CONTINUOUS
 10
195.390549
 20
46.493721
 11
196.885651
 21
43.019840
  0
LINE
  8
0
  6
CONTINUOUS
 10
191.781250
 20
43.019840
 11
192.254349
 21
43.019840
  0
LINE
  8
0
  6
CONTINUOUS
 10
193.350052
 20
43.019840
 11
193.785843
 21
43.019840
  0
LINE
  8
0
  6
CONTINUOUS
 10
193.785843
 20
42.023750
 11
191.781250
 21
42.023750
  0
LINE
  8
0
  6
CONTINUOUS
 10
196.687057
 20
43.019840
 11
196.885651
 21
43.019840
  0
LINE
  8
0
  6
CONTINUOUS
 10
197.887955
 20
43.019840
 11
198.156250
 21
43.019840
  0
LINE
  8
0
  6
CONTINUOUS
 10
196.687057
 20
42.023750
 11
198.156250
 21
42.023750
  0
LINE
  8
0
  6
CONTINUOUS
 10
198.156250
 20
43.019840
 11
198.156250
 21
42.023750
  0
LINE
  8
0
  6
CONTINUOUS
 10
196.687057
 20
43.019840
 11
196.687057
 21
42.023750
  0
LINE
  8
0
  6
CONTINUOUS
 10
193.785843
 20
43.019840
 11
193.785843
 21
42.023750
  0
LINE
  8
0
  6
CONTINUOUS
 10
191.781250
 20
43.019840
 11
191.781250
 21
42.023750
  0
LINE
  8
0
  6
CONTINUOUS
 10
183.268753
 20
50.415840
 11
182.926346
 21
49.594063
  0
LINE
  8
0
  6
CONTINUOUS
 10
187.640045
 20
50.415840
 11
187.928757
 21
49.594063
  0
LINE
  8
0
  6
CONTINUOUS
 10
185.979050
 20
50.415840
 11
187.640045
 21
50.415840
  0
LINE
  8
0
  6
CONTINUOUS
 10
184.783646
 20
50.415840
 11
183.268753
 21
50.415840
  0
LINE
  8
0
  6
CONTINUOUS
 10
191.781250
 20
50.415840
 11
192.254349
 21
50.415840
  0
LINE
  8
0
  6
CONTINUOUS
 10
193.350052
 20
50.415840
 11
196.324951
 21
50.413902
  0
LINE
  8
0
  6
CONTINUOUS
 10
178.109848
 20
49.744789
 11
178.109848
 21
49.594063
  0
LINE
  8
0
  6
CONTINUOUS
 10
173.886047
 20
42.023750
 11
177.201355
 21
42.023750
  0
LINE
  8
0
  6
CONTINUOUS
 10
193.350052
 20
47.489590
 11
195.804749
 21
47.489590
  0
LINE
  8
0
  6
CONTINUOUS
 10
193.350052
 20
46.493721
 11
195.390549
 21
46.493721
  0
LINE
  8
0
  6
CONTINUOUS
 10
176.441452
 20
47.576969
 11
179.031250
 21
47.576969
  0
LINE
  8
0
  6
CONTINUOUS
 10
190.906250
 20
82.023773
 11
190.906250
 21
88.023773
  0
LINE
  8
0
  6
CONTINUOUS
 10
196.906250
 20
82.023788
 11
196.906250
 21
88.023788
  0
LINE
  8
0
  6
CONTINUOUS
 10
196.906250
 20
82.023788
 11
190.906250
 21
82.023773
  0
LINE
  8
0
  6
CONTINUOUS
 10
196.906250
 20
88.023788
 11
190.906250
 21
88.023773
  0
ARC
  8
0
  6
CONTINUOUS
 10
185.406250
 20
85.023750
 40
9.000000
 50
19.471210
 51
340.528809
  0
LINE
  8
0
  6
CENTER
 10
375.406250
 20
3.237060
 11
375.406250
 21
148.188751
  0
LINE
  8
0
  6
CENTER
 10
320.156250
 20
59.323750
 11
431.929993
 21
59.323750
  0
LINE
  8
0
  6
CONTINUOUS
 10
433.406250
 20
17.023750
 11
433.406250
 21
10.023750
  0
LINE
  8
0
  6
CONTINUOUS
 10
317.406250
 20
17.023750
 11
317.406250
 21
10.023750
  0
LINE
  8
0
  6
CENTER
 10
292.156250
 20
85.023750
 11
456.656250
 21
85.023750
  0
LINE
  8
0
  6
CONTINUOUS
 10
317.406250
 20
10.023750
 11
433.406250
 21
10.023750
  0
LINE
  8
0
  6
CONTINUOUS
 10
415.406250
 20
19.023750
 11
431.406250
 21
19.023750
  0
LINE
  8
0
  6
CONTINUOUS
 10
338.406250
 20
22.023750
 11
338.406250
 21
120.412376
  0
LINE
  8
0
  6
CONTINUOUS
 10
412.406250
 20
22.023750
 11
412.406250
 21
120.412514
  0
LINE
  8
0
  6
CONTINUOUS
 10
417.406250
 20
62.523746
 11
417.406250
 21
107.523750
  0
LINE
  8
0
  6
CONTINUOUS
 10
416.406250
 20
108.523750
 11
414.406250
 21
108.523750
  0
LINE
  8
0
  6
CONTINUOUS
 10
416.406250
 20
61.523746
 11
414.406250
 21
61.523746
  0
LINE
  8
0
  6
CONTINUOUS
 10
375.406250
 20
123.023750
 11
410.441162
 21
122.412216
  0
LINE
  8
0
  6
CONTINUOUS
 10
340.371338
 20
122.412079
 11
375.406250
 21
123.023750
  0
ARC
  8
0
  6
CONTINUOUS
 10
414.406250
 20
110.523750
 40
2.000000
 50
180.000000
 51
270.000000
  0
ARC
  8
0
  6
CONTINUOUS
 10
410.406250
 20
120.412514
 40
2.000000
 50
0.000000
 51
89.000137
  0
ARC
  8
0
  6
CONTINUOUS
 10
340.406250
 20
120.412392
 40
2.000000
 50
91.000641
 51
180.000000
  0
ARC
  8
0
  6
CONTINUOUS
 10
414.406250
 20
59.523758
 40
2.000000
 50
90.000000
 51
180.000000
  0
ARC
  8
0
  6
CONTINUOUS
 10
416.406250
 20
107.523743
 40
1.000000
 50
0.000000
 51
90.000000
  0
ARC
  8
0
  6
CONTINUOUS
 10
416.406250
 20
62.523746
 40
1.000000
 50
-90.000000
 51
0.000000
  0
LINE
  8
0
  6
CONTINUOUS
 10
340.256256
 20
99.523750
 11
410.724457
 21
99.523750
  0
ARC
  8
0
  6
CONTINUOUS
 10
431.406250
 20
17.023741
 40
2.000000
 50
0.000000
 51
90.000000
  0
ARC
  8
0
  6
CONTINUOUS
 10
319.406250
 20
17.023760
 40
2.000000
 50
90.000000
 51
180.000000
  0
LINE
  8
0
  6
CENTER
 10
423.406250
 20
22.980000
 11
423.406250
 21
5.730000
  0
LINE
  8
0
  6
CENTER
 10
327.406250
 20
22.980000
 11
327.406250
 21
4.980000
  0
LINE
  8
0
  6
DASHED
 10
331.656250
 20
19.023750
 11
331.656250
 21
10.023750
  0
LINE
  8
0
  6
DASHED
 10
323.156250
 20
19.023750
 11
323.156250
 21
10.023750
  0
LINE
  8
0
  6
DASHED
 10
427.656250
 20
19.023750
 11
427.656250
 21
10.023750
  0
LINE
  8
0
  6
DASHED
 10
419.156250
 20
19.023750
 11
419.156250
 21
10.023750
  0
ARC
  8
0
  6
CONTINUOUS
 10
375.406250
 20
59.323750
 40
45.000000
 50
159.637695
 51
214.692093
  0
ARC
  8
0
  6
CONTINUOUS
 10
375.406250
 20
59.323750
 40
45.000000
 50
-34.692108
 51
20.437799
  0
LINE
  8
0
  6
CONTINUOUS
 10
333.406250
 20
62.523746
 11
333.406250
 21
107.523750
  0
LINE
  8
0
  6
CONTINUOUS
 10
334.406250
 20
108.523750
 11
336.406250
 21
108.523750
  0
LINE
  8
0
  6
CONTINUOUS
 10
334.406250
 20
61.523746
 11
336.406250
 21
61.523746
  0
ARC
  8
0
  6
CONTINUOUS
 10
336.406250
 20
110.523750
 40
2.000000
 50
-90.000000
 51
0.000000
  0
ARC
  8
0
  6
CONTINUOUS
 10
336.406250
 20
59.523758
 40
2.000000
 50
0.000000
 51
90.000000
  0
ARC
  8
0
  6
CONTINUOUS
 10
334.406250
 20
107.523743
 40
1.000000
 50
90.000000
 51
180.000000
  0
ARC
  8
0
  6
CONTINUOUS
 10
334.406250
 20
62.523746
 40
1.000000
 50
180.000000
 51
270.000000
  0
LINE
  8
0
  6
CONTINUOUS
 10
335.406250
 20
19.023750
 11
319.406250
 21
19.023750
  0
ARC
  8
0
  6
CONTINUOUS
 10
335.406250
 20
22.023750
 40
3.000000
 50
-90.000000
 51
0.000000
  0
ARC
  8
0
  6
CONTINUOUS
 10
415.406250
 20
22.023750
 40
3.000000
 50
180.000000
 51
270.000000
  0
LINE
  8
0
  6
CONTINUOUS
 10
422.406250
 20
33.223228
 11
422.406250
 21
76.023750
  0
LINE
  8
0
  6
CONTINUOUS
 10
328.406250
 20
33.223251
 11
328.406250
 21
76.023750
  0
LINE
  8
0
  6
CONTINUOUS
 10
330.456543
 20
28.273500
 11
338.075562
 21
20.654470
  0
LINE
  8
0
  6
CONTINUOUS
 10
420.356049
 20
28.273500
 11
412.736938
 21
20.654421
  0
ARC
  8
0
  6
CONTINUOUS
 10
335.406250
 20
33.223301
 40
7.000000
 50
180.000000
 51
225.000397
  0
ARC
  8
0
  6
CONTINUOUS
 10
415.406250
 20
33.223209
 40
7.000000
 50
-44.999569
 51
0.000000
  0
LINE
  8
0
  6
CONTINUOUS
 10
449.406250
 20
76.023750
 11
449.406250
 21
94.023750
  0
LINE
  8
0
  6
CONTINUOUS
 10
419.406250
 20
94.023750
 11
449.406250
 21
94.023750
  0
LINE
  8
0
  6
CONTINUOUS
 10
419.406250
 20
76.023750
 11
449.406250
 21
76.023750
  0
LINE
  8
0
  6
CONTINUOUS
 10
419.406250
 20
95.023750
 11
419.406250
 21
75.023750
  0
LINE
  8
0
  6
CONTINUOUS
 10
417.406250
 20
95.023750
 11
419.406250
 21
95.023750
  0
LINE
  8
0
  6
CONTINUOUS
 10
417.406250
 20
75.023750
 11
419.406250
 21
75.023750
  0
ARC
  8
0
  6
CONTINUOUS
 10
425.406250
 20
85.023750
 40
3.000000
 50
90.000000
 51
270.000000
  0
LINE
  8
0
  6
CONTINUOUS
 10
425.406250
 20
88.023750
 11
449.406250
 21
88.023750
  0
LINE
  8
0
  6
CONTINUOUS
 10
425.406250
 20
82.023750
 11
449.406250
 21
82.023750
  0
LINE
  8
0
  6
CONTINUOUS
 10
301.406250
 20
76.023750
 11
301.406250
 21
94.023750
  0
LINE
  8
0
  6
CONTINUOUS
 10
331.406250
 20
94.023750
 11
301.406250
 21
94.023750
  0
LINE
  8
0
  6
CONTINUOUS
 10
331.406250
 20
76.023750
 11
301.406250
 21
76.023750
  0
LINE
  8
0
  6
CONTINUOUS
 10
331.406250
 20
95.023750
 11
331.406250
 21
75.023750
  0
LINE
  8
0
  6
CONTINUOUS
 10
333.406250
 20
95.023750
 11
331.406250
 21
95.023750
  0
LINE
  8
0
  6
CONTINUOUS
 10
333.406250
 20
75.023750
 11
331.406250
 21
75.023750
  0
ARC
  8
0
  6
CONTINUOUS
 10
325.406250
 20
85.023750
 40
3.000000
 50
-90.000000
 51
90.000000
  0
LINE
  8
0
  6
CONTINUOUS
 10
325.406250
 20
88.023750
 11
301.406250
 21
88.023750
  0
LINE
  8
0
  6
CONTINUOUS
 10
325.406250
 20
82.023750
 11
301.406250
 21
82.023750
  0
LINE
  8
0
  6
CENTER
 10
185.406250
 20
339.705627
 11
185.406250
 21
178.535004
  0
LINE
  8
0
  6
CENTER
 10
223.406250
 20
315.337494
 11
223.406250
 21
296.575012
  0
LINE
  8
0
  6
CENTER
 10
-5.870312
 20
258.828125
 11
249.547501
 21
258.828125
  0
LINE
  8
0
  6
CONTINUOUS
 10
235.065353
 20
307.002655
 11
235.906250
 21
258.828125
  0
LINE
  8
0
  6
CONTINUOUS
 10
225.066879
 20
316.828125
 11
196.906250
 21
316.828125
  0
LINE
  8
0
  6
CONTINUOUS
 10
136.906250
 20
295.828125
 11
233.295013
 21
295.828125
  0
ARC
  8
0
  6
CONTINUOUS
 10
225.066879
 20
306.828125
 40
10.000000
 50
1.000000
 51
90.000000
  0
ARC
  8
0
  6
CONTINUOUS
 10
233.295013
 20
293.828125
 40
2.000000
 50
1.000000
 51
90.000000
  0
LINE
  8
0
  6
CENTER
 10
213.810944
 20
306.828125
 11
234.153442
 21
306.828125
  0
CIRCLE
  8
0
  6
CONTINUOUS
 10
223.406250
 20
306.828125
 40
4.250000
  0
LINE
  8
0
  6
CENTER
 10
147.406250
 20
315.535004
 11
147.406250
 21
296.575012
  0
LINE
  8
0
  6
CONTINUOUS
 10
135.747147
 20
307.002655
 11
135.561157
 21
296.348022
  0
ARC
  8
0
  6
CONTINUOUS
 10
145.745621
 20
306.828125
 40
10.000000
 50
90.000000
 51
179.000000
  0
ARC
  8
0
  6
CONTINUOUS
 10
137.517487
 20
293.828125
 40
2.000000
 50
90.000000
 51
179.000000
  0
LINE
  8
0
  6
CENTER
 10
156.733444
 20
306.828125
 11
137.180939
 21
306.828125
  0
CIRCLE
  8
0
  6
CONTINUOUS
 10
147.406250
 20
306.828125
 40
4.250000
  0
LINE
  8
0
  6
CONTINUOUS
 10
134.906250
 20
297.828125
 11
134.906250
 21
301.828125
  0
LINE
  8
0
  6
CONTINUOUS
 10
132.906250
 20
303.828125
 11
62.406250
 21
303.828125
  0
ARC
  8
0
  6
CONTINUOUS
 10
132.906250
 20
301.828125
 40
2.000000
 50
0.000000
 51
90.000000
  0
ARC
  8
0
  6
CONTINUOUS
 10
136.906250
 20
297.828125
 40
2.000000
 50
180.000000
 51
270.000000
  0
LINE
  8
0
  6
CONTINUOUS
 10
135.517792
 20
293.863037
 11
135.412445
 21
287.828125
  0
LINE
  8
0
  6
CONTINUOUS
 10
62.406250
 20
287.828125
 11
141.748795
 21
287.828125
  0
LINE
  8
0
  6
CONTINUOUS
 10
62.406250
 20
229.828125
 11
141.748795
 21
229.828125
  0
LINE
  8
0
  6
CONTINUOUS
 10
132.906250
 20
213.828125
 11
62.406250
 21
213.828125
  0
ARC
  8
0
  6
CONTINUOUS
 10
132.906250
 20
215.828125
 40
2.000000
 50
-90.000000
 51
0.000000
  0
LINE
  8
0
  6
CENTER
 10
223.406250
 20
201.972504
 11
223.406250
 21
221.031250
  0
LINE
  8
0
  6
CONTINUOUS
 10
235.065353
 20
210.653595
 11
235.906250
 21
258.828125
  0
LINE
  8
0
  6
CONTINUOUS
 10
225.066879
 20
200.828125
 11
196.906250
 21
200.828125
  0
LINE
  8
0
  6
CONTINUOUS
 10
136.906250
 20
221.828125
 11
233.295013
 21
221.828125
  0
ARC
  8
0
  6
CONTINUOUS
 10
225.066879
 20
210.828125
 40
10.000000
 50
-90.000000
 51
-1.000000
  0
ARC
  8
0
  6
CONTINUOUS
 10
233.295013
 20
223.828125
 40
2.000000
 50
-90.000000
 51
-1.000000
  0
LINE
  8
0
  6
CENTER
 10
214.304688
 20
210.828125
 11
234.350937
 21
210.828125
  0
CIRCLE
  8
0
  6
CONTINUOUS
 10
223.406250
 20
210.828125
 40
4.250000
  0
LINE
  8
0
  6
CENTER
 10
147.406250
 20
201.478745
 11
147.406250
 21
220.833755
  0
LINE
  8
0
  6
CONTINUOUS
 10
135.747147
 20
210.653595
 11
135.561157
 21
221.308243
  0
ARC
  8
0
  6
CONTINUOUS
 10
145.745621
 20
210.828125
 40
10.000000
 50
-179.000000
 51
-90.000000
  0
ARC
  8
0
  6
CONTINUOUS
 10
137.517487
 20
223.828125
 40
2.000000
 50
-179.000000
 51
-90.000000
  0
LINE
  8
0
  6
CENTER
 10
157.227188
 20
210.828125
 11
136.983444
 21
210.828125
  0
CIRCLE
  8
0
  6
CONTINUOUS
 10
147.406250
 20
210.828125
 40
4.250000
  0
LINE
  8
0
  6
CONTINUOUS
 10
134.906250
 20
219.828125
 11
134.906250
 21
215.828125
  0
ARC
  8
0
  6
CONTINUOUS
 10
136.906250
 20
219.828125
 40
2.000000
 50
-270.000000
 51
-180.000000
  0
LINE
  8
0
  6
CONTINUOUS
 10
135.517792
 20
223.793213
 11
135.412445
 21
229.828125
  0
LINE
  8
0
  6
CONTINUOUS
 10
168.406250
 20
290.828125
 11
168.406250
 21
226.828125
  0
LINE
  8
0
  6
CONTINUOUS
 10
202.406250
 20
290.828125
 11
202.406250
 21
226.828125
  0
LINE
  8
0
  6
CONTINUOUS
 10
141.748795
 20
285.828125
 11
141.748795
 21
231.828125
  0
LINE
  8
0
  6
CONTINUOUS
 10
207.906250
 20
300.828125
 11
162.906250
 21
300.828125
  0
LINE
  8
0
  6
CONTINUOUS
 10
161.906250
 20
299.828125
 11
161.906250
 21
297.828125
  0
LINE
  8
0
  6
CONTINUOUS
 10
208.906250
 20
299.828125
 11
208.906250
 21
297.828125
  0
ARC
  8
0
  6
CONTINUOUS
 10
159.906250
 20
297.828125
 40
2.000000
 50
-90.000000
 51
0.000000
  0
ARC
  8
0
  6
CONTINUOUS
 10
210.906250
 20
297.828125
 40
2.000000
 50
180.000000
 51
270.000000
  0
ARC
  8
0
  6
CONTINUOUS
 10
162.906265
 20
299.828125
 40
1.000000
 50
90.000000
 51
180.000000
  0
ARC
  8
0
  6
CONTINUOUS
 10
207.906250
 20
299.828125
 40
1.000000
 50
0.000000
 51
90.000000
  0
LINE
  8
0
  6
CONTINUOUS
 10
196.906250
 20
332.828125
 11
176.406250
 21
332.828125
  0
LINE
  8
0
  6
CONTINUOUS
 10
176.406250
 20
302.828125
 11
176.406250
 21
332.828125
  0
LINE
  8
0
  6
CONTINUOUS
 10
194.406250
 20
302.828125
 11
194.406250
 21
305.828125
  0
LINE
  8
0
  6
CONTINUOUS
 10
175.406250
 20
302.828125
 11
195.406250
 21
302.828125
  0
LINE
  8
0
  6
CONTINUOUS
 10
175.406250
 20
300.828125
 11
175.406250
 21
302.828125
  0
LINE
  8
0
  6
CONTINUOUS
 10
195.406250
 20
300.828125
 11
195.406250
 21
302.828125
  0
LINE
  8
0
  6
CONTINUOUS
 10
196.906250
 20
332.828125
 11
196.906250
 21
305.828125
  0
LINE
  8
0
  6
CONTINUOUS
 10
196.906250
 20
305.828125
 11
193.891251
 21
305.828125
  0
LINE
  8
0
  6
CONTINUOUS
 10
193.891251
 20
332.828125
 11
193.891251
 21
305.828125
  0
LINE
  8
0
  6
CONTINUOUS
 10
176.406250
 20
316.828125
 11
145.745621
 21
316.828125
  0
LINE
  8
0
  6
CONTINUOUS
 10
207.906250
 20
216.828125
 11
162.906250
 21
216.828125
  0
LINE
  8
0
  6
CONTINUOUS
 10
161.906250
 20
217.828125
 11
161.906250
 21
219.828125
  0
LINE
  8
0
  6
CONTINUOUS
 10
208.906250
 20
217.828125
 11
208.906250
 21
219.828125
  0
ARC
  8
0
  6
CONTINUOUS
 10
159.906250
 20
219.828125
 40
2.000000
 50
0.000000
 51
90.000000
  0
ARC
  8
0
  6
CONTINUOUS
 10
210.906250
 20
219.828125
 40
2.000000
 50
-270.000000
 51
-180.000000
  0
ARC
  8
0
  6
CONTINUOUS
 10
162.906265
 20
217.828125
 40
1.000000
 50
-180.000000
 51
-90.000000
  0
ARC
  8
0
  6
CONTINUOUS
 10
207.906250
 20
217.828125
 40
1.000000
 50
-90.000000
 51
0.000000
  0
LINE
  8
0
  6
CONTINUOUS
 10
196.906250
 20
184.828125
 11
176.406250
 21
184.828125
  0
LINE
  8
0
  6
CONTINUOUS
 10
176.406250
 20
214.828125
 11
176.406250
 21
184.828125
  0
LINE
  8
0
  6
CONTINUOUS
 10
194.406250
 20
214.828125
 11
194.406250
 21
211.828125
  0
LINE
  8
0
  6
CONTINUOUS
 10
175.406250
 20
214.828125
 11
195.406250
 21
214.828125
  0
LINE
  8
0
  6
CONTINUOUS
 10
175.406250
 20
216.828125
 11
175.406250
 21
214.828125
  0
LINE
  8
0
  6
CONTINUOUS
 10
195.406250
 20
216.828125
 11
195.406250
 21
214.828125
  0
LINE
  8
0
  6
CONTINUOUS
 10
196.906250
 20
184.828125
 11
196.906250
 21
211.828125
  0
LINE
  8
0
  6
CONTINUOUS
 10
196.906250
 20
211.828125
 11
193.891251
 21
211.828125
  0
LINE
  8
0
  6
CONTINUOUS
 10
193.891251
 20
184.828125
 11
193.891251
 21
211.828125
  0
LINE
  8
0
  6
CONTINUOUS
 10
176.406250
 20
200.828125
 11
145.745621
 21
200.828125
  0
LINE
  8
0
  6
CONTINUOUS
 10
52.906250
 20
303.828125
 11
62.406250
 21
303.828125
  0
LINE
  8
0
  6
CONTINUOUS
 10
62.406250
 20
287.828125
 11
52.906250
 21
287.828125
  0
LINE
  8
0
  6
CONTINUOUS
 10
52.906250
 20
213.828125
 11
62.406250
 21
213.828125
  0
LINE
  8
0
  6
CONTINUOUS
 10
62.406250
 20
213.828125
 11
62.406250
 21
233.828110
  0
LINE
  8
0
  6
CONTINUOUS
 10
62.406250
 20
229.828125
 11
52.906250
 21
229.828125
  0
LINE
  8
0
  6
CONTINUOUS
 10
62.406250
 20
283.828094
 11
62.406250
 21
303.828125
  0
LINE
  8
0
  6
CONTINUOUS
 10
52.906250
 20
305.828125
 11
52.906250
 21
266.328094
  0
LINE
  8
0
  6
CONTINUOUS
 10
52.906250
 20
287.828125
 11
8.931220
 21
287.828125
  0
LINE
  8
0
  6
CONTINUOUS
 10
52.906250
 20
229.828125
 11
8.931220
 21
229.828125
  0
LINE
  8
0
  6
CONTINUOUS
 10
10.406230
 20
305.828125
 11
52.906250
 21
305.828125
  0
LINE
  8
0
  6
CONTINUOUS
 10
10.406230
 20
211.828125
 11
52.906250
 21
211.828125
  0
ARC
  8
0
  6
CONTINUOUS
 10
10.406260
 20
300.828125
 40
5.000000
 50
90.000000
 51
180.000000
  0
ARC
  8
0
  6
CONTINUOUS
 10
10.406230
 20
216.828125
 40
5.000000
 50
180.000000
 51
270.000000
  0
LINE
  8
0
  6
CONTINUOUS
 10
5.406260
 20
300.828125
 11
5.406230
 21
216.828110
  0
LINE
  8
0
  6
CONTINUOUS
 10
52.406250
 20
266.328094
 11
53.406250
 21
266.328094
  0
ARC
  8
0
  6
CONTINUOUS
 10
52.406269
 20
265.328094
 40
1.000000
 50
90.000000
 51
180.000000
  0
LINE
  8
0
  6
CONTINUOUS
 10
47.906265
 20
262.828094
 11
47.906265
 21
254.828110
  0
LINE
  8
0
  6
CONTINUOUS
 10
47.906265
 20
262.828094
 11
51.406265
 21
264.328094
  0
LINE
  8
0
  6
CONTINUOUS
 10
47.906250
 20
254.828110
 11
51.406250
 21
253.328110
  0
LINE
  8
0
  6
CONTINUOUS
 10
51.406265
 20
265.328094
 11
51.406265
 21
252.328110
  0
LINE
  8
0
  6
CONTINUOUS
 10
52.406250
 20
251.328110
 11
53.406250
 21
251.328110
  0
ARC
  8
0
  6
CONTINUOUS
 10
52.406269
 20
252.328110
 40
1.000000
 50
-180.000000
 51
-90.000000
  0
LINE
  8
0
  6
CONTINUOUS
 10
53.406250
 20
235.828110
 11
53.406250
 21
281.828094
  0
LINE
  8
0
  6
CONTINUOUS
 10
55.406250
 20
283.828094
 11
53.406250
 21
281.828094
  0
LINE
  8
0
  6
CONTINUOUS
 10
55.406250
 20
283.828094
 11
101.406242
 21
283.828094
  0
LINE
  8
0
  6
CONTINUOUS
 10
95.906250
 20
279.328094
 11
95.906250
 21
283.828094
  0
ARC
  8
0
  6
CONTINUOUS
 10
98.906250
 20
279.328094
 40
3.000000
 50
180.000000
 51
270.000000
  0
LINE
  8
0
  6
CONTINUOUS
 10
98.906250
 20
276.328094
 11
103.406242
 21
276.328094
  0
CIRCLE
  8
0
  6
CONTINUOUS
 10
99.906250
 20
280.328094
 40
2.250000
  0
LINE
  8
0
  6
CONTINUOUS
 10
103.406242
 20
235.828110
 11
103.406242
 21
281.828094
  0
LINE
  8
0
  6
CONTINUOUS
 10
101.406242
 20
283.828094
 11
103.406242
 21
281.828094
  0
LINE
  8
0
  6
CONTINUOUS
 10
101.406242
 20
233.828110
 11
103.406242
 21
235.828110
  0
LINE
  8
0
  6
CONTINUOUS
 10
101.406242
 20
233.828110
 11
55.406250
 21
233.828110
  0
LINE
  8
0
  6
CONTINUOUS
 10
53.406250
 20
235.828110
 11
55.406250
 21
233.828110
  0
LINE
  8
0
  6
CONTINUOUS
 10
57.906250
 20
241.328110
 11
53.406261
 21
241.328110
  0
CIRCLE
  8
0
  6
CONTINUOUS
 10
56.906250
 20
237.328110
 40
2.250000
  0
ARC
  8
0
  6
CONTINUOUS
 10
57.906250
 20
238.328110
 40
3.000000
 50
0.000000
 51
90.000000
  0
LINE
  8
0
  6
CONTINUOUS
 10
60.906250
 20
238.328110
 11
60.906250
 21
233.828110
  0
LINE
  8
0
  6
CENTER
 10
78.406250
 20
226.362320
 11
78.406250
 21
290.494354
  0
LINE
  8
0
  6
CONTINUOUS
 10
55.820469
 20
282.828125
 11
54.406258
 21
281.413910
  0
LINE
  8
0
  6
CONTINUOUS
 10
54.406258
 20
241.328125
 11
54.406258
 21
281.413910
  0
LINE
  8
0
  6
CONTINUOUS
 10
95.906250
 20
282.828125
 11
55.820469
 21
282.828125
  0
LINE
  8
0
  6
CONTINUOUS
 10
102.406242
 20
276.328125
 11
102.406242
 21
236.242340
  0
LINE
  8
0
  6
CONTINUOUS
 10
60.906250
 20
234.828125
 11
100.992027
 21
234.828125
  0
LINE
  8
0
  6
CONTINUOUS
 10
100.992027
 20
234.828125
 11
102.406242
 21
236.242340
  0
LINE
  8
0
  6
CONTINUOUS
 10
52.906250
 20
251.328110
 11
52.906250
 21
211.828125
  0
LINE
  8
0
  6
CONTINUOUS
 10
54.906239
 20
105.823753
 11
101.406242
 21
105.823753
  0
LINE
  8
0
  6
CONTINUOUS
 10
103.406227
 20
135.823746
 11
103.406242
 21
107.823753
  0
LINE
  8
0
  6
CONTINUOUS
 10
53.406239
 20
135.823746
 11
53.406239
 21
107.823753
  0
LINE
  8
0
  6
CONTINUOUS
 10
51.406239
 20
117.823753
 11
103.406242
 21
117.823753
  0
LINE
  8
0
  6
CONTINUOUS
 10
101.406242
 20
105.823753
 11
103.406242
 21
107.823753
  0
LINE
  8
0
  6
CONTINUOUS
 10
53.406239
 20
107.823753
 11
55.406239
 21
105.823753
  0
LINE
  8
0
  6
CONTINUOUS
 10
53.406239
 20
107.823753
 11
103.406242
 21
107.823753
  0
LINE
  8
0
  6
CONTINUOUS
 10
54.406239
 20
136.823746
 11
102.406227
 21
136.823746
  0
LINE
  8
0
  6
CONTINUOUS
 10
102.406227
 20
136.823746
 11
103.406227
 21
135.823746
  0
LINE
  8
0
  6
CONTINUOUS
 10
54.406239
 20
136.823746
 11
53.406239
 21
135.823746
  0
LINE
  8
0
  6
CONTINUOUS
 10
53.406239
 20
135.823746
 11
103.406227
 21
135.823746
  0
LINE
  8
0
  6
CENTER
 10
45.462494
 20
127.323753
 11
57.537491
 21
127.323753
  0
LINE
  8
0
  6
CONTINUOUS
 10
51.406246
 20
133.823746
 11
51.406239
 21
117.823753
  0
LINE
  8
0
  6
CONTINUOUS
 10
52.406239
 20
134.823746
 11
53.406239
 21
134.823746
  0
ARC
  8
0
  6
CONTINUOUS
 10
52.406250
 20
133.823746
 40
1.000000
 50
90.000000
 51
180.000000
  0
LINE
  8
0
  6
CONTINUOUS
 10
47.906246
 20
131.323746
 11
47.906246
 21
123.323753
  0
LINE
  8
0
  6
CONTINUOUS
 10
47.906246
 20
131.323746
 11
51.406246
 21
132.823746
  0
LINE
  8
0
  6
CONTINUOUS
 10
47.906239
 20
123.323753
 11
51.406239
 21
121.823753
  0
LINE
  8
0
  6
CENTER
 10
78.406242
 20
101.129997
 11
78.406242
 21
142.211243
  0
LINE
  8
0
  6
CONTINUOUS
 10
54.906239
 20
105.823753
 11
54.906239
 21
104.323753
  0
LINE
  8
0
  6
CONTINUOUS
 10
100.906242
 20
105.823753
 11
100.906242
 21
104.323753
  0
LINE
  8
0
  6
CONTINUOUS
 10
400.406250
 20
135.823746
 11
400.406250
 21
122.587379
  0
LINE
  8
0
  6
CONTINUOUS
 10
350.406250
 20
135.823746
 11
350.406250
 21
122.587273
  0
LINE
  8
0
  6
CONTINUOUS
 10
351.406250
 20
136.823746
 11
399.406250
 21
136.823746
  0
LINE
  8
0
  6
CONTINUOUS
 10
399.406250
 20
136.823746
 11
400.406250
 21
135.823746
  0
LINE
  8
0
  6
CONTINUOUS
 10
351.406250
 20
136.823746
 11
350.406250
 21
135.823746
  0
LINE
  8
0
  6
CONTINUOUS
 10
350.406250
 20
135.823746
 11
400.406250
 21
135.823746
  0
TEXT
  8
0
 10
-6.000000
 20
2.000000
 40
4.000000
 41
1.000000
  1
HLM-18T-10~240-T90WT
 50
0.000000
  0
ENDSEC
  0
EOF
