  0
SECTION
  2
HEADER
  9
$CLAYER
  8
1
  9
$LTSCALE
 40
3.0
  0
ENDSEC
  0
SECTION
  2
TABLES
  0
TABLE
  2
LTYPE
 70
     4
  0
LTYPE
  2
CONTINUOUS
  3
solid line
 70
    64
 72
    65
 73
     0
 40
0.0
  0
LTYPE
  2
DASHED
  3
__ __ __ __ __ __ __ __ __ __ __ __ __ __ __
 70
    64
 72
    65
 73
     2
 40
0.75
 49
0.5
 49
-0.25
  0
LTYPE
  2
CENTER
  3
____ _ ____ _ ____ _ ____ _ ____ _ ____ _ ____
 70
    64
 72
    65
 73
     4
 40
2.0
 49
1.25
 49
-0.25
 49
0.25
 49
-0.25
  0
LTYPE
  2
PHANTOM
  3
_____ _ _ _____ _ _ _____ _ _ _____ _ _ ____
 70
    64
 72
    65
 73
     6
 40
2.5
 49
1.25
 49
-0.25
 49
0.25
 49
-0.25
 49
0.25
 49
-0.25
  0
ENDTAB
  0
TABLE
  2
LAYER
 70
     1
  0
LAYER
  2
0
 70
    64
 62
     7
  6
CONTINUOUS
  0
ENDTAB
  0
TABLE
  2
STYLE
 70
     1
  0
STYLE
  2
STANDARD
 70
     0
 40
0.000000
 41
1.000000
 50
0.000000
 71
     0
 42
3.000000
  3
txt
  4
BIGFONT
  0
ENDTAB
  0
ENDSEC
  0
SECTION
  2
BLOCKS
  0
ENDSEC
  0
SECTION
  2
ENTITIES
  0
LINE
  8
0
  6
CENTER
 10
436.060638
 20
84.089691
 11
324.219788
 21
84.089691
  0
LINE
  8
0
  6
CONTINUOUS
 10
522.969788
 20
111.089668
 11
408.969788
 21
111.089668
  0
LINE
  8
0
  6
CONTINUOUS
 10
522.969788
 20
35.089706
 11
408.969788
 21
35.089706
  0
LINE
  8
0
  6
CONTINUOUS
 10
522.969788
 20
103.338669
 11
416.969788
 21
103.338669
  0
LINE
  8
0
  6
CONTINUOUS
 10
522.969788
 20
42.840710
 11
416.969788
 21
42.840710
  0
LINE
  8
0
  6
CONTINUOUS
 10
416.969788
 20
109.089668
 11
416.969788
 21
37.089687
  0
ARC
  8
0
  6
CONTINUOUS
 10
414.969788
 20
109.089691
 40
2.000000
 50
0.000000
 51
90.000000
  0
ARC
  8
0
  6
CONTINUOUS
 10
414.969788
 20
37.089706
 40
2.000000
 50
-90.000000
 51
0.000000
  0
LINE
  8
0
  6
CENTER
 10
65.892502
 20
-6.035333
 11
65.892502
 21
173.514694
  0
LINE
  8
0
  6
CENTER
 10
-4.332500
 20
84.089691
 11
134.792496
 21
84.089691
  0
LINE
  8
0
  6
CENTER
 10
6.895469
 20
114.589691
 11
169.142502
 21
114.589691
  0
LINE
  8
0
  6
CONTINUOUS
 10
7.892500
 20
9.589687
 11
40.892502
 21
9.589687
  0
LINE
  8
0
  6
CONTINUOUS
 10
7.892500
 20
20.216087
 11
7.892500
 21
9.589687
  0
LINE
  8
0
  6
CONTINUOUS
 10
123.892502
 20
20.216087
 11
123.892502
 21
9.589687
  0
LINE
  8
0
  6
CONTINUOUS
 10
9.892500
 20
21.589687
 11
30.892500
 21
21.589687
  0
LINE
  8
0
  6
CONTINUOUS
 10
121.892502
 20
21.589687
 11
100.892502
 21
21.589687
  0
LINE
  8
0
  6
CONTINUOUS
 10
33.892502
 20
32.963287
 11
33.892502
 21
157.065613
  0
LINE
  8
0
  6
CONTINUOUS
 10
97.892502
 20
32.963287
 11
97.892502
 21
157.065964
  0
LINE
  8
0
  6
CONTINUOUS
 10
95.927299
 20
159.065674
 11
65.892502
 21
159.589691
  0
LINE
  8
0
  6
CONTINUOUS
 10
35.857498
 20
159.065323
 11
65.892502
 21
159.589691
  0
ARC
  8
0
  6
CONTINUOUS
 10
35.892502
 20
157.065628
 40
2.000000
 50
91.000580
 51
180.000000
  0
ARC
  8
0
  6
CONTINUOUS
 10
95.892502
 20
157.065964
 40
2.000000
 50
0.000000
 51
89.000519
  0
LINE
  8
0
  6
CONTINUOUS
 10
97.892502
 20
24.589687
 11
97.892502
 21
9.589687
  0
ARC
  8
0
  6
CONTINUOUS
 10
100.892502
 20
24.589687
 40
3.000000
 50
180.000000
 51
270.000000
  0
LINE
  8
0
  6
CONTINUOUS
 10
33.892502
 20
24.589687
 11
33.892502
 21
9.589687
  0
ARC
  8
0
  6
CONTINUOUS
 10
30.892500
 20
24.589666
 40
3.000000
 50
-90.000000
 51
0.000000
  0
ARC
  8
0
  6
CONTINUOUS
 10
9.892500
 20
19.589687
 40
2.000000
 50
90.000000
 51
180.000000
  0
ARC
  8
0
  6
CONTINUOUS
 10
121.892502
 20
19.589687
 40
2.000000
 50
0.000000
 51
90.000000
  0
LINE
  8
0
  6
CENTER
 10
20.892500
 20
25.879688
 11
20.892500
 21
5.479688
  0
LINE
  8
0
  6
CENTER
 10
110.892502
 20
26.899689
 11
110.892502
 21
4.969687
  0
LINE
  8
0
  6
CONTINUOUS
 10
32.610500
 20
31.096607
 11
9.174500
 21
22.082788
  0
ARC
  8
0
  6
CONTINUOUS
 10
9.892500
 20
20.216106
 40
2.000000
 50
111.037903
 51
180.000000
  0
LINE
  8
0
  6
CONTINUOUS
 10
33.892502
 20
32.963287
 11
33.892502
 21
24.589687
  0
ARC
  8
0
  6
CONTINUOUS
 10
31.892500
 20
32.963287
 40
2.000000
 50
-68.962189
 51
0.000000
  0
LINE
  8
0
  6
CONTINUOUS
 10
99.174500
 20
31.096588
 11
122.610497
 21
22.082788
  0
ARC
  8
0
  6
CONTINUOUS
 10
121.892502
 20
20.216087
 40
2.000000
 50
0.000000
 51
68.962646
  0
LINE
  8
0
  6
CONTINUOUS
 10
97.892502
 20
32.963287
 11
97.892502
 21
24.589687
  0
ARC
  8
0
  6
CONTINUOUS
 10
99.892502
 20
32.963306
 40
2.000000
 50
180.000000
 51
248.962799
  0
LINE
  8
0
  6
CONTINUOUS
 10
17.892500
 20
89.396835
 11
17.892500
 21
139.782532
  0
LINE
  8
0
  6
CONTINUOUS
 10
113.892502
 20
89.396843
 11
113.892502
 21
139.782532
  0
LINE
  8
0
  6
CONTINUOUS
 10
103.892502
 20
56.394527
 11
103.892502
 21
116.659691
  0
LINE
  8
0
  6
CONTINUOUS
 10
27.892500
 20
56.394527
 11
27.892500
 21
116.659691
  0
LINE
  8
0
  6
CONTINUOUS
 10
111.662697
 20
142.681992
 11
100.122299
 21
145.747391
  0
LINE
  8
0
  6
CONTINUOUS
 10
111.662697
 20
86.497383
 11
106.122299
 21
85.025734
  0
LINE
  8
0
  6
CONTINUOUS
 10
101.665497
 20
53.495827
 11
100.119499
 21
53.083546
  0
LINE
  8
0
  6
CONTINUOUS
 10
30.119499
 20
53.495808
 11
31.665501
 21
53.083546
  0
LINE
  8
0
  6
CONTINUOUS
 10
20.122299
 20
86.497383
 11
25.662701
 21
85.025734
  0
LINE
  8
0
  6
CONTINUOUS
 10
20.122299
 20
142.681992
 11
31.662701
 21
145.747391
  0
ARC
  8
0
  6
CONTINUOUS
 10
20.892500
 20
139.782547
 40
3.000000
 50
104.876099
 51
180.000000
  0
ARC
  8
0
  6
CONTINUOUS
 10
20.892500
 20
89.396858
 40
3.000000
 50
180.000000
 51
255.124603
  0
ARC
  8
0
  6
CONTINUOUS
 10
110.892502
 20
139.782532
 40
3.000000
 50
0.000000
 51
75.124413
  0
ARC
  8
0
  6
CONTINUOUS
 10
110.892502
 20
89.396835
 40
3.000000
 50
-75.124207
 51
0.000000
  0
ARC
  8
0
  6
CONTINUOUS
 10
30.892500
 20
56.394547
 40
3.000000
 50
180.000000
 51
255.069000
  0
ARC
  8
0
  6
CONTINUOUS
 10
100.892502
 20
56.394527
 40
3.000000
 50
-75.068420
 51
0.000000
  0
ARC
  8
0
  6
CONTINUOUS
 10
100.892502
 20
148.646866
 40
3.000000
 50
180.000000
 51
255.124603
  0
ARC
  8
0
  6
CONTINUOUS
 10
106.892502
 20
82.126297
 40
3.000000
 50
104.876099
 51
180.000000
  0
ARC
  8
0
  6
CONTINUOUS
 10
100.892502
 20
50.184868
 40
3.000000
 50
104.931801
 51
180.000000
  0
ARC
  8
0
  6
CONTINUOUS
 10
30.892500
 20
50.184849
 40
3.000000
 50
0.000000
 51
75.068779
  0
ARC
  8
0
  6
CONTINUOUS
 10
24.892500
 20
82.126266
 40
3.000000
 50
0.000000
 51
75.124496
  0
ARC
  8
0
  6
CONTINUOUS
 10
30.892500
 20
148.646835
 40
3.000000
 50
-75.124153
 51
0.000000
  0
LINE
  8
0
  6
DASHED
 10
15.392500
 20
21.589687
 11
15.392500
 21
9.589687
  0
LINE
  8
0
  6
DASHED
 10
26.392500
 20
21.589687
 11
26.392500
 21
9.589687
  0
LINE
  8
0
  6
DASHED
 10
105.392502
 20
21.589687
 11
105.392502
 21
9.589687
  0
LINE
  8
0
  6
DASHED
 10
116.392502
 20
21.589687
 11
116.392502
 21
9.589687
  0
LINE
  8
0
  6
CONTINUOUS
 10
36.122501
 20
136.589691
 11
95.792503
 21
136.589691
  0
LINE
  8
0
  6
CONTINUOUS
 10
18.392500
 20
41.589687
 11
18.392500
 21
50.641029
  0
LINE
  8
0
  6
CONTINUOUS
 10
113.392502
 20
41.589687
 11
113.392502
 21
50.641029
  0
LINE
  8
0
  6
CONTINUOUS
 10
23.392500
 20
36.589687
 11
32.423698
 21
36.589687
  0
LINE
  8
0
  6
CONTINUOUS
 10
108.392502
 20
36.589687
 11
99.341103
 21
36.589687
  0
ARC
  8
0
  6
CONTINUOUS
 10
65.892502
 20
84.089691
 40
57.250000
 50
-32.501888
 51
19.914110
  0
ARC
  8
0
  6
CONTINUOUS
 10
65.892502
 20
84.089691
 40
57.250000
 50
146.974487
 51
212.501907
  0
ARC
  8
0
  6
CONTINUOUS
 10
23.392500
 20
41.589687
 40
5.000000
 50
180.000000
 51
270.000000
  0
ARC
  8
0
  6
CONTINUOUS
 10
108.392502
 20
41.589687
 40
5.000000
 50
-90.000000
 51
0.000000
  0
ARC
  8
0
  6
CONTINUOUS
 10
32.443901
 20
31.589687
 40
5.000000
 50
73.928284
 51
90.230461
  0
ARC
  8
0
  6
CONTINUOUS
 10
99.341103
 20
31.589687
 40
5.000000
 50
90.000000
 51
106.071800
  0
ARC
  8
0
  6
CONTINUOUS
 10
13.392500
 20
50.641029
 40
5.000000
 50
0.000000
 51
32.499691
  0
ARC
  8
0
  6
CONTINUOUS
 10
118.392502
 20
50.641029
 40
5.000000
 50
147.498306
 51
180.000000
  0
LINE
  8
0
  6
CONTINUOUS
 10
99.892502
 20
35.089687
 11
97.892502
 21
35.089687
  0
LINE
  8
0
  6
CONTINUOUS
 10
31.892500
 20
35.089687
 11
33.892502
 21
35.089687
  0
ARC
  8
0
  6
CONTINUOUS
 10
99.892502
 20
39.089687
 40
4.000000
 50
270.000000
 51
322.311005
  0
ARC
  8
0
  6
CONTINUOUS
 10
31.892500
 20
39.089687
 40
4.000000
 50
218.645996
 51
270.000000
  0
LINE
  8
0
  6
CONTINUOUS
 10
155.892502
 20
103.589691
 11
155.892502
 21
125.589691
  0
LINE
  8
0
  6
CONTINUOUS
 10
115.892502
 20
125.589691
 11
155.892502
 21
125.589691
  0
LINE
  8
0
  6
CONTINUOUS
 10
115.892502
 20
103.589691
 11
155.892502
 21
103.589691
  0
LINE
  8
0
  6
CONTINUOUS
 10
115.892502
 20
127.089691
 11
115.892502
 21
102.089691
  0
LINE
  8
0
  6
CONTINUOUS
 10
113.892502
 20
127.089691
 11
115.892502
 21
127.089691
  0
LINE
  8
0
  6
CONTINUOUS
 10
113.892502
 20
102.089691
 11
115.892502
 21
102.089691
  0
ARC
  8
0
  6
CONTINUOUS
 10
123.892502
 20
114.589691
 40
3.000000
 50
90.000000
 51
270.000000
  0
LINE
  8
0
  6
CONTINUOUS
 10
123.892502
 20
117.589691
 11
155.892502
 21
117.589691
  0
LINE
  8
0
  6
CONTINUOUS
 10
123.892502
 20
111.589691
 11
155.892502
 21
111.589691
  0
LINE
  8
0
  6
CENTER
 10
593.609985
 20
73.089691
 11
324.219788
 21
73.089691
  0
LINE
  8
0
  6
CONTINUOUS
 10
367.382538
 20
112.541946
 11
408.969788
 21
111.089691
  0
LINE
  8
0
  6
CONTINUOUS
 10
356.969788
 20
33.273808
 11
408.969788
 21
35.089687
  0
LINE
  8
0
  6
CONTINUOUS
 10
364.969788
 20
140.589691
 11
364.969788
 21
113.589691
  0
LINE
  8
0
  6
CONTINUOUS
 10
363.969788
 20
141.589691
 11
356.969757
 21
141.589691
  0
LINE
  8
0
  6
CONTINUOUS
 10
362.469788
 20
26.589687
 11
356.969788
 21
26.589687
  0
LINE
  8
0
  6
CONTINUOUS
 10
364.969788
 20
114.089691
 11
364.969788
 21
43.177032
  0
LINE
  8
0
  6
CONTINUOUS
 10
408.969788
 20
111.089691
 11
408.969788
 21
35.089687
  0
LINE
  8
0
  6
CONTINUOUS
 10
366.382904
 20
124.407494
 11
392.326355
 21
111.883080
  0
LINE
  8
0
  6
CENTER
 10
292.219788
 20
206.365707
 11
292.219788
 21
370.947510
  0
LINE
  8
0
  6
CENTER
 10
591.895020
 20
302.567383
 11
222.880310
 21
302.567383
  0
LINE
  8
0
  6
CONTINUOUS
 10
343.437805
 20
270.567383
 11
244.691818
 21
270.567383
  0
LINE
  8
0
  6
CONTINUOUS
 10
343.437805
 20
334.567383
 11
244.691818
 21
334.567383
  0
LINE
  8
0
  6
CONTINUOUS
 10
249.281677
 20
244.567398
 11
278.719788
 21
244.567398
  0
LINE
  8
0
  6
CONTINUOUS
 10
335.157867
 20
360.567383
 11
292.219788
 21
360.567383
  0
LINE
  8
0
  6
CONTINUOUS
 10
239.219772
 20
302.567383
 11
239.778336
 21
270.567383
  0
LINE
  8
0
  6
CONTINUOUS
 10
244.387711
 20
248.543152
 11
239.778336
 21
270.567383
  0
ARC
  8
0
  6
CONTINUOUS
 10
249.281677
 20
249.567398
 40
5.000000
 50
191.820602
 51
270.000000
  0
LINE
  8
0
  6
CONTINUOUS
 10
239.219772
 20
302.567383
 11
239.778336
 21
334.567383
  0
LINE
  8
0
  6
CONTINUOUS
 10
244.387711
 20
356.591644
 11
239.778336
 21
334.567383
  0
ARC
  8
0
  6
CONTINUOUS
 10
249.281677
 20
355.567383
 40
5.000000
 50
90.000000
 51
168.179398
  0
LINE
  8
0
  6
CONTINUOUS
 10
272.219788
 20
332.567383
 11
272.219788
 21
272.567383
  0
LINE
  8
0
  6
CONTINUOUS
 10
312.219788
 20
332.567383
 11
312.219788
 21
272.567383
  0
ARC
  8
0
  6
CONTINUOUS
 10
244.691818
 20
275.567383
 40
5.000000
 50
181.000000
 51
270.000000
  0
ARC
  8
0
  6
CONTINUOUS
 10
244.691818
 20
329.567383
 40
5.000000
 50
90.000000
 51
179.000000
  0
LINE
  8
0
  6
CONTINUOUS
 10
348.893280
 20
356.895935
 11
348.436096
 21
339.436523
  0
LINE
  8
0
  6
CONTINUOUS
 10
356.969788
 20
245.067398
 11
356.969788
 21
360.067383
  0
LINE
  8
0
  6
CONTINUOUS
 10
338.404785
 20
284.567383
 11
338.404785
 21
320.567383
  0
LINE
  8
0
  6
CONTINUOUS
 10
356.969788
 20
245.317398
 11
351.892242
 21
245.317398
  0
LINE
  8
0
  6
CONTINUOUS
 10
351.892242
 20
359.817383
 11
356.969788
 21
359.817383
  0
ARC
  8
0
  6
CONTINUOUS
 10
343.437805
 20
339.567383
 40
5.000000
 50
270.000000
 51
358.500000
  0
ARC
  8
0
  6
CONTINUOUS
 10
351.892242
 20
356.817383
 40
3.000000
 50
90.000000
 51
178.500000
  0
LINE
  8
0
  6
CONTINUOUS
 10
348.893280
 20
248.238861
 11
348.436096
 21
265.698273
  0
ARC
  8
0
  6
CONTINUOUS
 10
343.437805
 20
265.567383
 40
5.000000
 50
1.500000
 51
90.000000
  0
ARC
  8
0
  6
CONTINUOUS
 10
351.892242
 20
248.317398
 40
3.000000
 50
-178.500000
 51
-90.000000
  0
LINE
  8
0
  6
CONTINUOUS
 10
340.051849
 20
248.543152
 11
344.630981
 21
270.422943
  0
ARC
  8
0
  6
CONTINUOUS
 10
335.157867
 20
249.567398
 40
5.000000
 50
270.000000
 51
348.179413
  0
LINE
  8
0
  6
CONTINUOUS
 10
340.051849
 20
356.591644
 11
344.630981
 21
334.711853
  0
ARC
  8
0
  6
CONTINUOUS
 10
335.157867
 20
355.567383
 40
5.000000
 50
11.820596
 51
90.000000
  0
LINE
  8
0
  6
CENTER
 10
267.669373
 20
347.567383
 11
246.815216
 21
347.567383
  0
LINE
  8
0
  6
CENTER
 10
257.219788
 20
340.010101
 11
257.219788
 21
356.780945
  0
CIRCLE
  8
0
  6
CONTINUOUS
 10
257.219788
 20
347.567383
 40
5.500000
  0
LINE
  8
0
  6
CENTER
 10
316.770172
 20
347.567383
 11
337.624329
 21
347.567383
  0
LINE
  8
0
  6
CENTER
 10
327.219788
 20
340.010101
 11
327.219788
 21
356.780945
  0
CIRCLE
  8
0
  6
CONTINUOUS
 10
327.219788
 20
347.567383
 40
5.500000
  0
LINE
  8
0
  6
CENTER
 10
267.669373
 20
257.567383
 11
246.815216
 21
257.567383
  0
LINE
  8
0
  6
CENTER
 10
257.219788
 20
265.124695
 11
257.219788
 21
248.353851
  0
CIRCLE
  8
0
  6
CONTINUOUS
 10
257.219788
 20
257.567383
 40
5.500000
  0
LINE
  8
0
  6
CENTER
 10
316.770172
 20
257.567383
 11
337.624329
 21
257.567383
  0
LINE
  8
0
  6
CENTER
 10
327.219788
 20
265.124695
 11
327.219788
 21
248.353851
  0
CIRCLE
  8
0
  6
CONTINUOUS
 10
327.219788
 20
257.567383
 40
5.500000
  0
LINE
  8
0
  6
CONTINUOUS
 10
317.412628
 20
350.567383
 11
267.026917
 21
350.567383
  0
LINE
  8
0
  6
CONTINUOUS
 10
262.063538
 20
340.567383
 11
258.776672
 21
340.567383
  0
ARC
  8
0
  6
CONTINUOUS
 10
267.026917
 20
347.567383
 40
3.000000
 50
90.000000
 51
165.124313
  0
LINE
  8
0
  6
CONTINUOUS
 10
255.877228
 20
338.337555
 11
255.468079
 21
336.797241
  0
ARC
  8
0
  6
CONTINUOUS
 10
258.776672
 20
337.567383
 40
3.000000
 50
90.000000
 51
165.124313
  0
ARC
  8
0
  6
CONTINUOUS
 10
252.568619
 20
337.567383
 40
3.000000
 50
270.000000
 51
345.124329
  0
LINE
  8
0
  6
CONTINUOUS
 10
262.063538
 20
340.567383
 11
264.127472
 21
348.337555
  0
LINE
  8
0
  6
CONTINUOUS
 10
328.562317
 20
338.337555
 11
328.971466
 21
336.797241
  0
ARC
  8
0
  6
CONTINUOUS
 10
325.662872
 20
337.567383
 40
3.000000
 50
14.875682
 51
90.000000
  0
ARC
  8
0
  6
CONTINUOUS
 10
331.870941
 20
337.567383
 40
3.000000
 50
194.875687
 51
270.000000
  0
LINE
  8
0
  6
CONTINUOUS
 10
322.376038
 20
340.567383
 11
325.662872
 21
340.567383
  0
ARC
  8
0
  6
CONTINUOUS
 10
317.412628
 20
347.567383
 40
3.000000
 50
14.875682
 51
90.000000
  0
LINE
  8
0
  6
CONTINUOUS
 10
322.376038
 20
340.567383
 11
320.312073
 21
348.337555
  0
CIRCLE
  8
0
  6
CONTINUOUS
 10
257.219788
 20
257.567383
 40
5.500000
  0
LINE
  8
0
  6
CONTINUOUS
 10
317.412628
 20
254.567398
 11
267.026917
 21
254.567398
  0
LINE
  8
0
  6
CONTINUOUS
 10
262.063538
 20
264.567383
 11
258.776672
 21
264.567383
  0
ARC
  8
0
  6
CONTINUOUS
 10
267.026917
 20
257.567383
 40
3.000000
 50
-165.124313
 51
-90.000000
  0
LINE
  8
0
  6
CONTINUOUS
 10
255.877228
 20
266.797241
 11
255.468079
 21
268.337555
  0
ARC
  8
0
  6
CONTINUOUS
 10
258.776672
 20
267.567383
 40
3.000000
 50
-165.124313
 51
-90.000000
  0
ARC
  8
0
  6
CONTINUOUS
 10
252.568619
 20
267.567383
 40
3.000000
 50
14.875682
 51
90.000000
  0
LINE
  8
0
  6
CONTINUOUS
 10
262.063538
 20
264.567383
 11
264.127472
 21
256.797241
  0
LINE
  8
0
  6
CONTINUOUS
 10
328.562317
 20
266.797241
 11
328.971466
 21
268.337555
  0
ARC
  8
0
  6
CONTINUOUS
 10
325.662872
 20
267.567383
 40
3.000000
 50
270.000000
 51
345.124329
  0
ARC
  8
0
  6
CONTINUOUS
 10
331.870941
 20
267.567383
 40
3.000000
 50
90.000000
 51
165.124313
  0
LINE
  8
0
  6
CONTINUOUS
 10
322.376038
 20
264.567383
 11
325.662872
 21
264.567383
  0
ARC
  8
0
  6
CONTINUOUS
 10
317.412628
 20
257.567383
 40
3.000000
 50
270.000000
 51
345.124329
  0
LINE
  8
0
  6
CONTINUOUS
 10
322.376038
 20
264.567383
 11
320.312073
 21
256.797241
  0
LINE
  8
0
  6
CONTINUOUS
 10
292.219788
 20
360.567383
 11
249.281677
 21
360.567383
  0
LINE
  8
0
  6
CONTINUOUS
 10
303.219788
 20
212.567398
 11
278.719788
 21
212.567398
  0
LINE
  8
0
  6
CONTINUOUS
 10
281.219788
 20
252.567398
 11
281.219788
 21
247.567398
  0
LINE
  8
0
  6
CONTINUOUS
 10
303.219788
 20
252.567398
 11
303.219788
 21
212.567398
  0
LINE
  8
0
  6
CONTINUOUS
 10
279.719788
 20
254.567398
 11
279.719788
 21
252.567398
  0
LINE
  8
0
  6
CONTINUOUS
 10
304.719788
 20
254.567398
 11
304.719788
 21
252.567398
  0
LINE
  8
0
  6
CONTINUOUS
 10
304.719788
 20
252.567398
 11
279.719788
 21
252.567398
  0
LINE
  8
0
  6
CONTINUOUS
 10
278.719788
 20
247.567398
 11
278.719788
 21
212.567398
  0
LINE
  8
0
  6
CONTINUOUS
 10
281.636780
 20
212.567398
 11
281.636780
 21
247.567398
  0
LINE
  8
0
  6
CONTINUOUS
 10
281.636780
 20
247.567398
 11
278.719788
 21
247.567398
  0
LINE
  8
0
  6
CONTINUOUS
 10
303.219788
 20
244.567398
 11
335.336029
 21
244.567398
  0
LINE
  8
0
  6
CONTINUOUS
 10
356.969788
 20
255.067398
 11
351.636932
 21
255.067398
  0
ARC
  8
0
  6
CONTINUOUS
 10
351.636932
 20
258.067383
 40
3.000000
 50
181.500000
 51
270.000000
  0
LINE
  8
0
  6
CONTINUOUS
 10
348.679291
 20
270.567383
 11
356.969788
 21
270.567383
  0
LINE
  8
0
  6
CONTINUOUS
 10
348.679291
 20
334.567383
 11
356.969788
 21
334.567383
  0
LINE
  8
0
  6
CONTINUOUS
 10
356.969788
 20
350.067383
 11
351.636932
 21
350.067383
  0
ARC
  8
0
  6
CONTINUOUS
 10
351.636932
 20
347.067383
 40
3.000000
 50
90.000000
 51
178.500000
  0
LINE
  8
0
  6
CONTINUOUS
 10
41.892502
 20
10.589687
 11
89.892502
 21
10.589687
  0
LINE
  8
0
  6
CONTINUOUS
 10
90.892502
 20
9.589687
 11
89.892502
 21
10.589687
  0
LINE
  8
0
  6
CONTINUOUS
 10
40.892502
 20
9.589687
 11
41.892502
 21
10.589687
  0
LINE
  8
0
  6
CONTINUOUS
 10
90.892502
 20
9.589687
 11
123.892502
 21
9.589687
  0
LINE
  8
0
  6
CONTINUOUS
 10
362.469788
 20
360.067383
 11
356.969788
 21
360.067383
  0
LINE
  8
0
  6
CONTINUOUS
 10
362.469788
 20
245.067398
 11
356.969788
 21
245.067398
  0
LINE
  8
0
  6
CONTINUOUS
 10
364.969788
 20
357.567383
 11
364.969788
 21
247.567398
  0
LINE
  8
0
  6
CONTINUOUS
 10
408.969788
 20
264.567383
 11
408.969788
 21
340.567383
  0
LINE
  8
0
  6
CONTINUOUS
 10
367.382538
 20
263.115143
 11
408.969788
 21
264.567383
  0
LINE
  8
0
  6
CONTINUOUS
 10
367.382538
 20
342.019653
 11
408.969788
 21
340.567383
  0
ARC
  8
0
  6
CONTINUOUS
 10
362.469788
 20
247.567398
 40
2.500000
 50
-90.000000
 51
0.000000
  0
ARC
  8
0
  6
CONTINUOUS
 10
362.469788
 20
357.567383
 40
2.500000
 50
0.000000
 51
90.000000
  0
ARC
  8
0
  6
CONTINUOUS
 10
363.969788
 20
140.589691
 40
1.000000
 50
0.000000
 51
90.000000
  0
ARC
  8
0
  6
CONTINUOUS
 10
367.469788
 20
126.658867
 40
2.500000
 50
180.000000
 51
244.230682
  0
ARC
  8
0
  6
CONTINUOUS
 10
367.469788
 20
115.040421
 40
2.500000
 50
180.000000
 51
268.000000
  0
ARC
  8
0
  6
CONTINUOUS
 10
393.413208
 20
114.134460
 40
2.500000
 50
-115.769325
 51
-92.000000
  0
LINE
  8
0
  6
CONTINUOUS
 10
408.969788
 20
264.567383
 11
408.969788
 21
340.567383
  0
LINE
  8
0
  6
CONTINUOUS
 10
522.969666
 20
264.567413
 11
408.969666
 21
264.567413
  0
LINE
  8
0
  6
CONTINUOUS
 10
522.969666
 20
340.567383
 11
408.969666
 21
340.567383
  0
LINE
  8
0
  6
CONTINUOUS
 10
416.969666
 20
266.567413
 11
416.969666
 21
279.567383
  0
ARC
  8
0
  6
CONTINUOUS
 10
414.969666
 20
266.567383
 40
2.000000
 50
-90.000000
 51
0.000000
  0
ARC
  8
0
  6
CONTINUOUS
 10
414.969666
 20
338.567383
 40
2.000000
 50
0.000000
 51
90.000000
  0
LINE
  8
0
  6
CONTINUOUS
 10
522.969666
 20
279.567383
 11
416.969666
 21
279.567383
  0
LINE
  8
0
  6
CONTINUOUS
 10
522.969666
 20
325.567383
 11
416.969666
 21
325.567383
  0
LINE
  8
0
  6
CONTINUOUS
 10
416.969666
 20
325.567383
 11
416.969666
 21
338.567383
  0
ARC
  8
0
  6
CONTINUOUS
 10
377.800140
 20
302.567383
 40
15.000000
 50
-49.252373
 51
49.252373
  0
LINE
  8
0
  6
CONTINUOUS
 10
365.837952
 20
272.461395
 11
387.591064
 21
291.203522
  0
LINE
  8
0
  6
CONTINUOUS
 10
365.837952
 20
332.673401
 11
387.591064
 21
313.931274
  0
ARC
  8
0
  6
CONTINUOUS
 10
367.469788
 20
270.567413
 40
2.500000
 50
130.747620
 51
180.000000
  0
ARC
  8
0
  6
CONTINUOUS
 10
367.469788
 20
260.616669
 40
2.500000
 50
92.000000
 51
180.000000
  0
ARC
  8
0
  6
CONTINUOUS
 10
367.469788
 20
334.567383
 40
2.500000
 50
180.000000
 51
229.252380
  0
ARC
  8
0
  6
CONTINUOUS
 10
367.469788
 20
344.518127
 40
2.500000
 50
180.000000
 51
268.000000
  0
LINE
  8
0
  6
CONTINUOUS
 10
363.844696
 20
40.935688
 11
356.969788
 21
40.935688
  0
LINE
  8
0
  6
CONTINUOUS
 10
364.969788
 20
29.089687
 11
364.969788
 21
31.138952
  0
ARC
  8
0
  6
CONTINUOUS
 10
362.469788
 20
29.089687
 40
2.500000
 50
-90.000000
 51
0.000000
  0
ARC
  8
0
  6
CONTINUOUS
 10
367.469788
 20
31.138952
 40
2.500000
 50
92.000000
 51
180.000000
  0
ARC
  8
0
  6
CONTINUOUS
 10
65.892502
 20
84.089691
 40
57.500000
 50
236.002823
 51
236.184402
  0
ARC
  8
0
  6
CONTINUOUS
 10
65.892502
 20
84.089691
 40
57.500000
 50
303.815582
 51
303.997162
  0
ARC
  8
0
  6
CONTINUOUS
 10
65.892502
 20
84.089691
 40
57.500000
 50
-33.997124
 51
19.823904
  0
ARC
  8
0
  6
CONTINUOUS
 10
65.892502
 20
84.089691
 40
57.500000
 50
146.593216
 51
213.997131
  0
LINE
  8
0
  6
CENTER
 10
292.219788
 20
166.839691
 11
292.219788
 21
3.339688
  0
LINE
  8
0
  6
CENTER
 10
332.277496
 20
114.589691
 11
246.957504
 21
114.589691
  0
LINE
  8
0
  6
CONTINUOUS
 10
345.219788
 20
9.589688
 11
239.219772
 21
9.589688
  0
LINE
  8
0
  6
CONTINUOUS
 10
310.649170
 20
159.589691
 11
273.790375
 21
159.589691
  0
LINE
  8
0
  6
CONTINUOUS
 10
239.219772
 20
133.979935
 11
239.219772
 21
9.589708
  0
LINE
  8
0
  6
CONTINUOUS
 10
345.219788
 20
34.589687
 11
345.219788
 21
9.589688
  0
LINE
  8
0
  6
CONTINUOUS
 10
356.969788
 20
141.339691
 11
339.346771
 21
141.339691
  0
LINE
  8
0
  6
CONTINUOUS
 10
356.969788
 20
26.839687
 11
350.219788
 21
26.839687
  0
LINE
  8
0
  6
CONTINUOUS
 10
348.969788
 20
38.589687
 11
348.969788
 21
129.589691
  0
LINE
  8
0
  6
CONTINUOUS
 10
241.360779
 20
138.081924
 11
270.931366
 21
158.691666
  0
LINE
  8
0
  6
CONTINUOUS
 10
343.078766
 20
138.081924
 11
313.508179
 21
158.691666
  0
LINE
  8
0
  6
CONTINUOUS
 10
311.281372
 20
21.589687
 11
345.219788
 21
21.589687
  0
LINE
  8
0
  6
CONTINUOUS
 10
305.658173
 20
31.589687
 11
278.781372
 21
31.589687
  0
LINE
  8
0
  6
CONTINUOUS
 10
277.219788
 20
30.152187
 11
277.219788
 21
22.589687
  0
LINE
  8
0
  6
CONTINUOUS
 10
307.219788
 20
29.964687
 11
307.219788
 21
22.589687
  0
LINE
  8
0
  6
CONTINUOUS
 10
309.340973
 20
23.104609
 11
307.598572
 21
30.074768
  0
LINE
  8
0
  6
CONTINUOUS
 10
275.098572
 20
23.104609
 11
276.840973
 21
30.074747
  0
LINE
  8
0
  6
CONTINUOUS
 10
339.219788
 20
20.527187
 11
339.219788
 21
9.589688
  0
LINE
  8
0
  6
CONTINUOUS
 10
245.219772
 20
20.527187
 11
245.219772
 21
9.589688
  0
LINE
  8
0
  6
CENTER
 10
327.219788
 20
25.339687
 11
327.219788
 21
5.339688
  0
LINE
  8
0
  6
CENTER
 10
257.219788
 20
26.339687
 11
257.219788
 21
5.839688
  0
LINE
  8
0
  6
DASHED
 10
332.719788
 20
21.589687
 11
332.719788
 21
9.589688
  0
LINE
  8
0
  6
DASHED
 10
321.719788
 20
21.589687
 11
321.719788
 21
9.589688
  0
LINE
  8
0
  6
DASHED
 10
262.719788
 20
21.589687
 11
262.719788
 21
9.589688
  0
LINE
  8
0
  6
DASHED
 10
251.719772
 20
21.589687
 11
251.719772
 21
9.589688
  0
ARC
  8
0
  6
CONTINUOUS
 10
273.790161
 20
154.589691
 40
5.000000
 50
90.000000
 51
124.875198
  0
ARC
  8
0
  6
CONTINUOUS
 10
310.649170
 20
154.589691
 40
5.000000
 50
55.124401
 51
90.000000
  0
ARC
  8
0
  6
CONTINUOUS
 10
244.219772
 20
133.979935
 40
5.000000
 50
124.875198
 51
180.000000
  0
ARC
  8
0
  6
CONTINUOUS
 10
340.219788
 20
133.979950
 40
5.000000
 50
0.000000
 51
55.124298
  0
LINE
  8
0
  6
CONTINUOUS
 10
356.969788
 20
131.589691
 11
347.219788
 21
131.589691
  0
LINE
  8
0
  6
CONTINUOUS
 10
350.969788
 20
36.589687
 11
356.969788
 21
36.589687
  0
LINE
  8
0
  6
CONTINUOUS
 10
356.969788
 20
116.049690
 11
350.094788
 21
116.049690
  0
LINE
  8
0
  6
CONTINUOUS
 10
356.969788
 20
52.129688
 11
349.969788
 21
52.129688
  0
ARC
  8
0
  6
CONTINUOUS
 10
339.346771
 20
144.339691
 40
3.000000
 50
-124.875397
 51
-90.000000
  0
ARC
  8
0
  6
CONTINUOUS
 10
350.969788
 20
129.589691
 40
2.000000
 50
90.000000
 51
180.000000
  0
ARC
  8
0
  6
CONTINUOUS
 10
347.219788
 20
133.589691
 40
2.000000
 50
180.000000
 51
270.000000
  0
LINE
  8
0
  6
CONTINUOUS
 10
345.219788
 20
133.979950
 11
345.219788
 21
133.589691
  0
ARC
  8
0
  6
CONTINUOUS
 10
347.219788
 20
34.589687
 40
2.000000
 50
90.000000
 51
180.000000
  0
LINE
  8
0
  6
CONTINUOUS
 10
350.969788
 20
36.589687
 11
347.219788
 21
36.589687
  0
ARC
  8
0
  6
CONTINUOUS
 10
350.969788
 20
38.589687
 40
2.000000
 50
180.000000
 51
270.000000
  0
ARC
  8
0
  6
CONTINUOUS
 10
350.219788
 20
21.839668
 40
5.000000
 50
90.000000
 51
180.000000
  0
ARC
  8
0
  6
CONTINUOUS
 10
278.781372
 20
29.589687
 40
2.000000
 50
90.000000
 51
165.963593
  0
ARC
  8
0
  6
CONTINUOUS
 10
305.658173
 20
29.589687
 40
2.000000
 50
14.036100
 51
90.000000
  0
LINE
  8
0
  6
CONTINUOUS
 10
273.158173
 20
21.589687
 11
239.219772
 21
21.589687
  0
ARC
  8
0
  6
CONTINUOUS
 10
311.281372
 20
23.589687
 40
2.000000
 50
-165.963699
 51
-90.000000
  0
LINE
  8
0
  6
CONTINUOUS
 10
273.158173
 20
21.589687
 11
311.281372
 21
21.589687
  0
ARC
  8
0
  6
CONTINUOUS
 10
273.158173
 20
23.589687
 40
2.000000
 50
-90.000000
 51
-14.036190
  0
ARC
  8
0
  6
CONTINUOUS
 10
308.219788
 20
22.589687
 40
1.000000
 50
180.000000
 51
270.000000
  0
ARC
  8
0
  6
CONTINUOUS
 10
276.219788
 20
22.589687
 40
1.000000
 50
-90.000000
 51
0.000000
  0
LINE
  8
0
  6
CONTINUOUS
 10
242.219772
 20
118.089691
 11
242.219772
 21
74.228996
  0
LINE
  8
0
  6
CONTINUOUS
 10
342.219788
 20
118.950371
 11
342.219788
 21
72.616302
  0
ARC
  8
0
  6
CONTINUOUS
 10
292.219788
 20
96.589699
 40
60.000000
 50
48.189621
 51
131.810394
  0
ARC
  8
0
  6
CONTINUOUS
 10
292.219788
 20
96.589699
 40
60.000000
 50
228.189697
 51
309.631744
  0
ARC
  8
0
  6
CONTINUOUS
 10
312.219788
 20
118.950371
 40
30.000000
 50
0.000000
 51
48.189629
  0
CIRCLE
  8
0
  6
CONTINUOUS
 10
292.219788
 20
114.589691
 40
27.500000
  0
ARC
  8
0
  6
CONTINUOUS
 10
292.219788
 20
114.589691
 40
31.750000
 50
7.552697
 51
172.447403
  0
ARC
  8
0
  6
CONTINUOUS
 10
275.469788
 20
73.089691
 40
20.600000
 50
172.447403
 51
270.000000
  0
ARC
  8
0
  6
CONTINUOUS
 10
308.969788
 20
73.089691
 40
20.600000
 50
-90.000000
 51
7.552700
  0
LINE
  8
0
  6
CONTINUOUS
 10
323.694366
 20
118.762848
 11
329.390961
 21
75.797318
  0
LINE
  8
0
  6
CONTINUOUS
 10
255.048569
 20
75.797279
 11
260.745178
 21
118.762787
  0
LINE
  8
0
  6
CONTINUOUS
 10
275.469788
 20
52.489689
 11
308.969788
 21
52.489689
  0
ARC
  8
0
  6
CONTINUOUS
 10
275.469788
 20
73.089691
 40
19.000000
 50
172.447601
 51
270.000000
  0
ARC
  8
0
  6
CONTINUOUS
 10
308.969788
 20
73.089691
 40
19.000000
 50
-90.000000
 51
7.552700
  0
ARC
  8
0
  6
CONTINUOUS
 10
292.219788
 20
114.589691
 40
30.150000
 50
-187.552597
 51
7.552697
  0
LINE
  8
0
  6
CONTINUOUS
 10
256.634583
 20
75.586983
 11
262.331360
 21
118.552505
  0
LINE
  8
0
  6
CONTINUOUS
 10
322.108185
 20
118.552551
 11
327.804962
 21
75.587013
  0
LINE
  8
0
  6
CONTINUOUS
 10
275.469788
 20
54.089687
 11
308.969788
 21
54.089687
  0
LINE
  8
0
  6
CONTINUOUS
 10
281.923370
 20
61.589687
 11
277.762970
 21
61.589687
  0
LINE
  8
0
  6
CONTINUOUS
 10
284.219788
 20
68.558441
 11
284.219788
 21
61.589687
  0
LINE
  8
0
  6
CONTINUOUS
 10
288.219788
 20
71.089691
 11
288.219788
 21
73.589691
  0
LINE
  8
0
  6
CONTINUOUS
 10
296.219788
 20
71.089691
 11
296.219788
 21
73.589691
  0
LINE
  8
0
  6
CONTINUOUS
 10
291.438568
 20
72.120941
 11
291.438568
 21
62.902187
  0
LINE
  8
0
  6
CONTINUOUS
 10
292.938568
 20
72.120941
 11
292.938568
 21
62.902187
  0
LINE
  8
0
  6
CONTINUOUS
 10
300.813568
 20
72.120941
 11
300.813568
 21
62.839687
  0
LINE
  8
0
  6
CONTINUOUS
 10
302.188568
 20
67.199059
 11
302.188568
 21
62.839687
  0
LINE
  8
0
  6
CONTINUOUS
 10
282.321777
 20
71.995941
 11
278.466766
 21
71.995941
  0
LINE
  8
0
  6
CONTINUOUS
 10
278.466766
 20
71.995941
 11
277.563568
 21
70.875938
  0
LINE
  8
0
  6
CONTINUOUS
 10
277.672180
 20
73.589691
 11
276.219788
 21
71.729935
  0
LINE
  8
0
  6
CONTINUOUS
 10
277.563568
 20
63.962608
 11
278.481171
 21
62.995930
  0
LINE
  8
0
  6
CONTINUOUS
 10
276.219788
 20
63.146847
 11
277.762970
 21
61.589687
  0
LINE
  8
0
  6
CONTINUOUS
 10
276.219788
 20
71.729935
 11
276.219788
 21
63.146847
  0
LINE
  8
0
  6
CONTINUOUS
 10
277.563568
 20
70.875938
 11
277.563568
 21
63.962608
  0
LINE
  8
0
  6
CONTINUOUS
 10
283.063568
 20
71.278839
 11
282.306580
 21
71.995941
  0
LINE
  8
0
  6
CONTINUOUS
 10
283.051575
 20
73.589691
 11
284.219788
 21
72.293198
  0
LINE
  8
0
  6
CONTINUOUS
 10
283.063568
 20
71.089691
 11
284.219788
 21
71.089691
  0
LINE
  8
0
  6
CONTINUOUS
 10
277.672180
 20
73.589691
 11
283.051575
 21
73.589691
  0
LINE
  8
0
  6
CONTINUOUS
 10
280.969788
 20
68.558441
 11
284.219788
 21
68.558441
  0
LINE
  8
0
  6
CONTINUOUS
 10
283.063568
 20
67.245941
 11
280.969788
 21
67.245941
  0
LINE
  8
0
  6
CONTINUOUS
 10
280.563568
 20
62.995930
 11
278.481171
 21
62.995930
  0
LINE
  8
0
  6
CONTINUOUS
 10
283.063568
 20
65.995941
 11
283.063568
 21
66.995941
  0
ARC
  8
0
  6
CONTINUOUS
 10
280.563568
 20
65.495934
 40
2.500000
 50
-89.999786
 51
0.000109
  0
LINE
  8
0
  6
CONTINUOUS
 10
283.063568
 20
62.546249
 11
283.063568
 21
61.589687
  0
LINE
  8
0
  6
CONTINUOUS
 10
284.219788
 20
72.293198
 11
284.219788
 21
71.089691
  0
LINE
  8
0
  6
CONTINUOUS
 10
283.063568
 20
67.245941
 11
283.063568
 21
65.495941
  0
LINE
  8
0
  6
CONTINUOUS
 10
280.969788
 20
68.558441
 11
280.969788
 21
67.245941
  0
LINE
  8
0
  6
CONTINUOUS
 10
283.063568
 20
61.589687
 11
284.219788
 21
61.589687
  0
LINE
  8
0
  6
CONTINUOUS
 10
283.063568
 20
62.546249
 11
281.923370
 21
61.589687
  0
LINE
  8
0
  6
CONTINUOUS
 10
292.938568
 20
62.902187
 11
293.438568
 21
62.902187
  0
LINE
  8
0
  6
CONTINUOUS
 10
290.844788
 20
62.902187
 11
290.844788
 21
61.589687
  0
LINE
  8
0
  6
CONTINUOUS
 10
293.438568
 20
62.902187
 11
293.438568
 21
61.589687
  0
LINE
  8
0
  6
CONTINUOUS
 10
295.385376
 20
71.089691
 11
296.219788
 21
71.089691
  0
LINE
  8
0
  6
CONTINUOUS
 10
288.219788
 20
71.089691
 11
289.107788
 21
71.089691
  0
LINE
  8
0
  6
CONTINUOUS
 10
288.219788
 20
73.589691
 11
296.219788
 21
73.589691
  0
LINE
  8
0
  6
CONTINUOUS
 10
290.844788
 20
61.589687
 11
293.438568
 21
61.589687
  0
LINE
  8
0
  6
CONTINUOUS
 10
290.844788
 20
62.902187
 11
291.438568
 21
62.902187
  0
ARC
  8
0
  6
CONTINUOUS
 10
305.016571
 20
70.386559
 40
3.203126
 50
-73.981873
 51
90.003510
  0
ARC
  8
0
  6
CONTINUOUS
 10
305.016571
 20
70.386559
 40
1.954124
 50
-82.585274
 51
62.411850
  0
LINE
  8
0
  6
CONTINUOUS
 10
300.219788
 20
73.589691
 11
305.016571
 21
73.589691
  0
LINE
  8
0
  6
CONTINUOUS
 10
305.268768
 20
68.448776
 11
302.188568
 21
68.448776
  0
LINE
  8
0
  6
CONTINUOUS
 10
300.219788
 20
73.589691
 11
300.219788
 21
72.120941
  0
LINE
  8
0
  6
CONTINUOUS
 10
302.188568
 20
72.120941
 11
302.188568
 21
68.448776
  0
LINE
  8
0
  6
CONTINUOUS
 10
305.900574
 20
67.307800
 11
307.882965
 21
62.839687
  0
LINE
  8
0
  6
CONTINUOUS
 10
304.748962
 20
67.199059
 11
306.625183
 21
62.839687
  0
LINE
  8
0
  6
CONTINUOUS
 10
300.219788
 20
62.839687
 11
300.813568
 21
62.839687
  0
LINE
  8
0
  6
CONTINUOUS
 10
302.188568
 20
62.839687
 11
302.735382
 21
62.839687
  0
LINE
  8
0
  6
CONTINUOUS
 10
302.735382
 20
61.589687
 11
300.219788
 21
61.589687
  0
LINE
  8
0
  6
CONTINUOUS
 10
306.375977
 20
62.839687
 11
306.625183
 21
62.839687
  0
LINE
  8
0
  6
CONTINUOUS
 10
306.375977
 20
61.589687
 11
308.219788
 21
61.589687
  0
LINE
  8
0
  6
CONTINUOUS
 10
306.375977
 20
62.839687
 11
306.375977
 21
61.589687
  0
LINE
  8
0
  6
CONTINUOUS
 10
302.735382
 20
62.839687
 11
302.735382
 21
61.589687
  0
LINE
  8
0
  6
CONTINUOUS
 10
300.219788
 20
62.839687
 11
300.219788
 21
61.589687
  0
LINE
  8
0
  6
CONTINUOUS
 10
289.537567
 20
72.120941
 11
289.107788
 21
71.089691
  0
LINE
  8
0
  6
CONTINUOUS
 10
295.022980
 20
72.120941
 11
295.385376
 21
71.089691
  0
LINE
  8
0
  6
CONTINUOUS
 10
292.938568
 20
72.120941
 11
295.022980
 21
72.120941
  0
LINE
  8
0
  6
CONTINUOUS
 10
291.438568
 20
72.120941
 11
289.537567
 21
72.120941
  0
LINE
  8
0
  6
CONTINUOUS
 10
302.188568
 20
67.199059
 11
304.748962
 21
67.199059
  0
LINE
  8
0
  6
CONTINUOUS
 10
300.219788
 20
72.120941
 11
300.813568
 21
72.120941
  0
LINE
  8
0
  6
CONTINUOUS
 10
302.188568
 20
72.120941
 11
305.921570
 21
72.118515
  0
LINE
  8
0
  6
CONTINUOUS
 10
283.063568
 20
71.278839
 11
283.063568
 21
71.089691
  0
ARC
  8
0
  6
CONTINUOUS
 10
272.219788
 20
118.950386
 40
30.000000
 50
131.810394
 51
181.671204
  0
ARC
  8
0
  6
CONTINUOUS
 10
312.219788
 20
74.228996
 40
30.043320
 50
307.456360
 51
356.922760
  0
ARC
  8
0
  6
CONTINUOUS
 10
272.219788
 20
74.228996
 40
30.000000
 50
180.000000
 51
228.189697
  0
LINE
  8
0
  6
CONTINUOUS
 10
284.719788
 20
117.589691
 11
284.719788
 21
111.589691
  0
LINE
  8
0
  6
CONTINUOUS
 10
278.719788
 20
117.589691
 11
278.719788
 21
111.589691
  0
LINE
  8
0
  6
CONTINUOUS
 10
278.719788
 20
117.589691
 11
284.719788
 21
117.589691
  0
LINE
  8
0
  6
CONTINUOUS
 10
278.719788
 20
111.589691
 11
284.719788
 21
111.589691
  0
ARC
  8
0
  6
CONTINUOUS
 10
292.219788
 20
114.589691
 40
11.000000
 50
-164.173401
 51
164.173401
  0
LINE
  8
0
  6
CONTINUOUS
 10
356.969788
 20
141.589584
 11
356.969788
 21
26.589788
  0
LINE
  8
0
  6
CONTINUOUS
 10
522.969666
 20
340.567383
 11
522.969666
 21
309.433411
  0
LINE
  8
0
  6
CONTINUOUS
 10
522.969666
 20
340.567383
 11
532.469666
 21
340.567383
  0
LINE
  8
0
  6
CONTINUOUS
 10
522.969666
 20
264.567383
 11
532.469666
 21
264.567383
  0
LINE
  8
0
  6
CONTINUOUS
 10
522.969666
 20
279.567383
 11
532.469666
 21
279.567383
  0
LINE
  8
0
  6
CONTINUOUS
 10
522.969666
 20
325.567383
 11
532.469666
 21
325.567383
  0
LINE
  8
0
  6
CONTINUOUS
 10
529.469666
 20
296.567383
 11
529.469666
 21
308.567383
  0
LINE
  8
0
  6
CONTINUOUS
 10
522.469666
 20
296.567383
 11
522.469666
 21
308.567383
  0
LINE
  8
0
  6
CONTINUOUS
 10
528.469666
 20
309.567383
 11
523.469666
 21
309.567383
  0
LINE
  8
0
  6
CONTINUOUS
 10
523.469666
 20
295.567383
 11
528.469666
 21
295.567383
  0
ARC
  8
0
  6
CONTINUOUS
 10
523.469666
 20
308.567383
 40
1.000000
 50
90.000000
 51
180.000000
  0
ARC
  8
0
  6
CONTINUOUS
 10
528.469666
 20
308.567383
 40
1.000000
 50
0.000000
 51
90.000000
  0
ARC
  8
0
  6
CONTINUOUS
 10
528.469666
 20
296.567383
 40
1.000000
 50
-90.000000
 51
0.000000
  0
ARC
  8
0
  6
CONTINUOUS
 10
523.469666
 20
296.567383
 40
1.000000
 50
180.000000
 51
270.000000
  0
LINE
  8
0
  6
CONTINUOUS
 10
524.969666
 20
299.067383
 11
524.969666
 21
306.067383
  0
LINE
  8
0
  6
CONTINUOUS
 10
526.969666
 20
299.067383
 11
526.969666
 21
306.067383
  0
ARC
  8
0
  6
CONTINUOUS
 10
525.969666
 20
306.067383
 40
1.000000
 50
0.000000
 51
90.000000
  0
ARC
  8
0
  6
CONTINUOUS
 10
525.969666
 20
306.067383
 40
1.000000
 50
90.000000
 51
180.000000
  0
ARC
  8
0
  6
CONTINUOUS
 10
525.969666
 20
299.067383
 40
1.000000
 50
-90.000000
 51
0.000000
  0
ARC
  8
0
  6
CONTINUOUS
 10
525.969666
 20
299.067383
 40
1.000000
 50
180.000000
 51
270.000000
  0
LINE
  8
0
  6
CONTINUOUS
 10
522.969666
 20
295.701355
 11
522.969666
 21
264.567383
  0
LINE
  8
0
  6
CONTINUOUS
 10
532.469666
 20
262.567383
 11
532.469666
 21
342.567383
  0
LINE
  8
0
  6
CONTINUOUS
 10
576.469666
 20
342.567383
 11
532.469666
 21
342.567383
  0
LINE
  8
0
  6
CONTINUOUS
 10
576.469666
 20
262.567383
 11
532.469666
 21
262.567383
  0
LINE
  8
0
  6
CONTINUOUS
 10
581.469666
 20
267.567383
 11
581.469666
 21
337.567383
  0
ARC
  8
0
  6
CONTINUOUS
 10
576.469666
 20
337.567383
 40
5.000000
 50
0.000000
 51
90.000000
  0
ARC
  8
0
  6
CONTINUOUS
 10
576.469666
 20
267.567383
 40
5.000000
 50
-90.000000
 51
0.000000
  0
LINE
  8
0
  6
CONTINUOUS
 10
578.969666
 20
326.567383
 11
532.469666
 21
326.567383
  0
LINE
  8
0
  6
CONTINUOUS
 10
578.969666
 20
276.567383
 11
532.469666
 21
276.567383
  0
LINE
  8
0
  6
CONTINUOUS
 10
532.469788
 20
111.089668
 11
522.969788
 21
111.089668
  0
LINE
  8
0
  6
CONTINUOUS
 10
532.469788
 20
35.089668
 11
522.969788
 21
35.089668
  0
LINE
  8
0
  6
CONTINUOUS
 10
532.469788
 20
33.089668
 11
532.469788
 21
113.089668
  0
LINE
  8
0
  6
CONTINUOUS
 10
522.469788
 20
112.589668
 11
522.469788
 21
111.089668
  0
LINE
  8
0
  6
CONTINUOUS
 10
529.469788
 20
112.589668
 11
529.469788
 21
111.089668
  0
LINE
  8
0
  6
CONTINUOUS
 10
529.469788
 20
112.589668
 11
522.469788
 21
112.589668
  0
LINE
  8
0
  6
CONTINUOUS
 10
525.069824
 20
125.589668
 11
525.069824
 21
112.589668
  0
LINE
  8
0
  6
CONTINUOUS
 10
526.869751
 20
126.214668
 11
526.869751
 21
112.589668
  0
LINE
  8
0
  6
CONTINUOUS
 10
528.669800
 20
124.152168
 11
528.669800
 21
112.589668
  0
LINE
  8
0
  6
CONTINUOUS
 10
523.269775
 20
124.964668
 11
523.269775
 21
112.589668
  0
LINE
  8
0
  6
CONTINUOUS
 10
526.869751
 20
126.214668
 11
525.069824
 21
125.589668
  0
LINE
  8
0
  6
CONTINUOUS
 10
528.669800
 20
124.152168
 11
526.869751
 21
124.777168
  0
LINE
  8
0
  6
CONTINUOUS
 10
523.269775
 20
124.964668
 11
525.068787
 21
124.516968
  0
LINE
  8
0
  6
CONTINUOUS
 10
532.469788
 20
103.338669
 11
522.969788
 21
103.338669
  0
LINE
  8
0
  6
CONTINUOUS
 10
532.469788
 20
42.840668
 11
522.969788
 21
42.840668
  0
LINE
  8
0
  6
CONTINUOUS
 10
576.469788
 20
113.089668
 11
532.469788
 21
113.089668
  0
LINE
  8
0
  6
CONTINUOUS
 10
576.469788
 20
33.089668
 11
532.469788
 21
33.089668
  0
LINE
  8
0
  6
CONTINUOUS
 10
581.469788
 20
38.089668
 11
581.469788
 21
108.089668
  0
ARC
  8
0
  6
CONTINUOUS
 10
576.469788
 20
108.089668
 40
5.000000
 50
0.000000
 51
90.000000
  0
ARC
  8
0
  6
CONTINUOUS
 10
576.469788
 20
38.089668
 40
5.000000
 50
-90.000000
 51
0.000000
  0
LINE
  8
0
  6
CONTINUOUS
 10
578.969788
 20
99.089668
 11
532.469788
 21
99.089668
  0
LINE
  8
0
  6
CONTINUOUS
 10
578.969788
 20
49.089668
 11
532.469788
 21
49.089668
  0
LINE
  8
0
  6
CONTINUOUS
 10
522.969788
 20
35.089687
 11
522.969788
 21
111.089668
  0
LINE
  8
0
  6
CONTINUOUS
 10
364.969788
 20
63.689690
 11
408.969788
 21
63.689690
  0
LINE
  8
0
  6
CONTINUOUS
 10
364.969788
 20
53.489689
 11
408.969788
 21
53.489689
  0
TEXT
  8
0
 10
-19.000000
 20
-6.000000
 40
4.000000
 41
1.000000
  1
HLM-22L-300~450-S60W
 50
0.000000
  0
ENDSEC
  0
EOF
