  0
SECTION
  2
HEADER
  9
$CLAYER
  8
1
  9
$LTSCALE
 40
3.0
  0
ENDSEC
  0
SECTION
  2
TABLES
  0
TABLE
  2
LTYPE
 70
     4
  0
LTYPE
  2
CONTINUOUS
  3
solid line
 70
    64
 72
    65
 73
     0
 40
0.0
  0
LTYPE
  2
DASHED
  3
__ __ __ __ __ __ __ __ __ __ __ __ __ __ __
 70
    64
 72
    65
 73
     2
 40
0.75
 49
0.5
 49
-0.25
  0
LTYPE
  2
CENTER
  3
____ _ ____ _ ____ _ ____ _ ____ _ ____ _ ____
 70
    64
 72
    65
 73
     4
 40
2.0
 49
1.25
 49
-0.25
 49
0.25
 49
-0.25
  0
LTYPE
  2
PHANTOM
  3
_____ _ _ _____ _ _ _____ _ _ _____ _ _ ____
 70
    64
 72
    65
 73
     6
 40
2.5
 49
1.25
 49
-0.25
 49
0.25
 49
-0.25
 49
0.25
 49
-0.25
  0
ENDTAB
  0
TABLE
  2
LAYER
 70
     1
  0
LAYER
  2
0
 70
    64
 62
     7
  6
CONTINUOUS
  0
ENDTAB
  0
TABLE
  2
STYLE
 70
     1
  0
STYLE
  2
STANDARD
 70
     0
 40
0.000000
 41
1.000000
 50
0.000000
 71
     0
 42
3.000000
  3
txt
  4
BIGFONT
  0
ENDTAB
  0
ENDSEC
  0
SECTION
  2
BLOCKS
  0
ENDSEC
  0
SECTION
  2
ENTITIES
  0
LINE
  8
0
  6
CENTER
 10
438.751251
 20
81.519691
 11
319.914795
 21
81.519691
  0
LINE
  8
0
  6
CONTINUOUS
 10
518.664795
 20
32.519707
 11
518.664795
 21
108.519691
  0
LINE
  8
0
  6
CONTINUOUS
 10
518.664795
 20
108.519669
 11
404.664795
 21
108.519669
  0
LINE
  8
0
  6
CONTINUOUS
 10
518.664795
 20
32.519707
 11
404.664795
 21
32.519707
  0
LINE
  8
0
  6
CONTINUOUS
 10
518.664795
 20
100.768669
 11
412.664795
 21
100.768669
  0
LINE
  8
0
  6
CONTINUOUS
 10
518.664795
 20
40.270706
 11
412.664795
 21
40.270706
  0
LINE
  8
0
  6
CONTINUOUS
 10
412.664795
 20
106.519669
 11
412.664795
 21
34.519688
  0
ARC
  8
0
  6
CONTINUOUS
 10
410.664795
 20
106.519691
 40
2.000000
 50
0.000000
 51
90.000000
  0
ARC
  8
0
  6
CONTINUOUS
 10
410.664795
 20
34.519707
 40
2.000000
 50
-90.000000
 51
0.000000
  0
LINE
  8
0
  6
CONTINUOUS
 10
539.164795
 20
38.519688
 11
539.164795
 21
102.519691
  0
LINE
  8
0
  6
CONTINUOUS
 10
535.200684
 20
108.519691
 11
518.664795
 21
108.519691
  0
LINE
  8
0
  6
CONTINUOUS
 10
535.200684
 20
32.519688
 11
518.664795
 21
32.519688
  0
LINE
  8
0
  6
CONTINUOUS
 10
538.664795
 20
35.519688
 11
538.664795
 21
105.519691
  0
LINE
  8
0
  6
CONTINUOUS
 10
539.164795
 20
102.519691
 11
538.664795
 21
103.019691
  0
LINE
  8
0
  6
CONTINUOUS
 10
539.164795
 20
38.519688
 11
538.664795
 21
38.019688
  0
LINE
  8
0
  6
CONTINUOUS
 10
537.798767
 20
107.019669
 11
538.664795
 21
105.519691
  0
ARC
  8
0
  6
CONTINUOUS
 10
535.200684
 20
105.519707
 40
3.000000
 50
29.999599
 51
90.000000
  0
LINE
  8
0
  6
CONTINUOUS
 10
537.798767
 20
34.019707
 11
538.664795
 21
35.519688
  0
ARC
  8
0
  6
CONTINUOUS
 10
535.200684
 20
35.519688
 40
3.000000
 50
270.000000
 51
330.000397
  0
LINE
  8
0
  6
CONTINUOUS
 10
537.083130
 20
100.768700
 11
518.664795
 21
100.768700
  0
LINE
  8
0
  6
CONTINUOUS
 10
518.664795
 20
40.270687
 11
537.083130
 21
40.270687
  0
LINE
  8
0
  6
CONTINUOUS
 10
518.164795
 20
110.019691
 11
518.164795
 21
108.519691
  0
LINE
  8
0
  6
CONTINUOUS
 10
525.164795
 20
110.019691
 11
525.164795
 21
108.519691
  0
LINE
  8
0
  6
CONTINUOUS
 10
525.164795
 20
110.019691
 11
518.164795
 21
110.019691
  0
LINE
  8
0
  6
CONTINUOUS
 10
520.764771
 20
123.019691
 11
520.764771
 21
110.019691
  0
LINE
  8
0
  6
CONTINUOUS
 10
522.564758
 20
123.644691
 11
522.564758
 21
110.019691
  0
LINE
  8
0
  6
CONTINUOUS
 10
524.364807
 20
121.582191
 11
524.364807
 21
110.019691
  0
LINE
  8
0
  6
CONTINUOUS
 10
518.964783
 20
122.394691
 11
518.964783
 21
110.019691
  0
LINE
  8
0
  6
CONTINUOUS
 10
522.564758
 20
123.644691
 11
520.764771
 21
123.019691
  0
LINE
  8
0
  6
CONTINUOUS
 10
524.364807
 20
121.582191
 11
522.564758
 21
122.207191
  0
LINE
  8
0
  6
CONTINUOUS
 10
518.964783
 20
122.394691
 11
520.763794
 21
121.946991
  0
LINE
  8
0
  6
CENTER
 10
61.587502
 20
-8.605333
 11
61.587502
 21
170.944687
  0
LINE
  8
0
  6
CENTER
 10
-8.637500
 20
81.519691
 11
130.487503
 21
81.519691
  0
LINE
  8
0
  6
CENTER
 10
2.590469
 20
112.019691
 11
164.837494
 21
112.019691
  0
LINE
  8
0
  6
CONTINUOUS
 10
3.587500
 20
7.019687
 11
36.587502
 21
7.019687
  0
LINE
  8
0
  6
CONTINUOUS
 10
3.587500
 20
17.646088
 11
3.587500
 21
7.019687
  0
LINE
  8
0
  6
CONTINUOUS
 10
119.587502
 20
17.646088
 11
119.587502
 21
7.019687
  0
LINE
  8
0
  6
CONTINUOUS
 10
5.587500
 20
19.019688
 11
26.587500
 21
19.019688
  0
LINE
  8
0
  6
CONTINUOUS
 10
117.587502
 20
19.019688
 11
96.587502
 21
19.019688
  0
LINE
  8
0
  6
CONTINUOUS
 10
29.587500
 20
30.393288
 11
29.587500
 21
154.495605
  0
LINE
  8
0
  6
CONTINUOUS
 10
93.587502
 20
30.393288
 11
93.587502
 21
154.495972
  0
LINE
  8
0
  6
CONTINUOUS
 10
91.622299
 20
156.495667
 11
61.587502
 21
157.019684
  0
LINE
  8
0
  6
CONTINUOUS
 10
31.552500
 20
156.495331
 11
61.587502
 21
157.019684
  0
ARC
  8
0
  6
CONTINUOUS
 10
31.587500
 20
154.495621
 40
2.000000
 50
91.000580
 51
180.000000
  0
ARC
  8
0
  6
CONTINUOUS
 10
91.587502
 20
154.495972
 40
2.000000
 50
0.000000
 51
89.000519
  0
LINE
  8
0
  6
CONTINUOUS
 10
93.587502
 20
22.019688
 11
93.587502
 21
7.019687
  0
ARC
  8
0
  6
CONTINUOUS
 10
96.587502
 20
22.019688
 40
3.000000
 50
180.000000
 51
270.000000
  0
LINE
  8
0
  6
CONTINUOUS
 10
29.587500
 20
22.019688
 11
29.587500
 21
7.019687
  0
ARC
  8
0
  6
CONTINUOUS
 10
26.587500
 20
22.019667
 40
3.000000
 50
-90.000000
 51
0.000000
  0
ARC
  8
0
  6
CONTINUOUS
 10
5.587500
 20
17.019688
 40
2.000000
 50
90.000000
 51
180.000000
  0
ARC
  8
0
  6
CONTINUOUS
 10
117.587502
 20
17.019688
 40
2.000000
 50
0.000000
 51
90.000000
  0
LINE
  8
0
  6
CENTER
 10
16.587500
 20
23.309689
 11
16.587500
 21
2.909688
  0
LINE
  8
0
  6
CENTER
 10
106.587502
 20
24.329687
 11
106.587502
 21
2.399687
  0
LINE
  8
0
  6
CONTINUOUS
 10
28.305500
 20
28.526608
 11
4.869500
 21
19.512789
  0
ARC
  8
0
  6
CONTINUOUS
 10
5.587500
 20
17.646107
 40
2.000000
 50
111.037903
 51
180.000000
  0
LINE
  8
0
  6
CONTINUOUS
 10
29.587500
 20
30.393288
 11
29.587500
 21
22.019688
  0
ARC
  8
0
  6
CONTINUOUS
 10
27.587500
 20
30.393288
 40
2.000000
 50
-68.962189
 51
0.000000
  0
LINE
  8
0
  6
CONTINUOUS
 10
94.869499
 20
28.526588
 11
118.305496
 21
19.512789
  0
ARC
  8
0
  6
CONTINUOUS
 10
117.587502
 20
17.646088
 40
2.000000
 50
0.000000
 51
68.962646
  0
LINE
  8
0
  6
CONTINUOUS
 10
93.587502
 20
30.393288
 11
93.587502
 21
22.019688
  0
ARC
  8
0
  6
CONTINUOUS
 10
95.587502
 20
30.393309
 40
2.000000
 50
180.000000
 51
248.962799
  0
LINE
  8
0
  6
CONTINUOUS
 10
13.587500
 20
86.826836
 11
13.587500
 21
137.212524
  0
LINE
  8
0
  6
CONTINUOUS
 10
109.587502
 20
86.826843
 11
109.587502
 21
137.212524
  0
LINE
  8
0
  6
CONTINUOUS
 10
99.587502
 20
53.824528
 11
99.587502
 21
114.089691
  0
LINE
  8
0
  6
CONTINUOUS
 10
23.587500
 20
53.824528
 11
23.587500
 21
114.089691
  0
LINE
  8
0
  6
CONTINUOUS
 10
107.357697
 20
140.111984
 11
95.817299
 21
143.177383
  0
LINE
  8
0
  6
CONTINUOUS
 10
107.357697
 20
83.927383
 11
101.817299
 21
82.455734
  0
LINE
  8
0
  6
CONTINUOUS
 10
97.360497
 20
50.925827
 11
95.814499
 21
50.513546
  0
LINE
  8
0
  6
CONTINUOUS
 10
25.814501
 20
50.925808
 11
27.360500
 21
50.513546
  0
LINE
  8
0
  6
CONTINUOUS
 10
15.817300
 20
83.927383
 11
21.357700
 21
82.455734
  0
LINE
  8
0
  6
CONTINUOUS
 10
15.817300
 20
140.111984
 11
27.357700
 21
143.177383
  0
ARC
  8
0
  6
CONTINUOUS
 10
16.587500
 20
137.212540
 40
3.000000
 50
104.876099
 51
180.000000
  0
ARC
  8
0
  6
CONTINUOUS
 10
16.587500
 20
86.826859
 40
3.000000
 50
180.000000
 51
255.124603
  0
ARC
  8
0
  6
CONTINUOUS
 10
106.587502
 20
137.212524
 40
3.000000
 50
0.000000
 51
75.124413
  0
ARC
  8
0
  6
CONTINUOUS
 10
106.587502
 20
86.826836
 40
3.000000
 50
-75.124207
 51
0.000000
  0
ARC
  8
0
  6
CONTINUOUS
 10
26.587500
 20
53.824547
 40
3.000000
 50
180.000000
 51
255.069000
  0
ARC
  8
0
  6
CONTINUOUS
 10
96.587502
 20
53.824528
 40
3.000000
 50
-75.068420
 51
0.000000
  0
ARC
  8
0
  6
CONTINUOUS
 10
96.587502
 20
146.076874
 40
3.000000
 50
180.000000
 51
255.124603
  0
ARC
  8
0
  6
CONTINUOUS
 10
102.587502
 20
79.556297
 40
3.000000
 50
104.876099
 51
180.000000
  0
ARC
  8
0
  6
CONTINUOUS
 10
96.587502
 20
47.614868
 40
3.000000
 50
104.931801
 51
180.000000
  0
ARC
  8
0
  6
CONTINUOUS
 10
26.587500
 20
47.614849
 40
3.000000
 50
0.000000
 51
75.068779
  0
ARC
  8
0
  6
CONTINUOUS
 10
20.587500
 20
79.556267
 40
3.000000
 50
0.000000
 51
75.124496
  0
ARC
  8
0
  6
CONTINUOUS
 10
26.587500
 20
146.076828
 40
3.000000
 50
-75.124153
 51
0.000000
  0
LINE
  8
0
  6
DASHED
 10
11.087500
 20
19.019688
 11
11.087500
 21
7.019687
  0
LINE
  8
0
  6
DASHED
 10
22.087500
 20
19.019688
 11
22.087500
 21
7.019687
  0
LINE
  8
0
  6
DASHED
 10
101.087502
 20
19.019688
 11
101.087502
 21
7.019687
  0
LINE
  8
0
  6
DASHED
 10
112.087502
 20
19.019688
 11
112.087502
 21
7.019687
  0
LINE
  8
0
  6
CONTINUOUS
 10
31.817499
 20
134.019684
 11
91.487503
 21
134.019684
  0
LINE
  8
0
  6
CONTINUOUS
 10
14.087500
 20
39.019688
 11
14.087500
 21
48.071030
  0
LINE
  8
0
  6
CONTINUOUS
 10
109.087502
 20
39.019688
 11
109.087502
 21
48.071030
  0
LINE
  8
0
  6
CONTINUOUS
 10
19.087500
 20
34.019688
 11
28.118700
 21
34.019688
  0
LINE
  8
0
  6
CONTINUOUS
 10
104.087502
 20
34.019688
 11
95.036102
 21
34.019688
  0
ARC
  8
0
  6
CONTINUOUS
 10
61.587502
 20
81.519691
 40
57.250000
 50
-32.501888
 51
19.914110
  0
ARC
  8
0
  6
CONTINUOUS
 10
61.587502
 20
81.519691
 40
57.250000
 50
146.974487
 51
212.501907
  0
ARC
  8
0
  6
CONTINUOUS
 10
19.087500
 20
39.019688
 40
5.000000
 50
180.000000
 51
270.000000
  0
ARC
  8
0
  6
CONTINUOUS
 10
104.087502
 20
39.019688
 40
5.000000
 50
-90.000000
 51
0.000000
  0
ARC
  8
0
  6
CONTINUOUS
 10
28.138901
 20
29.019688
 40
5.000000
 50
73.928284
 51
90.230461
  0
ARC
  8
0
  6
CONTINUOUS
 10
95.036102
 20
29.019688
 40
5.000000
 50
90.000000
 51
106.071800
  0
ARC
  8
0
  6
CONTINUOUS
 10
9.087500
 20
48.071030
 40
5.000000
 50
0.000000
 51
32.499691
  0
ARC
  8
0
  6
CONTINUOUS
 10
114.087502
 20
48.071030
 40
5.000000
 50
147.498306
 51
180.000000
  0
LINE
  8
0
  6
CONTINUOUS
 10
95.587502
 20
32.519688
 11
93.587502
 21
32.519688
  0
LINE
  8
0
  6
CONTINUOUS
 10
27.587500
 20
32.519688
 11
29.587500
 21
32.519688
  0
ARC
  8
0
  6
CONTINUOUS
 10
95.587502
 20
36.519688
 40
4.000000
 50
270.000000
 51
322.311005
  0
ARC
  8
0
  6
CONTINUOUS
 10
27.587500
 20
36.519688
 40
4.000000
 50
218.645996
 51
270.000000
  0
LINE
  8
0
  6
CONTINUOUS
 10
151.587494
 20
101.019691
 11
151.587494
 21
123.019691
  0
LINE
  8
0
  6
CONTINUOUS
 10
111.587502
 20
123.019691
 11
151.587494
 21
123.019691
  0
LINE
  8
0
  6
CONTINUOUS
 10
111.587502
 20
101.019691
 11
151.587494
 21
101.019691
  0
LINE
  8
0
  6
CONTINUOUS
 10
111.587502
 20
124.519691
 11
111.587502
 21
99.519691
  0
LINE
  8
0
  6
CONTINUOUS
 10
109.587502
 20
124.519691
 11
111.587502
 21
124.519691
  0
LINE
  8
0
  6
CONTINUOUS
 10
109.587502
 20
99.519691
 11
111.587502
 21
99.519691
  0
ARC
  8
0
  6
CONTINUOUS
 10
119.587502
 20
112.019691
 40
3.000000
 50
90.000000
 51
270.000000
  0
LINE
  8
0
  6
CONTINUOUS
 10
119.587502
 20
115.019691
 11
151.587494
 21
115.019691
  0
LINE
  8
0
  6
CONTINUOUS
 10
119.587502
 20
109.019691
 11
151.587494
 21
109.019691
  0
LINE
  8
0
  6
CENTER
 10
551.239807
 20
70.519691
 11
319.914795
 21
70.519691
  0
LINE
  8
0
  6
CONTINUOUS
 10
363.077545
 20
109.971947
 11
404.664795
 21
108.519691
  0
LINE
  8
0
  6
CONTINUOUS
 10
352.664795
 20
30.703808
 11
404.664795
 21
32.519688
  0
LINE
  8
0
  6
CONTINUOUS
 10
360.664795
 20
138.019684
 11
360.664795
 21
111.019691
  0
LINE
  8
0
  6
CONTINUOUS
 10
359.664795
 20
139.019684
 11
352.664764
 21
139.019684
  0
LINE
  8
0
  6
CONTINUOUS
 10
358.164795
 20
24.019688
 11
352.664795
 21
24.019688
  0
LINE
  8
0
  6
CONTINUOUS
 10
360.664795
 20
111.519691
 11
360.664795
 21
40.607033
  0
LINE
  8
0
  6
CONTINUOUS
 10
404.664795
 20
108.519691
 11
404.664795
 21
32.519688
  0
LINE
  8
0
  6
CONTINUOUS
 10
362.077911
 20
121.837494
 11
388.021332
 21
109.313080
  0
LINE
  8
0
  6
CENTER
 10
287.914764
 20
203.795700
 11
287.914764
 21
368.377502
  0
LINE
  8
0
  6
CENTER
 10
550.611389
 20
299.997406
 11
218.575317
 21
299.997406
  0
LINE
  8
0
  6
CONTINUOUS
 10
339.132782
 20
267.997406
 11
240.386826
 21
267.997406
  0
LINE
  8
0
  6
CONTINUOUS
 10
339.132782
 20
331.997406
 11
240.386826
 21
331.997406
  0
LINE
  8
0
  6
CONTINUOUS
 10
244.976669
 20
241.997391
 11
274.414764
 21
241.997391
  0
LINE
  8
0
  6
CONTINUOUS
 10
330.852875
 20
357.997406
 11
287.914764
 21
357.997406
  0
LINE
  8
0
  6
CONTINUOUS
 10
234.914780
 20
299.997406
 11
235.473343
 21
267.997406
  0
LINE
  8
0
  6
CONTINUOUS
 10
240.082703
 20
245.973160
 11
235.473343
 21
267.997406
  0
ARC
  8
0
  6
CONTINUOUS
 10
244.976669
 20
246.997391
 40
5.000000
 50
191.820602
 51
270.000000
  0
LINE
  8
0
  6
CONTINUOUS
 10
234.914780
 20
299.997406
 11
235.473343
 21
331.997406
  0
LINE
  8
0
  6
CONTINUOUS
 10
240.082703
 20
354.021637
 11
235.473343
 21
331.997406
  0
ARC
  8
0
  6
CONTINUOUS
 10
244.976669
 20
352.997406
 40
5.000000
 50
90.000000
 51
168.179398
  0
LINE
  8
0
  6
CONTINUOUS
 10
267.914764
 20
329.997406
 11
267.914764
 21
269.997406
  0
LINE
  8
0
  6
CONTINUOUS
 10
307.914764
 20
329.997406
 11
307.914764
 21
269.997406
  0
ARC
  8
0
  6
CONTINUOUS
 10
240.386826
 20
272.997406
 40
5.000000
 50
181.000000
 51
270.000000
  0
ARC
  8
0
  6
CONTINUOUS
 10
240.386826
 20
326.997406
 40
5.000000
 50
90.000000
 51
179.000000
  0
LINE
  8
0
  6
CONTINUOUS
 10
344.588287
 20
354.325928
 11
344.131073
 21
336.866516
  0
LINE
  8
0
  6
CONTINUOUS
 10
352.664764
 20
242.497391
 11
352.664764
 21
357.497406
  0
LINE
  8
0
  6
CONTINUOUS
 10
334.099762
 20
281.997406
 11
334.099762
 21
317.997406
  0
LINE
  8
0
  6
CONTINUOUS
 10
352.664764
 20
242.747391
 11
347.587250
 21
242.747391
  0
LINE
  8
0
  6
CONTINUOUS
 10
347.587250
 20
357.247406
 11
352.664764
 21
357.247406
  0
ARC
  8
0
  6
CONTINUOUS
 10
339.132782
 20
336.997406
 40
5.000000
 50
270.000000
 51
358.500000
  0
ARC
  8
0
  6
CONTINUOUS
 10
347.587250
 20
354.247406
 40
3.000000
 50
90.000000
 51
178.500000
  0
LINE
  8
0
  6
CONTINUOUS
 10
344.588287
 20
245.668869
 11
344.131073
 21
263.128296
  0
ARC
  8
0
  6
CONTINUOUS
 10
339.132782
 20
262.997406
 40
5.000000
 50
1.500000
 51
90.000000
  0
ARC
  8
0
  6
CONTINUOUS
 10
347.587250
 20
245.747391
 40
3.000000
 50
-178.500000
 51
-90.000000
  0
LINE
  8
0
  6
CONTINUOUS
 10
335.746857
 20
245.973160
 11
340.325989
 21
267.852936
  0
ARC
  8
0
  6
CONTINUOUS
 10
330.852875
 20
246.997391
 40
5.000000
 50
270.000000
 51
348.179413
  0
LINE
  8
0
  6
CONTINUOUS
 10
335.746857
 20
354.021637
 11
340.325989
 21
332.141846
  0
ARC
  8
0
  6
CONTINUOUS
 10
330.852875
 20
352.997406
 40
5.000000
 50
11.820596
 51
90.000000
  0
LINE
  8
0
  6
CENTER
 10
263.364380
 20
344.997406
 11
242.510208
 21
344.997406
  0
LINE
  8
0
  6
CENTER
 10
252.914780
 20
337.440094
 11
252.914780
 21
354.210938
  0
CIRCLE
  8
0
  6
CONTINUOUS
 10
252.914780
 20
344.997406
 40
5.500000
  0
LINE
  8
0
  6
CENTER
 10
312.465179
 20
344.997406
 11
333.319336
 21
344.997406
  0
LINE
  8
0
  6
CENTER
 10
322.914764
 20
337.440094
 11
322.914764
 21
354.210938
  0
CIRCLE
  8
0
  6
CONTINUOUS
 10
322.914764
 20
344.997406
 40
5.500000
  0
LINE
  8
0
  6
CENTER
 10
263.364380
 20
254.997391
 11
242.510208
 21
254.997391
  0
LINE
  8
0
  6
CENTER
 10
252.914780
 20
262.554688
 11
252.914780
 21
245.783859
  0
CIRCLE
  8
0
  6
CONTINUOUS
 10
252.914780
 20
254.997391
 40
5.500000
  0
LINE
  8
0
  6
CENTER
 10
312.465179
 20
254.997391
 11
333.319336
 21
254.997391
  0
LINE
  8
0
  6
CENTER
 10
322.914764
 20
262.554688
 11
322.914764
 21
245.783859
  0
CIRCLE
  8
0
  6
CONTINUOUS
 10
322.914764
 20
254.997391
 40
5.500000
  0
LINE
  8
0
  6
CONTINUOUS
 10
313.107605
 20
347.997406
 11
262.721924
 21
347.997406
  0
LINE
  8
0
  6
CONTINUOUS
 10
257.758514
 20
337.997406
 11
254.471680
 21
337.997406
  0
ARC
  8
0
  6
CONTINUOUS
 10
262.721924
 20
344.997406
 40
3.000000
 50
90.000000
 51
165.124313
  0
LINE
  8
0
  6
CONTINUOUS
 10
251.572220
 20
335.767578
 11
251.163071
 21
334.227234
  0
ARC
  8
0
  6
CONTINUOUS
 10
254.471680
 20
334.997406
 40
3.000000
 50
90.000000
 51
165.124313
  0
ARC
  8
0
  6
CONTINUOUS
 10
248.263626
 20
334.997406
 40
3.000000
 50
270.000000
 51
345.124329
  0
LINE
  8
0
  6
CONTINUOUS
 10
257.758514
 20
337.997406
 11
259.822479
 21
345.767578
  0
LINE
  8
0
  6
CONTINUOUS
 10
324.257324
 20
335.767578
 11
324.666473
 21
334.227234
  0
ARC
  8
0
  6
CONTINUOUS
 10
321.357880
 20
334.997406
 40
3.000000
 50
14.875682
 51
90.000000
  0
ARC
  8
0
  6
CONTINUOUS
 10
327.565918
 20
334.997406
 40
3.000000
 50
194.875687
 51
270.000000
  0
LINE
  8
0
  6
CONTINUOUS
 10
318.071014
 20
337.997406
 11
321.357880
 21
337.997406
  0
ARC
  8
0
  6
CONTINUOUS
 10
313.107605
 20
344.997406
 40
3.000000
 50
14.875682
 51
90.000000
  0
LINE
  8
0
  6
CONTINUOUS
 10
318.071014
 20
337.997406
 11
316.007080
 21
345.767578
  0
CIRCLE
  8
0
  6
CONTINUOUS
 10
252.914780
 20
254.997391
 40
5.500000
  0
LINE
  8
0
  6
CONTINUOUS
 10
313.107605
 20
251.997391
 11
262.721924
 21
251.997391
  0
LINE
  8
0
  6
CONTINUOUS
 10
257.758514
 20
261.997406
 11
254.471680
 21
261.997406
  0
ARC
  8
0
  6
CONTINUOUS
 10
262.721924
 20
254.997391
 40
3.000000
 50
-165.124313
 51
-90.000000
  0
LINE
  8
0
  6
CONTINUOUS
 10
251.572220
 20
264.227234
 11
251.163071
 21
265.767578
  0
ARC
  8
0
  6
CONTINUOUS
 10
254.471680
 20
264.997406
 40
3.000000
 50
-165.124313
 51
-90.000000
  0
ARC
  8
0
  6
CONTINUOUS
 10
248.263626
 20
264.997406
 40
3.000000
 50
14.875682
 51
90.000000
  0
LINE
  8
0
  6
CONTINUOUS
 10
257.758514
 20
261.997406
 11
259.822479
 21
254.227234
  0
LINE
  8
0
  6
CONTINUOUS
 10
324.257324
 20
264.227234
 11
324.666473
 21
265.767578
  0
ARC
  8
0
  6
CONTINUOUS
 10
321.357880
 20
264.997406
 40
3.000000
 50
270.000000
 51
345.124329
  0
ARC
  8
0
  6
CONTINUOUS
 10
327.565918
 20
264.997406
 40
3.000000
 50
90.000000
 51
165.124313
  0
LINE
  8
0
  6
CONTINUOUS
 10
318.071014
 20
261.997406
 11
321.357880
 21
261.997406
  0
ARC
  8
0
  6
CONTINUOUS
 10
313.107605
 20
254.997391
 40
3.000000
 50
270.000000
 51
345.124329
  0
LINE
  8
0
  6
CONTINUOUS
 10
318.071014
 20
261.997406
 11
316.007080
 21
254.227234
  0
LINE
  8
0
  6
CONTINUOUS
 10
287.914764
 20
357.997406
 11
244.976669
 21
357.997406
  0
LINE
  8
0
  6
CONTINUOUS
 10
298.914764
 20
209.997391
 11
274.414764
 21
209.997391
  0
LINE
  8
0
  6
CONTINUOUS
 10
276.914764
 20
249.997391
 11
276.914764
 21
244.997391
  0
LINE
  8
0
  6
CONTINUOUS
 10
298.914764
 20
249.997391
 11
298.914764
 21
209.997391
  0
LINE
  8
0
  6
CONTINUOUS
 10
275.414764
 20
251.997391
 11
275.414764
 21
249.997391
  0
LINE
  8
0
  6
CONTINUOUS
 10
300.414764
 20
251.997391
 11
300.414764
 21
249.997391
  0
LINE
  8
0
  6
CONTINUOUS
 10
300.414764
 20
249.997391
 11
275.414764
 21
249.997391
  0
LINE
  8
0
  6
CONTINUOUS
 10
274.414764
 20
244.997391
 11
274.414764
 21
209.997391
  0
LINE
  8
0
  6
CONTINUOUS
 10
277.331757
 20
209.997391
 11
277.331757
 21
244.997391
  0
LINE
  8
0
  6
CONTINUOUS
 10
277.331757
 20
244.997391
 11
274.414764
 21
244.997391
  0
LINE
  8
0
  6
CONTINUOUS
 10
298.914764
 20
241.997391
 11
331.031036
 21
241.997391
  0
LINE
  8
0
  6
CONTINUOUS
 10
352.664764
 20
252.497391
 11
347.331940
 21
252.497391
  0
ARC
  8
0
  6
CONTINUOUS
 10
347.331940
 20
255.497391
 40
3.000000
 50
181.500000
 51
270.000000
  0
LINE
  8
0
  6
CONTINUOUS
 10
344.374298
 20
267.997406
 11
352.664764
 21
267.997406
  0
LINE
  8
0
  6
CONTINUOUS
 10
344.374298
 20
331.997406
 11
352.664764
 21
331.997406
  0
LINE
  8
0
  6
CONTINUOUS
 10
352.664764
 20
347.497406
 11
347.331940
 21
347.497406
  0
ARC
  8
0
  6
CONTINUOUS
 10
347.331940
 20
344.497406
 40
3.000000
 50
90.000000
 51
178.500000
  0
LINE
  8
0
  6
CONTINUOUS
 10
37.587502
 20
8.019687
 11
85.587502
 21
8.019687
  0
LINE
  8
0
  6
CONTINUOUS
 10
86.587502
 20
7.019687
 11
85.587502
 21
8.019687
  0
LINE
  8
0
  6
CONTINUOUS
 10
36.587502
 20
7.019687
 11
37.587502
 21
8.019687
  0
LINE
  8
0
  6
CONTINUOUS
 10
86.587502
 20
7.019687
 11
119.587502
 21
7.019687
  0
LINE
  8
0
  6
CONTINUOUS
 10
358.164764
 20
357.497406
 11
352.664764
 21
357.497406
  0
LINE
  8
0
  6
CONTINUOUS
 10
358.164764
 20
242.497391
 11
352.664764
 21
242.497391
  0
LINE
  8
0
  6
CONTINUOUS
 10
360.664764
 20
354.997406
 11
360.664764
 21
244.997391
  0
LINE
  8
0
  6
CONTINUOUS
 10
404.664764
 20
261.997406
 11
404.664764
 21
337.997406
  0
LINE
  8
0
  6
CONTINUOUS
 10
363.077515
 20
260.545135
 11
404.664764
 21
261.997406
  0
LINE
  8
0
  6
CONTINUOUS
 10
363.077515
 20
339.449646
 11
404.664764
 21
337.997406
  0
ARC
  8
0
  6
CONTINUOUS
 10
358.164764
 20
244.997391
 40
2.500000
 50
-90.000000
 51
0.000000
  0
ARC
  8
0
  6
CONTINUOUS
 10
358.164764
 20
354.997406
 40
2.500000
 50
0.000000
 51
90.000000
  0
ARC
  8
0
  6
CONTINUOUS
 10
359.664795
 20
138.019684
 40
1.000000
 50
0.000000
 51
90.000000
  0
ARC
  8
0
  6
CONTINUOUS
 10
363.164795
 20
124.088867
 40
2.500000
 50
180.000000
 51
244.230682
  0
ARC
  8
0
  6
CONTINUOUS
 10
363.164795
 20
112.470421
 40
2.500000
 50
180.000000
 51
268.000000
  0
ARC
  8
0
  6
CONTINUOUS
 10
389.108215
 20
111.564461
 40
2.500000
 50
-115.769325
 51
-92.000000
  0
LINE
  8
0
  6
CONTINUOUS
 10
404.664764
 20
261.997406
 11
404.664764
 21
337.997406
  0
LINE
  8
0
  6
CONTINUOUS
 10
518.664673
 20
337.997375
 11
518.664673
 21
306.863434
  0
LINE
  8
0
  6
CONTINUOUS
 10
518.664673
 20
261.997406
 11
404.664642
 21
261.997406
  0
LINE
  8
0
  6
CONTINUOUS
 10
518.664673
 20
337.997375
 11
404.664642
 21
337.997375
  0
LINE
  8
0
  6
CONTINUOUS
 10
412.664642
 20
263.997406
 11
412.664642
 21
276.997406
  0
ARC
  8
0
  6
CONTINUOUS
 10
410.664642
 20
263.997406
 40
2.000000
 50
-90.000000
 51
0.000000
  0
ARC
  8
0
  6
CONTINUOUS
 10
410.664642
 20
335.997375
 40
2.000000
 50
0.000000
 51
90.000000
  0
LINE
  8
0
  6
CONTINUOUS
 10
539.164673
 20
331.997406
 11
539.164673
 21
267.997406
  0
LINE
  8
0
  6
CONTINUOUS
 10
535.200562
 20
261.997406
 11
518.664673
 21
261.997406
  0
LINE
  8
0
  6
CONTINUOUS
 10
535.200562
 20
337.997406
 11
518.664673
 21
337.997406
  0
LINE
  8
0
  6
CONTINUOUS
 10
538.664673
 20
334.997406
 11
538.664673
 21
264.997406
  0
LINE
  8
0
  6
CONTINUOUS
 10
539.164673
 20
267.997406
 11
538.664673
 21
267.497406
  0
LINE
  8
0
  6
CONTINUOUS
 10
539.164673
 20
331.997406
 11
538.664673
 21
332.497406
  0
LINE
  8
0
  6
CONTINUOUS
 10
537.798645
 20
263.497406
 11
538.664673
 21
264.997406
  0
ARC
  8
0
  6
CONTINUOUS
 10
535.200562
 20
264.997375
 40
3.000000
 50
270.000000
 51
330.000397
  0
LINE
  8
0
  6
CONTINUOUS
 10
537.798645
 20
336.497375
 11
538.664673
 21
334.997406
  0
ARC
  8
0
  6
CONTINUOUS
 10
535.200562
 20
334.997406
 40
3.000000
 50
29.999599
 51
90.000000
  0
LINE
  8
0
  6
CONTINUOUS
 10
518.664673
 20
276.997406
 11
412.664642
 21
276.997406
  0
LINE
  8
0
  6
CONTINUOUS
 10
518.664673
 20
276.997406
 11
537.083008
 21
276.997406
  0
LINE
  8
0
  6
CONTINUOUS
 10
518.664673
 20
322.997406
 11
412.664642
 21
322.997406
  0
LINE
  8
0
  6
CONTINUOUS
 10
518.664673
 20
322.997406
 11
537.083008
 21
322.997406
  0
LINE
  8
0
  6
CONTINUOUS
 10
412.664642
 20
322.997406
 11
412.664642
 21
335.997406
  0
LINE
  8
0
  6
CONTINUOUS
 10
525.164673
 20
305.997406
 11
525.164673
 21
293.997406
  0
LINE
  8
0
  6
CONTINUOUS
 10
518.164673
 20
305.997406
 11
518.164673
 21
293.997406
  0
LINE
  8
0
  6
CONTINUOUS
 10
524.164673
 20
292.997406
 11
519.164673
 21
292.997406
  0
LINE
  8
0
  6
CONTINUOUS
 10
519.164673
 20
306.997406
 11
524.164673
 21
306.997406
  0
ARC
  8
0
  6
CONTINUOUS
 10
519.164673
 20
293.997406
 40
1.000000
 50
180.000000
 51
270.000000
  0
ARC
  8
0
  6
CONTINUOUS
 10
524.164673
 20
293.997406
 40
1.000000
 50
-90.000000
 51
0.000000
  0
ARC
  8
0
  6
CONTINUOUS
 10
524.164673
 20
305.997406
 40
1.000000
 50
0.000000
 51
90.000000
  0
ARC
  8
0
  6
CONTINUOUS
 10
519.164673
 20
305.997406
 40
1.000000
 50
90.000000
 51
180.000000
  0
LINE
  8
0
  6
CONTINUOUS
 10
520.664673
 20
303.497406
 11
520.664673
 21
296.497406
  0
LINE
  8
0
  6
CONTINUOUS
 10
522.664673
 20
303.497406
 11
522.664673
 21
296.497406
  0
ARC
  8
0
  6
CONTINUOUS
 10
521.664673
 20
296.497406
 40
1.000000
 50
-90.000000
 51
0.000000
  0
ARC
  8
0
  6
CONTINUOUS
 10
521.664673
 20
296.497406
 40
1.000000
 50
180.000000
 51
270.000000
  0
ARC
  8
0
  6
CONTINUOUS
 10
521.664673
 20
303.497406
 40
1.000000
 50
0.000000
 51
90.000000
  0
ARC
  8
0
  6
CONTINUOUS
 10
521.664673
 20
303.497406
 40
1.000000
 50
90.000000
 51
180.000000
  0
LINE
  8
0
  6
CONTINUOUS
 10
518.664673
 20
293.131378
 11
518.664673
 21
261.997406
  0
ARC
  8
0
  6
CONTINUOUS
 10
373.495148
 20
299.997406
 40
15.000000
 50
-49.252373
 51
49.252373
  0
LINE
  8
0
  6
CONTINUOUS
 10
361.532959
 20
269.891418
 11
383.286072
 21
288.633514
  0
LINE
  8
0
  6
CONTINUOUS
 10
361.532959
 20
330.103394
 11
383.286072
 21
311.361267
  0
ARC
  8
0
  6
CONTINUOUS
 10
363.164764
 20
267.997437
 40
2.500000
 50
130.747620
 51
180.000000
  0
ARC
  8
0
  6
CONTINUOUS
 10
363.164764
 20
258.046661
 40
2.500000
 50
92.000000
 51
180.000000
  0
ARC
  8
0
  6
CONTINUOUS
 10
363.164764
 20
331.997375
 40
2.500000
 50
180.000000
 51
229.252380
  0
ARC
  8
0
  6
CONTINUOUS
 10
363.164764
 20
341.948120
 40
2.500000
 50
180.000000
 51
268.000000
  0
LINE
  8
0
  6
CONTINUOUS
 10
359.539703
 20
38.365688
 11
352.664795
 21
38.365688
  0
LINE
  8
0
  6
CONTINUOUS
 10
360.664795
 20
26.519688
 11
360.664795
 21
28.568953
  0
ARC
  8
0
  6
CONTINUOUS
 10
358.164795
 20
26.519688
 40
2.500000
 50
-90.000000
 51
0.000000
  0
ARC
  8
0
  6
CONTINUOUS
 10
363.164795
 20
28.568953
 40
2.500000
 50
92.000000
 51
180.000000
  0
ARC
  8
0
  6
CONTINUOUS
 10
61.587502
 20
81.519691
 40
57.500000
 50
236.002823
 51
236.184402
  0
ARC
  8
0
  6
CONTINUOUS
 10
61.587502
 20
81.519691
 40
57.500000
 50
303.815582
 51
303.997162
  0
ARC
  8
0
  6
CONTINUOUS
 10
61.587502
 20
81.519691
 40
57.500000
 50
-33.997124
 51
19.823904
  0
ARC
  8
0
  6
CONTINUOUS
 10
61.587502
 20
81.519691
 40
57.500000
 50
146.593216
 51
213.997131
  0
LINE
  8
0
  6
CENTER
 10
287.914764
 20
164.269684
 11
287.914764
 21
0.769688
  0
LINE
  8
0
  6
CENTER
 10
327.972504
 20
112.019691
 11
242.652496
 21
112.019691
  0
LINE
  8
0
  6
CONTINUOUS
 10
340.914764
 20
7.019688
 11
234.914780
 21
7.019688
  0
LINE
  8
0
  6
CONTINUOUS
 10
306.344177
 20
157.019684
 11
269.485382
 21
157.019684
  0
LINE
  8
0
  6
CONTINUOUS
 10
234.914780
 20
131.409927
 11
234.914780
 21
7.019708
  0
LINE
  8
0
  6
CONTINUOUS
 10
340.914764
 20
32.019688
 11
340.914764
 21
7.019688
  0
LINE
  8
0
  6
CONTINUOUS
 10
352.664764
 20
138.769684
 11
335.041779
 21
138.769684
  0
LINE
  8
0
  6
CONTINUOUS
 10
352.664764
 20
24.269688
 11
345.914764
 21
24.269688
  0
LINE
  8
0
  6
CONTINUOUS
 10
344.664764
 20
36.019688
 11
344.664764
 21
127.019691
  0
LINE
  8
0
  6
CONTINUOUS
 10
237.055771
 20
135.511932
 11
266.626373
 21
156.121674
  0
LINE
  8
0
  6
CONTINUOUS
 10
338.773773
 20
135.511932
 11
309.203186
 21
156.121674
  0
LINE
  8
0
  6
CONTINUOUS
 10
306.976379
 20
19.019688
 11
340.914764
 21
19.019688
  0
LINE
  8
0
  6
CONTINUOUS
 10
301.353180
 20
29.019688
 11
274.476379
 21
29.019688
  0
LINE
  8
0
  6
CONTINUOUS
 10
272.914764
 20
27.582188
 11
272.914764
 21
20.019688
  0
LINE
  8
0
  6
CONTINUOUS
 10
302.914764
 20
27.394688
 11
302.914764
 21
20.019688
  0
LINE
  8
0
  6
CONTINUOUS
 10
305.035980
 20
20.534609
 11
303.293579
 21
27.504768
  0
LINE
  8
0
  6
CONTINUOUS
 10
270.793579
 20
20.534609
 11
272.535980
 21
27.504747
  0
LINE
  8
0
  6
CONTINUOUS
 10
334.914764
 20
17.957188
 11
334.914764
 21
7.019688
  0
LINE
  8
0
  6
CONTINUOUS
 10
240.914780
 20
17.957188
 11
240.914780
 21
7.019688
  0
LINE
  8
0
  6
CENTER
 10
322.914764
 20
22.769688
 11
322.914764
 21
2.769688
  0
LINE
  8
0
  6
CENTER
 10
252.914780
 20
23.769688
 11
252.914780
 21
3.269688
  0
LINE
  8
0
  6
DASHED
 10
328.414764
 20
19.019688
 11
328.414764
 21
7.019688
  0
LINE
  8
0
  6
DASHED
 10
317.414764
 20
19.019688
 11
317.414764
 21
7.019688
  0
LINE
  8
0
  6
DASHED
 10
258.414764
 20
19.019688
 11
258.414764
 21
7.019688
  0
LINE
  8
0
  6
DASHED
 10
247.414780
 20
19.019688
 11
247.414780
 21
7.019688
  0
ARC
  8
0
  6
CONTINUOUS
 10
269.485168
 20
152.019684
 40
5.000000
 50
90.000000
 51
124.875198
  0
ARC
  8
0
  6
CONTINUOUS
 10
306.344177
 20
152.019684
 40
5.000000
 50
55.124401
 51
90.000000
  0
ARC
  8
0
  6
CONTINUOUS
 10
239.914780
 20
131.409927
 40
5.000000
 50
124.875198
 51
180.000000
  0
ARC
  8
0
  6
CONTINUOUS
 10
335.914764
 20
131.409943
 40
5.000000
 50
0.000000
 51
55.124298
  0
LINE
  8
0
  6
CONTINUOUS
 10
352.664764
 20
129.019684
 11
342.914764
 21
129.019684
  0
LINE
  8
0
  6
CONTINUOUS
 10
346.664764
 20
34.019688
 11
352.664764
 21
34.019688
  0
LINE
  8
0
  6
CONTINUOUS
 10
352.664764
 20
113.479691
 11
345.789764
 21
113.479691
  0
LINE
  8
0
  6
CONTINUOUS
 10
352.664764
 20
49.559689
 11
345.664764
 21
49.559689
  0
ARC
  8
0
  6
CONTINUOUS
 10
335.041779
 20
141.769684
 40
3.000000
 50
-124.875397
 51
-90.000000
  0
ARC
  8
0
  6
CONTINUOUS
 10
346.664764
 20
127.019691
 40
2.000000
 50
90.000000
 51
180.000000
  0
ARC
  8
0
  6
CONTINUOUS
 10
342.914764
 20
131.019684
 40
2.000000
 50
180.000000
 51
270.000000
  0
LINE
  8
0
  6
CONTINUOUS
 10
340.914764
 20
131.409943
 11
340.914764
 21
131.019684
  0
ARC
  8
0
  6
CONTINUOUS
 10
342.914764
 20
32.019688
 40
2.000000
 50
90.000000
 51
180.000000
  0
LINE
  8
0
  6
CONTINUOUS
 10
346.664764
 20
34.019688
 11
342.914764
 21
34.019688
  0
ARC
  8
0
  6
CONTINUOUS
 10
346.664764
 20
36.019688
 40
2.000000
 50
180.000000
 51
270.000000
  0
ARC
  8
0
  6
CONTINUOUS
 10
345.914764
 20
19.269669
 40
5.000000
 50
90.000000
 51
180.000000
  0
ARC
  8
0
  6
CONTINUOUS
 10
274.476379
 20
27.019688
 40
2.000000
 50
90.000000
 51
165.963593
  0
ARC
  8
0
  6
CONTINUOUS
 10
301.353180
 20
27.019688
 40
2.000000
 50
14.036100
 51
90.000000
  0
LINE
  8
0
  6
CONTINUOUS
 10
268.853180
 20
19.019688
 11
234.914780
 21
19.019688
  0
ARC
  8
0
  6
CONTINUOUS
 10
306.976379
 20
21.019688
 40
2.000000
 50
-165.963699
 51
-90.000000
  0
LINE
  8
0
  6
CONTINUOUS
 10
268.853180
 20
19.019688
 11
306.976379
 21
19.019688
  0
ARC
  8
0
  6
CONTINUOUS
 10
268.853180
 20
21.019688
 40
2.000000
 50
-90.000000
 51
-14.036190
  0
ARC
  8
0
  6
CONTINUOUS
 10
303.914764
 20
20.019688
 40
1.000000
 50
180.000000
 51
270.000000
  0
ARC
  8
0
  6
CONTINUOUS
 10
271.914764
 20
20.019688
 40
1.000000
 50
-90.000000
 51
0.000000
  0
LINE
  8
0
  6
CONTINUOUS
 10
237.914780
 20
115.519691
 11
237.914780
 21
71.658997
  0
LINE
  8
0
  6
CONTINUOUS
 10
337.914764
 20
116.380371
 11
337.914764
 21
70.046303
  0
ARC
  8
0
  6
CONTINUOUS
 10
287.914764
 20
94.019699
 40
60.000000
 50
48.189621
 51
131.810394
  0
ARC
  8
0
  6
CONTINUOUS
 10
287.914764
 20
94.019699
 40
60.000000
 50
228.189697
 51
309.631744
  0
ARC
  8
0
  6
CONTINUOUS
 10
307.914764
 20
116.380371
 40
30.000000
 50
0.000000
 51
48.189629
  0
CIRCLE
  8
0
  6
CONTINUOUS
 10
287.914764
 20
112.019691
 40
27.500000
  0
ARC
  8
0
  6
CONTINUOUS
 10
287.914764
 20
112.019691
 40
31.750000
 50
7.552697
 51
172.447403
  0
ARC
  8
0
  6
CONTINUOUS
 10
271.164764
 20
70.519691
 40
20.600000
 50
172.447403
 51
270.000000
  0
ARC
  8
0
  6
CONTINUOUS
 10
304.664764
 20
70.519691
 40
20.600000
 50
-90.000000
 51
7.552700
  0
LINE
  8
0
  6
CONTINUOUS
 10
319.389374
 20
116.192848
 11
325.085968
 21
73.227318
  0
LINE
  8
0
  6
CONTINUOUS
 10
250.743576
 20
73.227280
 11
256.440186
 21
116.192787
  0
LINE
  8
0
  6
CONTINUOUS
 10
271.164764
 20
49.919689
 11
304.664764
 21
49.919689
  0
ARC
  8
0
  6
CONTINUOUS
 10
271.164764
 20
70.519691
 40
19.000000
 50
172.447601
 51
270.000000
  0
ARC
  8
0
  6
CONTINUOUS
 10
304.664764
 20
70.519691
 40
19.000000
 50
-90.000000
 51
7.552700
  0
ARC
  8
0
  6
CONTINUOUS
 10
287.914764
 20
112.019691
 40
30.150000
 50
-187.552597
 51
7.552697
  0
LINE
  8
0
  6
CONTINUOUS
 10
252.329575
 20
73.016983
 11
258.026367
 21
115.982506
  0
LINE
  8
0
  6
CONTINUOUS
 10
317.803162
 20
115.982552
 11
323.499969
 21
73.017014
  0
LINE
  8
0
  6
CONTINUOUS
 10
271.164764
 20
51.519688
 11
304.664764
 21
51.519688
  0
LINE
  8
0
  6
CONTINUOUS
 10
277.618378
 20
59.019688
 11
273.457977
 21
59.019688
  0
LINE
  8
0
  6
CONTINUOUS
 10
279.914764
 20
65.988441
 11
279.914764
 21
59.019688
  0
LINE
  8
0
  6
CONTINUOUS
 10
283.914764
 20
68.519691
 11
283.914764
 21
71.019691
  0
LINE
  8
0
  6
CONTINUOUS
 10
291.914764
 20
68.519691
 11
291.914764
 21
71.019691
  0
LINE
  8
0
  6
CONTINUOUS
 10
287.133575
 20
69.550941
 11
287.133575
 21
60.332188
  0
LINE
  8
0
  6
CONTINUOUS
 10
288.633575
 20
69.550941
 11
288.633575
 21
60.332188
  0
LINE
  8
0
  6
CONTINUOUS
 10
296.508575
 20
69.550941
 11
296.508575
 21
60.269688
  0
LINE
  8
0
  6
CONTINUOUS
 10
297.883575
 20
64.629059
 11
297.883575
 21
60.269688
  0
LINE
  8
0
  6
CONTINUOUS
 10
278.016785
 20
69.425941
 11
274.161774
 21
69.425941
  0
LINE
  8
0
  6
CONTINUOUS
 10
274.161774
 20
69.425941
 11
273.258575
 21
68.305939
  0
LINE
  8
0
  6
CONTINUOUS
 10
273.367188
 20
71.019691
 11
271.914764
 21
69.159935
  0
LINE
  8
0
  6
CONTINUOUS
 10
273.258575
 20
61.392609
 11
274.176178
 21
60.425926
  0
LINE
  8
0
  6
CONTINUOUS
 10
271.914764
 20
60.576847
 11
273.457977
 21
59.019688
  0
LINE
  8
0
  6
CONTINUOUS
 10
271.914764
 20
69.159935
 11
271.914764
 21
60.576847
  0
LINE
  8
0
  6
CONTINUOUS
 10
273.258575
 20
68.305939
 11
273.258575
 21
61.392609
  0
LINE
  8
0
  6
CONTINUOUS
 10
278.758575
 20
68.708839
 11
278.001587
 21
69.425941
  0
LINE
  8
0
  6
CONTINUOUS
 10
278.746582
 20
71.019691
 11
279.914764
 21
69.723190
  0
LINE
  8
0
  6
CONTINUOUS
 10
278.758575
 20
68.519691
 11
279.914764
 21
68.519691
  0
LINE
  8
0
  6
CONTINUOUS
 10
273.367188
 20
71.019691
 11
278.746582
 21
71.019691
  0
LINE
  8
0
  6
CONTINUOUS
 10
276.664764
 20
65.988441
 11
279.914764
 21
65.988441
  0
LINE
  8
0
  6
CONTINUOUS
 10
278.758575
 20
64.675941
 11
276.664764
 21
64.675941
  0
LINE
  8
0
  6
CONTINUOUS
 10
276.258575
 20
60.425926
 11
274.176178
 21
60.425926
  0
LINE
  8
0
  6
CONTINUOUS
 10
278.758575
 20
63.425938
 11
278.758575
 21
64.425941
  0
ARC
  8
0
  6
CONTINUOUS
 10
276.258575
 20
62.925930
 40
2.500000
 50
-89.999786
 51
0.000109
  0
LINE
  8
0
  6
CONTINUOUS
 10
278.758575
 20
59.976250
 11
278.758575
 21
59.019688
  0
LINE
  8
0
  6
CONTINUOUS
 10
279.914764
 20
69.723190
 11
279.914764
 21
68.519691
  0
LINE
  8
0
  6
CONTINUOUS
 10
278.758575
 20
64.675941
 11
278.758575
 21
62.925938
  0
LINE
  8
0
  6
CONTINUOUS
 10
276.664764
 20
65.988441
 11
276.664764
 21
64.675941
  0
LINE
  8
0
  6
CONTINUOUS
 10
278.758575
 20
59.019688
 11
279.914764
 21
59.019688
  0
LINE
  8
0
  6
CONTINUOUS
 10
278.758575
 20
59.976250
 11
277.618378
 21
59.019688
  0
LINE
  8
0
  6
CONTINUOUS
 10
288.633575
 20
60.332188
 11
289.133575
 21
60.332188
  0
LINE
  8
0
  6
CONTINUOUS
 10
286.539764
 20
60.332188
 11
286.539764
 21
59.019688
  0
LINE
  8
0
  6
CONTINUOUS
 10
289.133575
 20
60.332188
 11
289.133575
 21
59.019688
  0
LINE
  8
0
  6
CONTINUOUS
 10
291.080383
 20
68.519691
 11
291.914764
 21
68.519691
  0
LINE
  8
0
  6
CONTINUOUS
 10
283.914764
 20
68.519691
 11
284.802765
 21
68.519691
  0
LINE
  8
0
  6
CONTINUOUS
 10
283.914764
 20
71.019691
 11
291.914764
 21
71.019691
  0
LINE
  8
0
  6
CONTINUOUS
 10
286.539764
 20
59.019688
 11
289.133575
 21
59.019688
  0
LINE
  8
0
  6
CONTINUOUS
 10
286.539764
 20
60.332188
 11
287.133575
 21
60.332188
  0
ARC
  8
0
  6
CONTINUOUS
 10
300.711578
 20
67.816559
 40
3.203126
 50
-73.981873
 51
90.003510
  0
ARC
  8
0
  6
CONTINUOUS
 10
300.711578
 20
67.816559
 40
1.954124
 50
-82.585274
 51
62.411850
  0
LINE
  8
0
  6
CONTINUOUS
 10
295.914764
 20
71.019691
 11
300.711578
 21
71.019691
  0
LINE
  8
0
  6
CONTINUOUS
 10
300.963776
 20
65.878777
 11
297.883575
 21
65.878777
  0
LINE
  8
0
  6
CONTINUOUS
 10
295.914764
 20
71.019691
 11
295.914764
 21
69.550941
  0
LINE
  8
0
  6
CONTINUOUS
 10
297.883575
 20
69.550941
 11
297.883575
 21
65.878777
  0
LINE
  8
0
  6
CONTINUOUS
 10
301.595581
 20
64.737801
 11
303.577972
 21
60.269688
  0
LINE
  8
0
  6
CONTINUOUS
 10
300.443970
 20
64.629059
 11
302.320160
 21
60.269688
  0
LINE
  8
0
  6
CONTINUOUS
 10
295.914764
 20
60.269688
 11
296.508575
 21
60.269688
  0
LINE
  8
0
  6
CONTINUOUS
 10
297.883575
 20
60.269688
 11
298.430389
 21
60.269688
  0
LINE
  8
0
  6
CONTINUOUS
 10
298.430389
 20
59.019688
 11
295.914764
 21
59.019688
  0
LINE
  8
0
  6
CONTINUOUS
 10
302.070984
 20
60.269688
 11
302.320160
 21
60.269688
  0
LINE
  8
0
  6
CONTINUOUS
 10
302.070984
 20
59.019688
 11
303.914764
 21
59.019688
  0
LINE
  8
0
  6
CONTINUOUS
 10
302.070984
 20
60.269688
 11
302.070984
 21
59.019688
  0
LINE
  8
0
  6
CONTINUOUS
 10
298.430389
 20
60.269688
 11
298.430389
 21
59.019688
  0
LINE
  8
0
  6
CONTINUOUS
 10
295.914764
 20
60.269688
 11
295.914764
 21
59.019688
  0
LINE
  8
0
  6
CONTINUOUS
 10
285.232574
 20
69.550941
 11
284.802765
 21
68.519691
  0
LINE
  8
0
  6
CONTINUOUS
 10
290.717987
 20
69.550941
 11
291.080383
 21
68.519691
  0
LINE
  8
0
  6
CONTINUOUS
 10
288.633575
 20
69.550941
 11
290.717987
 21
69.550941
  0
LINE
  8
0
  6
CONTINUOUS
 10
287.133575
 20
69.550941
 11
285.232574
 21
69.550941
  0
LINE
  8
0
  6
CONTINUOUS
 10
297.883575
 20
64.629059
 11
300.443970
 21
64.629059
  0
LINE
  8
0
  6
CONTINUOUS
 10
295.914764
 20
69.550941
 11
296.508575
 21
69.550941
  0
LINE
  8
0
  6
CONTINUOUS
 10
297.883575
 20
69.550941
 11
301.616577
 21
69.548515
  0
LINE
  8
0
  6
CONTINUOUS
 10
278.758575
 20
68.708839
 11
278.758575
 21
68.519691
  0
ARC
  8
0
  6
CONTINUOUS
 10
267.914764
 20
116.380386
 40
30.000000
 50
131.810394
 51
181.671204
  0
ARC
  8
0
  6
CONTINUOUS
 10
307.914764
 20
71.658997
 40
30.043320
 50
307.456360
 51
356.922760
  0
ARC
  8
0
  6
CONTINUOUS
 10
267.914764
 20
71.658997
 40
30.000000
 50
180.000000
 51
228.189697
  0
LINE
  8
0
  6
CONTINUOUS
 10
280.414764
 20
115.019691
 11
280.414764
 21
109.019691
  0
LINE
  8
0
  6
CONTINUOUS
 10
274.414764
 20
115.019691
 11
274.414764
 21
109.019691
  0
LINE
  8
0
  6
CONTINUOUS
 10
274.414764
 20
115.019691
 11
280.414764
 21
115.019691
  0
LINE
  8
0
  6
CONTINUOUS
 10
274.414764
 20
109.019691
 11
280.414764
 21
109.019691
  0
ARC
  8
0
  6
CONTINUOUS
 10
287.914764
 20
112.019691
 40
11.000000
 50
-164.173401
 51
164.173401
  0
LINE
  8
0
  6
CONTINUOUS
 10
352.664764
 20
139.019592
 11
352.664764
 21
24.019789
  0
LINE
  8
0
  6
CONTINUOUS
 10
360.664795
 20
61.119686
 11
404.664795
 21
61.119686
  0
LINE
  8
0
  6
CONTINUOUS
 10
360.664795
 20
50.919689
 11
404.664795
 21
50.919689
  0
TEXT
  8
0
 10
-9.000000
 20
-8.000000
 40
4.000000
 41
1.000000
  1
HLM-22L-300~900-T25
 50
0.000000
  0
ENDSEC
  0
EOF
