  0
SECTION
  2
HEADER
  9
$CLAYER
  8
1
  9
$LTSCALE
 40
3.0
  0
ENDSEC
  0
SECTION
  2
TABLES
  0
TABLE
  2
LTYPE
 70
     4
  0
LTYPE
  2
CONTINUOUS
  3
solid line
 70
    64
 72
    65
 73
     0
 40
0.0
  0
LTYPE
  2
DASHED
  3
__ __ __ __ __ __ __ __ __ __ __ __ __ __ __
 70
    64
 72
    65
 73
     2
 40
0.75
 49
0.5
 49
-0.25
  0
LTYPE
  2
CENTER
  3
____ _ ____ _ ____ _ ____ _ ____ _ ____ _ ____
 70
    64
 72
    65
 73
     4
 40
2.0
 49
1.25
 49
-0.25
 49
0.25
 49
-0.25
  0
LTYPE
  2
PHANTOM
  3
_____ _ _ _____ _ _ _____ _ _ _____ _ _ ____
 70
    64
 72
    65
 73
     6
 40
2.5
 49
1.25
 49
-0.25
 49
0.25
 49
-0.25
 49
0.25
 49
-0.25
  0
ENDTAB
  0
TABLE
  2
LAYER
 70
     1
  0
LAYER
  2
0
 70
    64
 62
     7
  6
CONTINUOUS
  0
ENDTAB
  0
TABLE
  2
STYLE
 70
     1
  0
STYLE
  2
STANDARD
 70
     0
 40
0.000000
 41
1.000000
 50
0.000000
 71
     0
 42
3.000000
  3
txt
  4
BIGFONT
  0
ENDTAB
  0
ENDSEC
  0
SECTION
  2
BLOCKS
  0
ENDSEC
  0
SECTION
  2
ENTITIES
  0
LINE
  8
0
  6
CENTER
 10
429.423737
 20
85.824692
 11
319.914795
 21
85.824692
  0
LINE
  8
0
  6
CONTINUOUS
 10
518.664795
 20
36.824707
 11
518.664795
 21
112.824692
  0
LINE
  8
0
  6
CONTINUOUS
 10
518.664795
 20
112.824669
 11
404.664795
 21
112.824669
  0
LINE
  8
0
  6
CONTINUOUS
 10
518.664795
 20
36.824707
 11
404.664795
 21
36.824707
  0
LINE
  8
0
  6
CONTINUOUS
 10
518.664795
 20
105.073669
 11
412.664795
 21
105.073669
  0
LINE
  8
0
  6
CONTINUOUS
 10
518.664795
 20
44.575706
 11
412.664795
 21
44.575706
  0
LINE
  8
0
  6
CONTINUOUS
 10
412.664795
 20
110.824669
 11
412.664795
 21
38.824688
  0
ARC
  8
0
  6
CONTINUOUS
 10
410.664795
 20
110.824692
 40
2.000000
 50
0.000000
 51
90.000000
  0
ARC
  8
0
  6
CONTINUOUS
 10
410.664795
 20
38.824707
 40
2.000000
 50
-90.000000
 51
0.000000
  0
LINE
  8
0
  6
CONTINUOUS
 10
539.164795
 20
42.824688
 11
539.164795
 21
106.824692
  0
LINE
  8
0
  6
CONTINUOUS
 10
535.200684
 20
112.824692
 11
518.664795
 21
112.824692
  0
LINE
  8
0
  6
CONTINUOUS
 10
535.200684
 20
36.824688
 11
518.664795
 21
36.824688
  0
LINE
  8
0
  6
CONTINUOUS
 10
538.664795
 20
39.824688
 11
538.664795
 21
109.824692
  0
LINE
  8
0
  6
CONTINUOUS
 10
539.164795
 20
106.824692
 11
538.664795
 21
107.324692
  0
LINE
  8
0
  6
CONTINUOUS
 10
539.164795
 20
42.824688
 11
538.664795
 21
42.324688
  0
LINE
  8
0
  6
CONTINUOUS
 10
537.798767
 20
111.324669
 11
538.664795
 21
109.824692
  0
ARC
  8
0
  6
CONTINUOUS
 10
535.200684
 20
109.824707
 40
3.000000
 50
29.999599
 51
90.000000
  0
LINE
  8
0
  6
CONTINUOUS
 10
537.798767
 20
38.324707
 11
538.664795
 21
39.824688
  0
ARC
  8
0
  6
CONTINUOUS
 10
535.200684
 20
39.824688
 40
3.000000
 50
270.000000
 51
330.000397
  0
LINE
  8
0
  6
CONTINUOUS
 10
537.083130
 20
105.073692
 11
518.664795
 21
105.073692
  0
LINE
  8
0
  6
CONTINUOUS
 10
518.664795
 20
44.575687
 11
537.083130
 21
44.575687
  0
LINE
  8
0
  6
CENTER
 10
61.587502
 20
-4.300333
 11
61.587502
 21
175.249695
  0
LINE
  8
0
  6
CENTER
 10
-8.637500
 20
85.824692
 11
130.487503
 21
85.824692
  0
LINE
  8
0
  6
CENTER
 10
2.590469
 20
116.324692
 11
164.837494
 21
116.324692
  0
LINE
  8
0
  6
CONTINUOUS
 10
3.587500
 20
11.324687
 11
36.587502
 21
11.324687
  0
LINE
  8
0
  6
CONTINUOUS
 10
3.587500
 20
21.951088
 11
3.587500
 21
11.324687
  0
LINE
  8
0
  6
CONTINUOUS
 10
119.587502
 20
21.951088
 11
119.587502
 21
11.324687
  0
LINE
  8
0
  6
CONTINUOUS
 10
5.587500
 20
23.324686
 11
26.587500
 21
23.324686
  0
LINE
  8
0
  6
CONTINUOUS
 10
117.587502
 20
23.324686
 11
96.587502
 21
23.324686
  0
LINE
  8
0
  6
CONTINUOUS
 10
29.587500
 20
34.698288
 11
29.587500
 21
158.800613
  0
LINE
  8
0
  6
CONTINUOUS
 10
93.587502
 20
34.698288
 11
93.587502
 21
158.800964
  0
LINE
  8
0
  6
CONTINUOUS
 10
91.622299
 20
160.800674
 11
61.587502
 21
161.324692
  0
LINE
  8
0
  6
CONTINUOUS
 10
31.552500
 20
160.800323
 11
61.587502
 21
161.324692
  0
ARC
  8
0
  6
CONTINUOUS
 10
31.587500
 20
158.800629
 40
2.000000
 50
91.000580
 51
180.000000
  0
ARC
  8
0
  6
CONTINUOUS
 10
91.587502
 20
158.800964
 40
2.000000
 50
0.000000
 51
89.000519
  0
LINE
  8
0
  6
CONTINUOUS
 10
93.587502
 20
26.324686
 11
93.587502
 21
11.324687
  0
ARC
  8
0
  6
CONTINUOUS
 10
96.587502
 20
26.324686
 40
3.000000
 50
180.000000
 51
270.000000
  0
LINE
  8
0
  6
CONTINUOUS
 10
29.587500
 20
26.324686
 11
29.587500
 21
11.324687
  0
ARC
  8
0
  6
CONTINUOUS
 10
26.587500
 20
26.324667
 40
3.000000
 50
-90.000000
 51
0.000000
  0
ARC
  8
0
  6
CONTINUOUS
 10
5.587500
 20
21.324686
 40
2.000000
 50
90.000000
 51
180.000000
  0
ARC
  8
0
  6
CONTINUOUS
 10
117.587502
 20
21.324686
 40
2.000000
 50
0.000000
 51
90.000000
  0
LINE
  8
0
  6
CENTER
 10
16.587500
 20
27.614689
 11
16.587500
 21
7.214688
  0
LINE
  8
0
  6
CENTER
 10
106.587502
 20
28.634687
 11
106.587502
 21
6.704687
  0
LINE
  8
0
  6
CONTINUOUS
 10
28.305500
 20
32.831608
 11
4.869500
 21
23.817787
  0
ARC
  8
0
  6
CONTINUOUS
 10
5.587500
 20
21.951107
 40
2.000000
 50
111.037903
 51
180.000000
  0
LINE
  8
0
  6
CONTINUOUS
 10
29.587500
 20
34.698288
 11
29.587500
 21
26.324686
  0
ARC
  8
0
  6
CONTINUOUS
 10
27.587500
 20
34.698288
 40
2.000000
 50
-68.962189
 51
0.000000
  0
LINE
  8
0
  6
CONTINUOUS
 10
94.869499
 20
32.831589
 11
118.305496
 21
23.817787
  0
ARC
  8
0
  6
CONTINUOUS
 10
117.587502
 20
21.951088
 40
2.000000
 50
0.000000
 51
68.962646
  0
LINE
  8
0
  6
CONTINUOUS
 10
93.587502
 20
34.698288
 11
93.587502
 21
26.324686
  0
ARC
  8
0
  6
CONTINUOUS
 10
95.587502
 20
34.698307
 40
2.000000
 50
180.000000
 51
248.962799
  0
LINE
  8
0
  6
CONTINUOUS
 10
13.587500
 20
91.131836
 11
13.587500
 21
141.517532
  0
LINE
  8
0
  6
CONTINUOUS
 10
109.587502
 20
91.131844
 11
109.587502
 21
141.517532
  0
LINE
  8
0
  6
CONTINUOUS
 10
99.587502
 20
58.129528
 11
99.587502
 21
118.394691
  0
LINE
  8
0
  6
CONTINUOUS
 10
23.587500
 20
58.129528
 11
23.587500
 21
118.394691
  0
LINE
  8
0
  6
CONTINUOUS
 10
107.357697
 20
144.416992
 11
95.817299
 21
147.482391
  0
LINE
  8
0
  6
CONTINUOUS
 10
107.357697
 20
88.232384
 11
101.817299
 21
86.760735
  0
LINE
  8
0
  6
CONTINUOUS
 10
97.360497
 20
55.230827
 11
95.814499
 21
54.818546
  0
LINE
  8
0
  6
CONTINUOUS
 10
25.814501
 20
55.230808
 11
27.360500
 21
54.818546
  0
LINE
  8
0
  6
CONTINUOUS
 10
15.817300
 20
88.232384
 11
21.357700
 21
86.760735
  0
LINE
  8
0
  6
CONTINUOUS
 10
15.817300
 20
144.416992
 11
27.357700
 21
147.482391
  0
ARC
  8
0
  6
CONTINUOUS
 10
16.587500
 20
141.517548
 40
3.000000
 50
104.876099
 51
180.000000
  0
ARC
  8
0
  6
CONTINUOUS
 10
16.587500
 20
91.131859
 40
3.000000
 50
180.000000
 51
255.124603
  0
ARC
  8
0
  6
CONTINUOUS
 10
106.587502
 20
141.517532
 40
3.000000
 50
0.000000
 51
75.124413
  0
ARC
  8
0
  6
CONTINUOUS
 10
106.587502
 20
91.131836
 40
3.000000
 50
-75.124207
 51
0.000000
  0
ARC
  8
0
  6
CONTINUOUS
 10
26.587500
 20
58.129547
 40
3.000000
 50
180.000000
 51
255.069000
  0
ARC
  8
0
  6
CONTINUOUS
 10
96.587502
 20
58.129528
 40
3.000000
 50
-75.068420
 51
0.000000
  0
ARC
  8
0
  6
CONTINUOUS
 10
96.587502
 20
150.381866
 40
3.000000
 50
180.000000
 51
255.124603
  0
ARC
  8
0
  6
CONTINUOUS
 10
102.587502
 20
83.861298
 40
3.000000
 50
104.876099
 51
180.000000
  0
ARC
  8
0
  6
CONTINUOUS
 10
96.587502
 20
51.919868
 40
3.000000
 50
104.931801
 51
180.000000
  0
ARC
  8
0
  6
CONTINUOUS
 10
26.587500
 20
51.919849
 40
3.000000
 50
0.000000
 51
75.068779
  0
ARC
  8
0
  6
CONTINUOUS
 10
20.587500
 20
83.861267
 40
3.000000
 50
0.000000
 51
75.124496
  0
ARC
  8
0
  6
CONTINUOUS
 10
26.587500
 20
150.381821
 40
3.000000
 50
-75.124153
 51
0.000000
  0
LINE
  8
0
  6
DASHED
 10
11.087500
 20
23.324686
 11
11.087500
 21
11.324687
  0
LINE
  8
0
  6
DASHED
 10
22.087500
 20
23.324686
 11
22.087500
 21
11.324687
  0
LINE
  8
0
  6
DASHED
 10
101.087502
 20
23.324686
 11
101.087502
 21
11.324687
  0
LINE
  8
0
  6
DASHED
 10
112.087502
 20
23.324686
 11
112.087502
 21
11.324687
  0
LINE
  8
0
  6
CONTINUOUS
 10
31.817499
 20
138.324692
 11
91.487503
 21
138.324692
  0
LINE
  8
0
  6
CONTINUOUS
 10
14.087500
 20
43.324688
 11
14.087500
 21
52.376026
  0
LINE
  8
0
  6
CONTINUOUS
 10
109.087502
 20
43.324688
 11
109.087502
 21
52.376026
  0
LINE
  8
0
  6
CONTINUOUS
 10
19.087500
 20
38.324688
 11
28.118700
 21
38.324688
  0
LINE
  8
0
  6
CONTINUOUS
 10
104.087502
 20
38.324688
 11
95.036102
 21
38.324688
  0
ARC
  8
0
  6
CONTINUOUS
 10
61.587502
 20
85.824692
 40
57.250000
 50
-32.501888
 51
19.914110
  0
ARC
  8
0
  6
CONTINUOUS
 10
61.587502
 20
85.824692
 40
57.250000
 50
146.974487
 51
212.501907
  0
ARC
  8
0
  6
CONTINUOUS
 10
19.087500
 20
43.324688
 40
5.000000
 50
180.000000
 51
270.000000
  0
ARC
  8
0
  6
CONTINUOUS
 10
104.087502
 20
43.324688
 40
5.000000
 50
-90.000000
 51
0.000000
  0
ARC
  8
0
  6
CONTINUOUS
 10
28.138901
 20
33.324688
 40
5.000000
 50
73.928284
 51
90.230461
  0
ARC
  8
0
  6
CONTINUOUS
 10
95.036102
 20
33.324688
 40
5.000000
 50
90.000000
 51
106.071800
  0
ARC
  8
0
  6
CONTINUOUS
 10
9.087500
 20
52.376026
 40
5.000000
 50
0.000000
 51
32.499691
  0
ARC
  8
0
  6
CONTINUOUS
 10
114.087502
 20
52.376026
 40
5.000000
 50
147.498306
 51
180.000000
  0
LINE
  8
0
  6
CONTINUOUS
 10
95.587502
 20
36.824688
 11
93.587502
 21
36.824688
  0
LINE
  8
0
  6
CONTINUOUS
 10
27.587500
 20
36.824688
 11
29.587500
 21
36.824688
  0
ARC
  8
0
  6
CONTINUOUS
 10
95.587502
 20
40.824688
 40
4.000000
 50
270.000000
 51
322.311005
  0
ARC
  8
0
  6
CONTINUOUS
 10
27.587500
 20
40.824688
 40
4.000000
 50
218.645996
 51
270.000000
  0
LINE
  8
0
  6
CONTINUOUS
 10
151.587494
 20
105.324692
 11
151.587494
 21
127.324692
  0
LINE
  8
0
  6
CONTINUOUS
 10
111.587502
 20
127.324692
 11
151.587494
 21
127.324692
  0
LINE
  8
0
  6
CONTINUOUS
 10
111.587502
 20
105.324692
 11
151.587494
 21
105.324692
  0
LINE
  8
0
  6
CONTINUOUS
 10
111.587502
 20
128.824692
 11
111.587502
 21
103.824692
  0
LINE
  8
0
  6
CONTINUOUS
 10
109.587502
 20
128.824692
 11
111.587502
 21
128.824692
  0
LINE
  8
0
  6
CONTINUOUS
 10
109.587502
 20
103.824692
 11
111.587502
 21
103.824692
  0
ARC
  8
0
  6
CONTINUOUS
 10
119.587502
 20
116.324692
 40
3.000000
 50
90.000000
 51
270.000000
  0
LINE
  8
0
  6
CONTINUOUS
 10
119.587502
 20
119.324692
 11
151.587494
 21
119.324692
  0
LINE
  8
0
  6
CONTINUOUS
 10
119.587502
 20
113.324692
 11
151.587494
 21
113.324692
  0
LINE
  8
0
  6
CENTER
 10
551.239807
 20
74.824692
 11
319.914795
 21
74.824692
  0
LINE
  8
0
  6
CONTINUOUS
 10
363.077545
 20
114.276947
 11
404.664795
 21
112.824692
  0
LINE
  8
0
  6
CONTINUOUS
 10
352.664795
 20
35.008808
 11
404.664795
 21
36.824688
  0
LINE
  8
0
  6
CONTINUOUS
 10
360.664795
 20
142.324692
 11
360.664795
 21
115.324692
  0
LINE
  8
0
  6
CONTINUOUS
 10
359.664795
 20
143.324692
 11
352.664764
 21
143.324692
  0
LINE
  8
0
  6
CONTINUOUS
 10
358.164795
 20
28.324686
 11
352.664795
 21
28.324686
  0
LINE
  8
0
  6
CONTINUOUS
 10
360.664795
 20
115.824692
 11
360.664795
 21
44.912029
  0
LINE
  8
0
  6
CONTINUOUS
 10
404.664795
 20
112.824692
 11
404.664795
 21
36.824688
  0
LINE
  8
0
  6
CONTINUOUS
 10
362.077911
 20
126.142494
 11
388.021332
 21
113.618080
  0
LINE
  8
0
  6
CENTER
 10
287.914764
 20
208.100708
 11
287.914764
 21
372.682495
  0
LINE
  8
0
  6
CENTER
 10
550.611389
 20
304.302399
 11
218.575317
 21
304.302399
  0
LINE
  8
0
  6
CONTINUOUS
 10
339.132782
 20
272.302399
 11
240.386826
 21
272.302399
  0
LINE
  8
0
  6
CONTINUOUS
 10
339.132782
 20
336.302399
 11
240.386826
 21
336.302399
  0
LINE
  8
0
  6
CONTINUOUS
 10
244.976669
 20
246.302399
 11
274.414764
 21
246.302399
  0
LINE
  8
0
  6
CONTINUOUS
 10
330.852875
 20
362.302399
 11
287.914764
 21
362.302399
  0
LINE
  8
0
  6
CONTINUOUS
 10
234.914780
 20
304.302399
 11
235.473343
 21
272.302399
  0
LINE
  8
0
  6
CONTINUOUS
 10
240.082703
 20
250.278152
 11
235.473343
 21
272.302399
  0
ARC
  8
0
  6
CONTINUOUS
 10
244.976669
 20
251.302399
 40
5.000000
 50
191.820602
 51
270.000000
  0
LINE
  8
0
  6
CONTINUOUS
 10
234.914780
 20
304.302399
 11
235.473343
 21
336.302399
  0
LINE
  8
0
  6
CONTINUOUS
 10
240.082703
 20
358.326630
 11
235.473343
 21
336.302399
  0
ARC
  8
0
  6
CONTINUOUS
 10
244.976669
 20
357.302399
 40
5.000000
 50
90.000000
 51
168.179398
  0
LINE
  8
0
  6
CONTINUOUS
 10
267.914764
 20
334.302399
 11
267.914764
 21
274.302399
  0
LINE
  8
0
  6
CONTINUOUS
 10
307.914764
 20
334.302399
 11
307.914764
 21
274.302399
  0
ARC
  8
0
  6
CONTINUOUS
 10
240.386826
 20
277.302399
 40
5.000000
 50
181.000000
 51
270.000000
  0
ARC
  8
0
  6
CONTINUOUS
 10
240.386826
 20
331.302399
 40
5.000000
 50
90.000000
 51
179.000000
  0
LINE
  8
0
  6
CONTINUOUS
 10
344.588287
 20
358.630920
 11
344.131073
 21
341.171509
  0
LINE
  8
0
  6
CONTINUOUS
 10
352.664764
 20
246.802399
 11
352.664764
 21
361.802399
  0
LINE
  8
0
  6
CONTINUOUS
 10
334.099762
 20
286.302399
 11
334.099762
 21
322.302399
  0
LINE
  8
0
  6
CONTINUOUS
 10
352.664764
 20
247.052399
 11
347.587250
 21
247.052399
  0
LINE
  8
0
  6
CONTINUOUS
 10
347.587250
 20
361.552399
 11
352.664764
 21
361.552399
  0
ARC
  8
0
  6
CONTINUOUS
 10
339.132782
 20
341.302399
 40
5.000000
 50
270.000000
 51
358.500000
  0
ARC
  8
0
  6
CONTINUOUS
 10
347.587250
 20
358.552399
 40
3.000000
 50
90.000000
 51
178.500000
  0
LINE
  8
0
  6
CONTINUOUS
 10
344.588287
 20
249.973862
 11
344.131073
 21
267.433289
  0
ARC
  8
0
  6
CONTINUOUS
 10
339.132782
 20
267.302399
 40
5.000000
 50
1.500000
 51
90.000000
  0
ARC
  8
0
  6
CONTINUOUS
 10
347.587250
 20
250.052399
 40
3.000000
 50
-178.500000
 51
-90.000000
  0
LINE
  8
0
  6
CONTINUOUS
 10
335.746857
 20
250.278152
 11
340.325989
 21
272.157928
  0
ARC
  8
0
  6
CONTINUOUS
 10
330.852875
 20
251.302399
 40
5.000000
 50
270.000000
 51
348.179413
  0
LINE
  8
0
  6
CONTINUOUS
 10
335.746857
 20
358.326630
 11
340.325989
 21
336.446838
  0
ARC
  8
0
  6
CONTINUOUS
 10
330.852875
 20
357.302399
 40
5.000000
 50
11.820596
 51
90.000000
  0
LINE
  8
0
  6
CENTER
 10
263.364380
 20
349.302399
 11
242.510208
 21
349.302399
  0
LINE
  8
0
  6
CENTER
 10
252.914780
 20
341.745117
 11
252.914780
 21
358.515930
  0
CIRCLE
  8
0
  6
CONTINUOUS
 10
252.914780
 20
349.302399
 40
5.500000
  0
LINE
  8
0
  6
CENTER
 10
312.465179
 20
349.302399
 11
333.319336
 21
349.302399
  0
LINE
  8
0
  6
CENTER
 10
322.914764
 20
341.745117
 11
322.914764
 21
358.515930
  0
CIRCLE
  8
0
  6
CONTINUOUS
 10
322.914764
 20
349.302399
 40
5.500000
  0
LINE
  8
0
  6
CENTER
 10
263.364380
 20
259.302399
 11
242.510208
 21
259.302399
  0
LINE
  8
0
  6
CENTER
 10
252.914780
 20
266.859680
 11
252.914780
 21
250.088852
  0
CIRCLE
  8
0
  6
CONTINUOUS
 10
252.914780
 20
259.302399
 40
5.500000
  0
LINE
  8
0
  6
CENTER
 10
312.465179
 20
259.302399
 11
333.319336
 21
259.302399
  0
LINE
  8
0
  6
CENTER
 10
322.914764
 20
266.859680
 11
322.914764
 21
250.088852
  0
CIRCLE
  8
0
  6
CONTINUOUS
 10
322.914764
 20
259.302399
 40
5.500000
  0
LINE
  8
0
  6
CONTINUOUS
 10
313.107605
 20
352.302399
 11
262.721924
 21
352.302399
  0
LINE
  8
0
  6
CONTINUOUS
 10
257.758514
 20
342.302399
 11
254.471680
 21
342.302399
  0
ARC
  8
0
  6
CONTINUOUS
 10
262.721924
 20
349.302399
 40
3.000000
 50
90.000000
 51
165.124313
  0
LINE
  8
0
  6
CONTINUOUS
 10
251.572220
 20
340.072571
 11
251.163071
 21
338.532227
  0
ARC
  8
0
  6
CONTINUOUS
 10
254.471680
 20
339.302399
 40
3.000000
 50
90.000000
 51
165.124313
  0
ARC
  8
0
  6
CONTINUOUS
 10
248.263626
 20
339.302399
 40
3.000000
 50
270.000000
 51
345.124329
  0
LINE
  8
0
  6
CONTINUOUS
 10
257.758514
 20
342.302399
 11
259.822479
 21
350.072571
  0
LINE
  8
0
  6
CONTINUOUS
 10
324.257324
 20
340.072571
 11
324.666473
 21
338.532227
  0
ARC
  8
0
  6
CONTINUOUS
 10
321.357880
 20
339.302399
 40
3.000000
 50
14.875682
 51
90.000000
  0
ARC
  8
0
  6
CONTINUOUS
 10
327.565918
 20
339.302399
 40
3.000000
 50
194.875687
 51
270.000000
  0
LINE
  8
0
  6
CONTINUOUS
 10
318.071014
 20
342.302399
 11
321.357880
 21
342.302399
  0
ARC
  8
0
  6
CONTINUOUS
 10
313.107605
 20
349.302399
 40
3.000000
 50
14.875682
 51
90.000000
  0
LINE
  8
0
  6
CONTINUOUS
 10
318.071014
 20
342.302399
 11
316.007080
 21
350.072571
  0
CIRCLE
  8
0
  6
CONTINUOUS
 10
252.914780
 20
259.302399
 40
5.500000
  0
LINE
  8
0
  6
CONTINUOUS
 10
313.107605
 20
256.302399
 11
262.721924
 21
256.302399
  0
LINE
  8
0
  6
CONTINUOUS
 10
257.758514
 20
266.302399
 11
254.471680
 21
266.302399
  0
ARC
  8
0
  6
CONTINUOUS
 10
262.721924
 20
259.302399
 40
3.000000
 50
-165.124313
 51
-90.000000
  0
LINE
  8
0
  6
CONTINUOUS
 10
251.572220
 20
268.532227
 11
251.163071
 21
270.072571
  0
ARC
  8
0
  6
CONTINUOUS
 10
254.471680
 20
269.302399
 40
3.000000
 50
-165.124313
 51
-90.000000
  0
ARC
  8
0
  6
CONTINUOUS
 10
248.263626
 20
269.302399
 40
3.000000
 50
14.875682
 51
90.000000
  0
LINE
  8
0
  6
CONTINUOUS
 10
257.758514
 20
266.302399
 11
259.822479
 21
258.532227
  0
LINE
  8
0
  6
CONTINUOUS
 10
324.257324
 20
268.532227
 11
324.666473
 21
270.072571
  0
ARC
  8
0
  6
CONTINUOUS
 10
321.357880
 20
269.302399
 40
3.000000
 50
270.000000
 51
345.124329
  0
ARC
  8
0
  6
CONTINUOUS
 10
327.565918
 20
269.302399
 40
3.000000
 50
90.000000
 51
165.124313
  0
LINE
  8
0
  6
CONTINUOUS
 10
318.071014
 20
266.302399
 11
321.357880
 21
266.302399
  0
ARC
  8
0
  6
CONTINUOUS
 10
313.107605
 20
259.302399
 40
3.000000
 50
270.000000
 51
345.124329
  0
LINE
  8
0
  6
CONTINUOUS
 10
318.071014
 20
266.302399
 11
316.007080
 21
258.532227
  0
LINE
  8
0
  6
CONTINUOUS
 10
287.914764
 20
362.302399
 11
244.976669
 21
362.302399
  0
LINE
  8
0
  6
CONTINUOUS
 10
298.914764
 20
214.302399
 11
274.414764
 21
214.302399
  0
LINE
  8
0
  6
CONTINUOUS
 10
276.914764
 20
254.302399
 11
276.914764
 21
249.302399
  0
LINE
  8
0
  6
CONTINUOUS
 10
298.914764
 20
254.302399
 11
298.914764
 21
214.302399
  0
LINE
  8
0
  6
CONTINUOUS
 10
275.414764
 20
256.302399
 11
275.414764
 21
254.302399
  0
LINE
  8
0
  6
CONTINUOUS
 10
300.414764
 20
256.302399
 11
300.414764
 21
254.302399
  0
LINE
  8
0
  6
CONTINUOUS
 10
300.414764
 20
254.302399
 11
275.414764
 21
254.302399
  0
LINE
  8
0
  6
CONTINUOUS
 10
274.414764
 20
249.302399
 11
274.414764
 21
214.302399
  0
LINE
  8
0
  6
CONTINUOUS
 10
277.331757
 20
214.302399
 11
277.331757
 21
249.302399
  0
LINE
  8
0
  6
CONTINUOUS
 10
277.331757
 20
249.302399
 11
274.414764
 21
249.302399
  0
LINE
  8
0
  6
CONTINUOUS
 10
298.914764
 20
246.302399
 11
331.031036
 21
246.302399
  0
LINE
  8
0
  6
CONTINUOUS
 10
352.664764
 20
256.802399
 11
347.331940
 21
256.802399
  0
ARC
  8
0
  6
CONTINUOUS
 10
347.331940
 20
259.802399
 40
3.000000
 50
181.500000
 51
270.000000
  0
LINE
  8
0
  6
CONTINUOUS
 10
344.374298
 20
272.302399
 11
352.664764
 21
272.302399
  0
LINE
  8
0
  6
CONTINUOUS
 10
344.374298
 20
336.302399
 11
352.664764
 21
336.302399
  0
LINE
  8
0
  6
CONTINUOUS
 10
352.664764
 20
351.802399
 11
347.331940
 21
351.802399
  0
ARC
  8
0
  6
CONTINUOUS
 10
347.331940
 20
348.802399
 40
3.000000
 50
90.000000
 51
178.500000
  0
LINE
  8
0
  6
CONTINUOUS
 10
37.587502
 20
12.324687
 11
85.587502
 21
12.324687
  0
LINE
  8
0
  6
CONTINUOUS
 10
86.587502
 20
11.324687
 11
85.587502
 21
12.324687
  0
LINE
  8
0
  6
CONTINUOUS
 10
36.587502
 20
11.324687
 11
37.587502
 21
12.324687
  0
LINE
  8
0
  6
CONTINUOUS
 10
86.587502
 20
11.324687
 11
119.587502
 21
11.324687
  0
LINE
  8
0
  6
CONTINUOUS
 10
358.164764
 20
361.802399
 11
352.664764
 21
361.802399
  0
LINE
  8
0
  6
CONTINUOUS
 10
358.164764
 20
246.802399
 11
352.664764
 21
246.802399
  0
LINE
  8
0
  6
CONTINUOUS
 10
360.664764
 20
359.302399
 11
360.664764
 21
249.302399
  0
LINE
  8
0
  6
CONTINUOUS
 10
404.664764
 20
266.302399
 11
404.664764
 21
342.302399
  0
LINE
  8
0
  6
CONTINUOUS
 10
363.077515
 20
264.850128
 11
404.664764
 21
266.302399
  0
LINE
  8
0
  6
CONTINUOUS
 10
363.077515
 20
343.754669
 11
404.664764
 21
342.302399
  0
ARC
  8
0
  6
CONTINUOUS
 10
358.164764
 20
249.302399
 40
2.500000
 50
-90.000000
 51
0.000000
  0
ARC
  8
0
  6
CONTINUOUS
 10
358.164764
 20
359.302399
 40
2.500000
 50
0.000000
 51
90.000000
  0
ARC
  8
0
  6
CONTINUOUS
 10
359.664795
 20
142.324692
 40
1.000000
 50
0.000000
 51
90.000000
  0
ARC
  8
0
  6
CONTINUOUS
 10
363.164795
 20
128.393875
 40
2.500000
 50
180.000000
 51
244.230682
  0
ARC
  8
0
  6
CONTINUOUS
 10
363.164795
 20
116.775421
 40
2.500000
 50
180.000000
 51
268.000000
  0
ARC
  8
0
  6
CONTINUOUS
 10
389.108215
 20
115.869461
 40
2.500000
 50
-115.769325
 51
-92.000000
  0
LINE
  8
0
  6
CONTINUOUS
 10
404.664764
 20
266.302399
 11
404.664764
 21
342.302399
  0
LINE
  8
0
  6
CONTINUOUS
 10
518.664673
 20
342.302368
 11
518.664673
 21
329.302429
  0
LINE
  8
0
  6
CONTINUOUS
 10
518.664673
 20
266.302429
 11
404.664642
 21
266.302429
  0
LINE
  8
0
  6
CONTINUOUS
 10
518.664673
 20
342.302368
 11
404.664642
 21
342.302368
  0
LINE
  8
0
  6
CONTINUOUS
 10
412.664642
 20
268.302429
 11
412.664642
 21
281.302399
  0
ARC
  8
0
  6
CONTINUOUS
 10
410.664642
 20
268.302399
 40
2.000000
 50
-90.000000
 51
0.000000
  0
ARC
  8
0
  6
CONTINUOUS
 10
410.664642
 20
340.302368
 40
2.000000
 50
0.000000
 51
90.000000
  0
LINE
  8
0
  6
CONTINUOUS
 10
539.164673
 20
336.302399
 11
539.164673
 21
272.302399
  0
LINE
  8
0
  6
CONTINUOUS
 10
535.200562
 20
266.302399
 11
518.664673
 21
266.302399
  0
LINE
  8
0
  6
CONTINUOUS
 10
535.200562
 20
342.302399
 11
518.664673
 21
342.302399
  0
LINE
  8
0
  6
CONTINUOUS
 10
538.664673
 20
339.302399
 11
538.664673
 21
269.302399
  0
LINE
  8
0
  6
CONTINUOUS
 10
539.164673
 20
272.302399
 11
538.664673
 21
271.802399
  0
LINE
  8
0
  6
CONTINUOUS
 10
539.164673
 20
336.302399
 11
538.664673
 21
336.802399
  0
LINE
  8
0
  6
CONTINUOUS
 10
537.798645
 20
267.802429
 11
538.664673
 21
269.302399
  0
ARC
  8
0
  6
CONTINUOUS
 10
535.200562
 20
269.302368
 40
3.000000
 50
270.000000
 51
330.000397
  0
LINE
  8
0
  6
CONTINUOUS
 10
537.798645
 20
340.802368
 11
538.664673
 21
339.302399
  0
ARC
  8
0
  6
CONTINUOUS
 10
535.200562
 20
339.302399
 40
3.000000
 50
29.999599
 51
90.000000
  0
LINE
  8
0
  6
CONTINUOUS
 10
477.664673
 20
281.302399
 11
412.664642
 21
281.302399
  0
LINE
  8
0
  6
CONTINUOUS
 10
527.664673
 20
281.302399
 11
537.083008
 21
281.302399
  0
LINE
  8
0
  6
CONTINUOUS
 10
477.664673
 20
327.302399
 11
412.664642
 21
327.302399
  0
LINE
  8
0
  6
CONTINUOUS
 10
527.664673
 20
327.302399
 11
537.083008
 21
327.302399
  0
LINE
  8
0
  6
CONTINUOUS
 10
412.664642
 20
327.302399
 11
412.664642
 21
340.302399
  0
LINE
  8
0
  6
CONTINUOUS
 10
518.664673
 20
279.302429
 11
518.664673
 21
266.302399
  0
ARC
  8
0
  6
CONTINUOUS
 10
373.495148
 20
304.302399
 40
15.000000
 50
-49.252373
 51
49.252373
  0
LINE
  8
0
  6
CONTINUOUS
 10
361.532959
 20
274.196411
 11
383.286072
 21
292.938507
  0
LINE
  8
0
  6
CONTINUOUS
 10
361.532959
 20
334.408386
 11
383.286072
 21
315.666290
  0
ARC
  8
0
  6
CONTINUOUS
 10
363.164764
 20
272.302429
 40
2.500000
 50
130.747620
 51
180.000000
  0
ARC
  8
0
  6
CONTINUOUS
 10
363.164764
 20
262.351654
 40
2.500000
 50
92.000000
 51
180.000000
  0
ARC
  8
0
  6
CONTINUOUS
 10
363.164764
 20
336.302368
 40
2.500000
 50
180.000000
 51
229.252380
  0
ARC
  8
0
  6
CONTINUOUS
 10
363.164764
 20
346.253143
 40
2.500000
 50
180.000000
 51
268.000000
  0
LINE
  8
0
  6
CONTINUOUS
 10
359.539703
 20
42.670689
 11
352.664795
 21
42.670689
  0
LINE
  8
0
  6
CONTINUOUS
 10
360.664795
 20
30.824686
 11
360.664795
 21
32.873951
  0
ARC
  8
0
  6
CONTINUOUS
 10
358.164795
 20
30.824686
 40
2.500000
 50
-90.000000
 51
0.000000
  0
ARC
  8
0
  6
CONTINUOUS
 10
363.164795
 20
32.873951
 40
2.500000
 50
92.000000
 51
180.000000
  0
ARC
  8
0
  6
CONTINUOUS
 10
61.587502
 20
85.824692
 40
57.500000
 50
236.002823
 51
236.184402
  0
ARC
  8
0
  6
CONTINUOUS
 10
61.587502
 20
85.824692
 40
57.500000
 50
303.815582
 51
303.997162
  0
ARC
  8
0
  6
CONTINUOUS
 10
61.587502
 20
85.824692
 40
57.500000
 50
-33.997124
 51
19.823904
  0
ARC
  8
0
  6
CONTINUOUS
 10
61.587502
 20
85.824692
 40
57.500000
 50
146.593216
 51
213.997131
  0
LINE
  8
0
  6
CENTER
 10
287.914764
 20
168.574692
 11
287.914764
 21
5.074688
  0
LINE
  8
0
  6
CENTER
 10
327.972504
 20
116.324692
 11
242.652496
 21
116.324692
  0
LINE
  8
0
  6
CONTINUOUS
 10
340.914764
 20
11.324688
 11
234.914780
 21
11.324688
  0
LINE
  8
0
  6
CONTINUOUS
 10
306.344177
 20
161.324692
 11
269.485382
 21
161.324692
  0
LINE
  8
0
  6
CONTINUOUS
 10
234.914780
 20
135.714935
 11
234.914780
 21
11.324708
  0
LINE
  8
0
  6
CONTINUOUS
 10
340.914764
 20
36.324688
 11
340.914764
 21
11.324688
  0
LINE
  8
0
  6
CONTINUOUS
 10
352.664764
 20
143.074692
 11
335.041779
 21
143.074692
  0
LINE
  8
0
  6
CONTINUOUS
 10
352.664764
 20
28.574688
 11
345.914764
 21
28.574688
  0
LINE
  8
0
  6
CONTINUOUS
 10
344.664764
 20
40.324688
 11
344.664764
 21
131.324692
  0
LINE
  8
0
  6
CONTINUOUS
 10
237.055771
 20
139.816925
 11
266.626373
 21
160.426666
  0
LINE
  8
0
  6
CONTINUOUS
 10
338.773773
 20
139.816925
 11
309.203186
 21
160.426666
  0
LINE
  8
0
  6
CONTINUOUS
 10
306.976379
 20
23.324688
 11
340.914764
 21
23.324688
  0
LINE
  8
0
  6
CONTINUOUS
 10
301.353180
 20
33.324688
 11
274.476379
 21
33.324688
  0
LINE
  8
0
  6
CONTINUOUS
 10
272.914764
 20
31.887188
 11
272.914764
 21
24.324688
  0
LINE
  8
0
  6
CONTINUOUS
 10
302.914764
 20
31.699688
 11
302.914764
 21
24.324688
  0
LINE
  8
0
  6
CONTINUOUS
 10
305.035980
 20
24.839607
 11
303.293579
 21
31.809769
  0
LINE
  8
0
  6
CONTINUOUS
 10
270.793579
 20
24.839607
 11
272.535980
 21
31.809748
  0
LINE
  8
0
  6
CONTINUOUS
 10
334.914764
 20
22.262188
 11
334.914764
 21
11.324688
  0
LINE
  8
0
  6
CONTINUOUS
 10
240.914780
 20
22.262188
 11
240.914780
 21
11.324688
  0
LINE
  8
0
  6
CENTER
 10
322.914764
 20
27.074688
 11
322.914764
 21
7.074688
  0
LINE
  8
0
  6
CENTER
 10
252.914780
 20
28.074688
 11
252.914780
 21
7.574688
  0
LINE
  8
0
  6
DASHED
 10
328.414764
 20
23.324688
 11
328.414764
 21
11.324688
  0
LINE
  8
0
  6
DASHED
 10
317.414764
 20
23.324688
 11
317.414764
 21
11.324688
  0
LINE
  8
0
  6
DASHED
 10
258.414764
 20
23.324688
 11
258.414764
 21
11.324688
  0
LINE
  8
0
  6
DASHED
 10
247.414780
 20
23.324688
 11
247.414780
 21
11.324688
  0
ARC
  8
0
  6
CONTINUOUS
 10
269.485168
 20
156.324692
 40
5.000000
 50
90.000000
 51
124.875198
  0
ARC
  8
0
  6
CONTINUOUS
 10
306.344177
 20
156.324692
 40
5.000000
 50
55.124401
 51
90.000000
  0
ARC
  8
0
  6
CONTINUOUS
 10
239.914780
 20
135.714935
 40
5.000000
 50
124.875198
 51
180.000000
  0
ARC
  8
0
  6
CONTINUOUS
 10
335.914764
 20
135.714951
 40
5.000000
 50
0.000000
 51
55.124298
  0
LINE
  8
0
  6
CONTINUOUS
 10
352.664764
 20
133.324692
 11
342.914764
 21
133.324692
  0
LINE
  8
0
  6
CONTINUOUS
 10
346.664764
 20
38.324688
 11
352.664764
 21
38.324688
  0
LINE
  8
0
  6
CONTINUOUS
 10
352.664764
 20
117.784691
 11
345.789764
 21
117.784691
  0
LINE
  8
0
  6
CONTINUOUS
 10
352.664764
 20
53.864689
 11
345.664764
 21
53.864689
  0
ARC
  8
0
  6
CONTINUOUS
 10
335.041779
 20
146.074692
 40
3.000000
 50
-124.875397
 51
-90.000000
  0
ARC
  8
0
  6
CONTINUOUS
 10
346.664764
 20
131.324692
 40
2.000000
 50
90.000000
 51
180.000000
  0
ARC
  8
0
  6
CONTINUOUS
 10
342.914764
 20
135.324692
 40
2.000000
 50
180.000000
 51
270.000000
  0
LINE
  8
0
  6
CONTINUOUS
 10
340.914764
 20
135.714951
 11
340.914764
 21
135.324692
  0
ARC
  8
0
  6
CONTINUOUS
 10
342.914764
 20
36.324688
 40
2.000000
 50
90.000000
 51
180.000000
  0
LINE
  8
0
  6
CONTINUOUS
 10
346.664764
 20
38.324688
 11
342.914764
 21
38.324688
  0
ARC
  8
0
  6
CONTINUOUS
 10
346.664764
 20
40.324688
 40
2.000000
 50
180.000000
 51
270.000000
  0
ARC
  8
0
  6
CONTINUOUS
 10
345.914764
 20
23.574669
 40
5.000000
 50
90.000000
 51
180.000000
  0
ARC
  8
0
  6
CONTINUOUS
 10
274.476379
 20
31.324688
 40
2.000000
 50
90.000000
 51
165.963593
  0
ARC
  8
0
  6
CONTINUOUS
 10
301.353180
 20
31.324688
 40
2.000000
 50
14.036100
 51
90.000000
  0
LINE
  8
0
  6
CONTINUOUS
 10
268.853180
 20
23.324688
 11
234.914780
 21
23.324688
  0
ARC
  8
0
  6
CONTINUOUS
 10
306.976379
 20
25.324688
 40
2.000000
 50
-165.963699
 51
-90.000000
  0
LINE
  8
0
  6
CONTINUOUS
 10
268.853180
 20
23.324688
 11
306.976379
 21
23.324688
  0
ARC
  8
0
  6
CONTINUOUS
 10
268.853180
 20
25.324688
 40
2.000000
 50
-90.000000
 51
-14.036190
  0
ARC
  8
0
  6
CONTINUOUS
 10
303.914764
 20
24.324688
 40
1.000000
 50
180.000000
 51
270.000000
  0
ARC
  8
0
  6
CONTINUOUS
 10
271.914764
 20
24.324688
 40
1.000000
 50
-90.000000
 51
0.000000
  0
LINE
  8
0
  6
CONTINUOUS
 10
237.914780
 20
119.824692
 11
237.914780
 21
75.963997
  0
LINE
  8
0
  6
CONTINUOUS
 10
337.914764
 20
120.685371
 11
337.914764
 21
74.351303
  0
ARC
  8
0
  6
CONTINUOUS
 10
287.914764
 20
98.324699
 40
60.000000
 50
48.189621
 51
131.810394
  0
ARC
  8
0
  6
CONTINUOUS
 10
287.914764
 20
98.324699
 40
60.000000
 50
228.189697
 51
309.631744
  0
ARC
  8
0
  6
CONTINUOUS
 10
307.914764
 20
120.685371
 40
30.000000
 50
0.000000
 51
48.189629
  0
CIRCLE
  8
0
  6
CONTINUOUS
 10
287.914764
 20
116.324692
 40
27.500000
  0
ARC
  8
0
  6
CONTINUOUS
 10
287.914764
 20
116.324692
 40
31.750000
 50
7.552697
 51
172.447403
  0
ARC
  8
0
  6
CONTINUOUS
 10
271.164764
 20
74.824692
 40
20.600000
 50
172.447403
 51
270.000000
  0
ARC
  8
0
  6
CONTINUOUS
 10
304.664764
 20
74.824692
 40
20.600000
 50
-90.000000
 51
7.552700
  0
LINE
  8
0
  6
CONTINUOUS
 10
319.389374
 20
120.497849
 11
325.085968
 21
77.532310
  0
LINE
  8
0
  6
CONTINUOUS
 10
250.743576
 20
77.532272
 11
256.440186
 21
120.497787
  0
LINE
  8
0
  6
CONTINUOUS
 10
271.164764
 20
54.224689
 11
304.664764
 21
54.224689
  0
ARC
  8
0
  6
CONTINUOUS
 10
271.164764
 20
74.824692
 40
19.000000
 50
172.447601
 51
270.000000
  0
ARC
  8
0
  6
CONTINUOUS
 10
304.664764
 20
74.824692
 40
19.000000
 50
-90.000000
 51
7.552700
  0
ARC
  8
0
  6
CONTINUOUS
 10
287.914764
 20
116.324692
 40
30.150000
 50
-187.552597
 51
7.552697
  0
LINE
  8
0
  6
CONTINUOUS
 10
252.329575
 20
77.321983
 11
258.026367
 21
120.287506
  0
LINE
  8
0
  6
CONTINUOUS
 10
317.803162
 20
120.287544
 11
323.499969
 21
77.322014
  0
LINE
  8
0
  6
CONTINUOUS
 10
271.164764
 20
55.824688
 11
304.664764
 21
55.824688
  0
LINE
  8
0
  6
CONTINUOUS
 10
277.618378
 20
63.324688
 11
273.457977
 21
63.324688
  0
LINE
  8
0
  6
CONTINUOUS
 10
279.914764
 20
70.293442
 11
279.914764
 21
63.324688
  0
LINE
  8
0
  6
CONTINUOUS
 10
283.914764
 20
72.824692
 11
283.914764
 21
75.324692
  0
LINE
  8
0
  6
CONTINUOUS
 10
291.914764
 20
72.824692
 11
291.914764
 21
75.324692
  0
LINE
  8
0
  6
CONTINUOUS
 10
287.133575
 20
73.855942
 11
287.133575
 21
64.637192
  0
LINE
  8
0
  6
CONTINUOUS
 10
288.633575
 20
73.855942
 11
288.633575
 21
64.637192
  0
LINE
  8
0
  6
CONTINUOUS
 10
296.508575
 20
73.855942
 11
296.508575
 21
64.574692
  0
LINE
  8
0
  6
CONTINUOUS
 10
297.883575
 20
68.934059
 11
297.883575
 21
64.574692
  0
LINE
  8
0
  6
CONTINUOUS
 10
278.016785
 20
73.730942
 11
274.161774
 21
73.730942
  0
LINE
  8
0
  6
CONTINUOUS
 10
274.161774
 20
73.730942
 11
273.258575
 21
72.610939
  0
LINE
  8
0
  6
CONTINUOUS
 10
273.367188
 20
75.324692
 11
271.914764
 21
73.464935
  0
LINE
  8
0
  6
CONTINUOUS
 10
273.258575
 20
65.697609
 11
274.176178
 21
64.730927
  0
LINE
  8
0
  6
CONTINUOUS
 10
271.914764
 20
64.881851
 11
273.457977
 21
63.324688
  0
LINE
  8
0
  6
CONTINUOUS
 10
271.914764
 20
73.464935
 11
271.914764
 21
64.881851
  0
LINE
  8
0
  6
CONTINUOUS
 10
273.258575
 20
72.610939
 11
273.258575
 21
65.697609
  0
LINE
  8
0
  6
CONTINUOUS
 10
278.758575
 20
73.013840
 11
278.001587
 21
73.730942
  0
LINE
  8
0
  6
CONTINUOUS
 10
278.746582
 20
75.324692
 11
279.914764
 21
74.028191
  0
LINE
  8
0
  6
CONTINUOUS
 10
278.758575
 20
72.824692
 11
279.914764
 21
72.824692
  0
LINE
  8
0
  6
CONTINUOUS
 10
273.367188
 20
75.324692
 11
278.746582
 21
75.324692
  0
LINE
  8
0
  6
CONTINUOUS
 10
276.664764
 20
70.293442
 11
279.914764
 21
70.293442
  0
LINE
  8
0
  6
CONTINUOUS
 10
278.758575
 20
68.980942
 11
276.664764
 21
68.980942
  0
LINE
  8
0
  6
CONTINUOUS
 10
276.258575
 20
64.730927
 11
274.176178
 21
64.730927
  0
LINE
  8
0
  6
CONTINUOUS
 10
278.758575
 20
67.730942
 11
278.758575
 21
68.730942
  0
ARC
  8
0
  6
CONTINUOUS
 10
276.258575
 20
67.230927
 40
2.500000
 50
-89.999786
 51
0.000109
  0
LINE
  8
0
  6
CONTINUOUS
 10
278.758575
 20
64.281250
 11
278.758575
 21
63.324688
  0
LINE
  8
0
  6
CONTINUOUS
 10
279.914764
 20
74.028191
 11
279.914764
 21
72.824692
  0
LINE
  8
0
  6
CONTINUOUS
 10
278.758575
 20
68.980942
 11
278.758575
 21
67.230942
  0
LINE
  8
0
  6
CONTINUOUS
 10
276.664764
 20
70.293442
 11
276.664764
 21
68.980942
  0
LINE
  8
0
  6
CONTINUOUS
 10
278.758575
 20
63.324688
 11
279.914764
 21
63.324688
  0
LINE
  8
0
  6
CONTINUOUS
 10
278.758575
 20
64.281250
 11
277.618378
 21
63.324688
  0
LINE
  8
0
  6
CONTINUOUS
 10
288.633575
 20
64.637192
 11
289.133575
 21
64.637192
  0
LINE
  8
0
  6
CONTINUOUS
 10
286.539764
 20
64.637192
 11
286.539764
 21
63.324688
  0
LINE
  8
0
  6
CONTINUOUS
 10
289.133575
 20
64.637192
 11
289.133575
 21
63.324688
  0
LINE
  8
0
  6
CONTINUOUS
 10
291.080383
 20
72.824692
 11
291.914764
 21
72.824692
  0
LINE
  8
0
  6
CONTINUOUS
 10
283.914764
 20
72.824692
 11
284.802765
 21
72.824692
  0
LINE
  8
0
  6
CONTINUOUS
 10
283.914764
 20
75.324692
 11
291.914764
 21
75.324692
  0
LINE
  8
0
  6
CONTINUOUS
 10
286.539764
 20
63.324688
 11
289.133575
 21
63.324688
  0
LINE
  8
0
  6
CONTINUOUS
 10
286.539764
 20
64.637192
 11
287.133575
 21
64.637192
  0
ARC
  8
0
  6
CONTINUOUS
 10
300.711578
 20
72.121559
 40
3.203126
 50
-73.981873
 51
90.003510
  0
ARC
  8
0
  6
CONTINUOUS
 10
300.711578
 20
72.121559
 40
1.954124
 50
-82.585274
 51
62.411850
  0
LINE
  8
0
  6
CONTINUOUS
 10
295.914764
 20
75.324692
 11
300.711578
 21
75.324692
  0
LINE
  8
0
  6
CONTINUOUS
 10
300.963776
 20
70.183777
 11
297.883575
 21
70.183777
  0
LINE
  8
0
  6
CONTINUOUS
 10
295.914764
 20
75.324692
 11
295.914764
 21
73.855942
  0
LINE
  8
0
  6
CONTINUOUS
 10
297.883575
 20
73.855942
 11
297.883575
 21
70.183777
  0
LINE
  8
0
  6
CONTINUOUS
 10
301.595581
 20
69.042801
 11
303.577972
 21
64.574692
  0
LINE
  8
0
  6
CONTINUOUS
 10
300.443970
 20
68.934059
 11
302.320160
 21
64.574692
  0
LINE
  8
0
  6
CONTINUOUS
 10
295.914764
 20
64.574692
 11
296.508575
 21
64.574692
  0
LINE
  8
0
  6
CONTINUOUS
 10
297.883575
 20
64.574692
 11
298.430389
 21
64.574692
  0
LINE
  8
0
  6
CONTINUOUS
 10
298.430389
 20
63.324688
 11
295.914764
 21
63.324688
  0
LINE
  8
0
  6
CONTINUOUS
 10
302.070984
 20
64.574692
 11
302.320160
 21
64.574692
  0
LINE
  8
0
  6
CONTINUOUS
 10
302.070984
 20
63.324688
 11
303.914764
 21
63.324688
  0
LINE
  8
0
  6
CONTINUOUS
 10
302.070984
 20
64.574692
 11
302.070984
 21
63.324688
  0
LINE
  8
0
  6
CONTINUOUS
 10
298.430389
 20
64.574692
 11
298.430389
 21
63.324688
  0
LINE
  8
0
  6
CONTINUOUS
 10
295.914764
 20
64.574692
 11
295.914764
 21
63.324688
  0
LINE
  8
0
  6
CONTINUOUS
 10
285.232574
 20
73.855942
 11
284.802765
 21
72.824692
  0
LINE
  8
0
  6
CONTINUOUS
 10
290.717987
 20
73.855942
 11
291.080383
 21
72.824692
  0
LINE
  8
0
  6
CONTINUOUS
 10
288.633575
 20
73.855942
 11
290.717987
 21
73.855942
  0
LINE
  8
0
  6
CONTINUOUS
 10
287.133575
 20
73.855942
 11
285.232574
 21
73.855942
  0
LINE
  8
0
  6
CONTINUOUS
 10
297.883575
 20
68.934059
 11
300.443970
 21
68.934059
  0
LINE
  8
0
  6
CONTINUOUS
 10
295.914764
 20
73.855942
 11
296.508575
 21
73.855942
  0
LINE
  8
0
  6
CONTINUOUS
 10
297.883575
 20
73.855942
 11
301.616577
 21
73.853516
  0
LINE
  8
0
  6
CONTINUOUS
 10
278.758575
 20
73.013840
 11
278.758575
 21
72.824692
  0
ARC
  8
0
  6
CONTINUOUS
 10
267.914764
 20
120.685387
 40
30.000000
 50
131.810394
 51
181.671204
  0
ARC
  8
0
  6
CONTINUOUS
 10
307.914764
 20
75.963997
 40
30.043320
 50
307.456360
 51
356.922760
  0
ARC
  8
0
  6
CONTINUOUS
 10
267.914764
 20
75.963997
 40
30.000000
 50
180.000000
 51
228.189697
  0
LINE
  8
0
  6
CONTINUOUS
 10
280.414764
 20
119.324692
 11
280.414764
 21
113.324692
  0
LINE
  8
0
  6
CONTINUOUS
 10
274.414764
 20
119.324692
 11
274.414764
 21
113.324692
  0
LINE
  8
0
  6
CONTINUOUS
 10
274.414764
 20
119.324692
 11
280.414764
 21
119.324692
  0
LINE
  8
0
  6
CONTINUOUS
 10
274.414764
 20
113.324692
 11
280.414764
 21
113.324692
  0
ARC
  8
0
  6
CONTINUOUS
 10
287.914764
 20
116.324692
 40
11.000000
 50
-164.173401
 51
164.173401
  0
LINE
  8
0
  6
CONTINUOUS
 10
352.664764
 20
143.324585
 11
352.664764
 21
28.324787
  0
LINE
  8
0
  6
CONTINUOUS
 10
528.664673
 20
296.802429
 11
527.664673
 21
296.802429
  0
ARC
  8
0
  6
CONTINUOUS
 10
528.664612
 20
297.802429
 40
1.000000
 50
-90.000000
 51
0.000000
  0
LINE
  8
0
  6
CONTINUOUS
 10
533.164612
 20
300.302429
 11
533.164612
 21
308.302429
  0
LINE
  8
0
  6
CONTINUOUS
 10
533.164612
 20
300.302429
 11
529.664612
 21
298.802429
  0
LINE
  8
0
  6
CONTINUOUS
 10
533.164673
 20
308.302429
 11
529.664673
 21
309.802429
  0
LINE
  8
0
  6
CONTINUOUS
 10
529.664612
 20
297.802429
 11
529.664612
 21
310.802429
  0
LINE
  8
0
  6
CONTINUOUS
 10
528.664673
 20
311.802429
 11
527.664673
 21
311.802429
  0
ARC
  8
0
  6
CONTINUOUS
 10
528.664612
 20
310.802429
 40
1.000000
 50
0.000000
 51
90.000000
  0
LINE
  8
0
  6
CONTINUOUS
 10
527.664673
 20
327.302429
 11
527.664673
 21
281.302429
  0
LINE
  8
0
  6
CONTINUOUS
 10
525.664673
 20
279.302429
 11
527.664673
 21
281.302429
  0
LINE
  8
0
  6
CONTINUOUS
 10
525.664673
 20
279.302429
 11
479.664673
 21
279.302429
  0
LINE
  8
0
  6
CONTINUOUS
 10
485.164642
 20
283.802429
 11
485.164642
 21
279.302429
  0
ARC
  8
0
  6
CONTINUOUS
 10
482.164642
 20
283.802429
 40
3.000000
 50
0.000000
 51
90.000000
  0
LINE
  8
0
  6
CONTINUOUS
 10
482.164642
 20
286.802429
 11
477.664673
 21
286.802429
  0
CIRCLE
  8
0
  6
CONTINUOUS
 10
481.164642
 20
282.802429
 40
2.250000
  0
LINE
  8
0
  6
CONTINUOUS
 10
477.664673
 20
327.302429
 11
477.664673
 21
281.302429
  0
LINE
  8
0
  6
CONTINUOUS
 10
479.664673
 20
279.302429
 11
477.664673
 21
281.302429
  0
LINE
  8
0
  6
CONTINUOUS
 10
479.664673
 20
329.302429
 11
477.664673
 21
327.302429
  0
LINE
  8
0
  6
CONTINUOUS
 10
479.664673
 20
329.302429
 11
525.664673
 21
329.302429
  0
LINE
  8
0
  6
CONTINUOUS
 10
527.664673
 20
327.302429
 11
525.664673
 21
329.302429
  0
LINE
  8
0
  6
CONTINUOUS
 10
523.164673
 20
321.802429
 11
527.664673
 21
321.802429
  0
CIRCLE
  8
0
  6
CONTINUOUS
 10
524.164673
 20
325.802429
 40
2.250000
  0
ARC
  8
0
  6
CONTINUOUS
 10
523.164673
 20
324.802429
 40
3.000000
 50
180.000000
 51
270.000000
  0
LINE
  8
0
  6
CONTINUOUS
 10
520.164673
 20
324.802429
 11
520.164673
 21
329.302429
  0
LINE
  8
0
  6
CENTER
 10
502.664642
 20
336.768188
 11
502.664642
 21
272.636169
  0
LINE
  8
0
  6
CONTINUOUS
 10
525.250427
 20
280.302429
 11
526.664673
 21
281.716644
  0
LINE
  8
0
  6
CONTINUOUS
 10
526.664673
 20
321.802429
 11
526.664673
 21
281.716644
  0
LINE
  8
0
  6
CONTINUOUS
 10
485.164642
 20
280.302429
 11
525.250427
 21
280.302429
  0
LINE
  8
0
  6
CONTINUOUS
 10
478.664673
 20
286.802429
 11
478.664673
 21
326.888214
  0
LINE
  8
0
  6
CONTINUOUS
 10
520.164673
 20
328.302429
 11
480.078857
 21
328.302429
  0
LINE
  8
0
  6
CONTINUOUS
 10
480.078857
 20
328.302429
 11
478.664673
 21
326.888214
  0
LINE
  8
0
  6
CONTINUOUS
 10
526.164795
 20
114.324707
 11
479.664795
 21
114.324707
  0
LINE
  8
0
  6
CONTINUOUS
 10
477.664795
 20
144.324707
 11
477.664795
 21
116.324707
  0
LINE
  8
0
  6
CONTINUOUS
 10
527.664795
 20
144.324707
 11
527.664795
 21
116.324707
  0
LINE
  8
0
  6
CONTINUOUS
 10
529.664795
 20
126.324707
 11
477.664795
 21
126.324707
  0
LINE
  8
0
  6
CONTINUOUS
 10
479.664795
 20
114.324707
 11
477.664795
 21
116.324707
  0
LINE
  8
0
  6
CONTINUOUS
 10
527.664795
 20
116.324707
 11
525.664795
 21
114.324707
  0
LINE
  8
0
  6
CONTINUOUS
 10
527.664795
 20
116.324707
 11
477.664795
 21
116.324707
  0
LINE
  8
0
  6
CONTINUOUS
 10
526.664795
 20
145.324707
 11
478.664795
 21
145.324707
  0
LINE
  8
0
  6
CONTINUOUS
 10
478.664795
 20
145.324707
 11
477.664795
 21
144.324707
  0
LINE
  8
0
  6
CONTINUOUS
 10
526.664795
 20
145.324707
 11
527.664795
 21
144.324707
  0
LINE
  8
0
  6
CONTINUOUS
 10
527.664795
 20
144.324707
 11
477.664795
 21
144.324707
  0
LINE
  8
0
  6
CENTER
 10
535.608521
 20
135.824707
 11
523.533508
 21
135.824707
  0
LINE
  8
0
  6
CONTINUOUS
 10
529.664795
 20
142.324707
 11
529.664795
 21
126.324707
  0
LINE
  8
0
  6
CONTINUOUS
 10
528.664795
 20
143.324707
 11
527.664795
 21
143.324707
  0
ARC
  8
0
  6
CONTINUOUS
 10
528.664795
 20
142.324707
 40
1.000000
 50
0.000000
 51
90.000000
  0
LINE
  8
0
  6
CONTINUOUS
 10
533.164795
 20
139.824707
 11
533.164795
 21
131.824707
  0
LINE
  8
0
  6
CONTINUOUS
 10
533.164795
 20
139.824707
 11
529.664795
 21
141.324707
  0
LINE
  8
0
  6
CONTINUOUS
 10
533.164795
 20
131.824707
 11
529.664795
 21
130.324707
  0
LINE
  8
0
  6
CENTER
 10
502.664795
 20
109.630959
 11
502.664795
 21
150.712204
  0
LINE
  8
0
  6
CONTINUOUS
 10
526.164795
 20
114.324707
 11
526.164795
 21
112.824707
  0
LINE
  8
0
  6
CONTINUOUS
 10
480.164795
 20
114.324707
 11
480.164795
 21
112.824707
  0
LINE
  8
0
  6
CONTINUOUS
 10
360.664795
 20
65.424690
 11
404.664795
 21
65.424690
  0
LINE
  8
0
  6
CONTINUOUS
 10
360.664795
 20
55.224689
 11
404.664795
 21
55.224689
  0
TEXT
  8
0
 10
-11.000000
 20
-4.000000
 40
4.000000
 41
1.000000
  1
HLM-22L-300~900-T25T
 50
0.000000
  0
ENDSEC
  0
EOF
