  0
SECTION
  2
HEADER
  9
$CLAYER
  8
1
  9
$LTSCALE
 40
3.0
  0
ENDSEC
  0
SECTION
  2
TABLES
  0
TABLE
  2
LTYPE
 70
     4
  0
LTYPE
  2
CONTINUOUS
  3
solid line
 70
    64
 72
    65
 73
     0
 40
0.0
  0
LTYPE
  2
DASHED
  3
__ __ __ __ __ __ __ __ __ __ __ __ __ __ __
 70
    64
 72
    65
 73
     2
 40
0.75
 49
0.5
 49
-0.25
  0
LTYPE
  2
CENTER
  3
____ _ ____ _ ____ _ ____ _ ____ _ ____ _ ____
 70
    64
 72
    65
 73
     4
 40
2.0
 49
1.25
 49
-0.25
 49
0.25
 49
-0.25
  0
LTYPE
  2
PHANTOM
  3
_____ _ _ _____ _ _ _____ _ _ _____ _ _ ____
 70
    64
 72
    65
 73
     6
 40
2.5
 49
1.25
 49
-0.25
 49
0.25
 49
-0.25
 49
0.25
 49
-0.25
  0
ENDTAB
  0
TABLE
  2
LAYER
 70
     1
  0
LAYER
  2
0
 70
    64
 62
     7
  6
CONTINUOUS
  0
ENDTAB
  0
TABLE
  2
STYLE
 70
     1
  0
STYLE
  2
STANDARD
 70
     0
 40
0.000000
 41
1.000000
 50
0.000000
 71
     0
 42
3.000000
  3
txt
  4
BIGFONT
  0
ENDTAB
  0
ENDSEC
  0
SECTION
  2
BLOCKS
  0
ENDSEC
  0
SECTION
  2
ENTITIES
  0
LINE
  8
0
  6
CENTER
 10
438.751251
 20
81.519691
 11
325.654785
 21
81.519691
  0
LINE
  8
0
  6
CONTINUOUS
 10
524.404785
 20
32.519707
 11
524.404785
 21
108.519691
  0
LINE
  8
0
  6
CONTINUOUS
 10
524.404785
 20
108.519669
 11
410.404785
 21
108.519669
  0
LINE
  8
0
  6
CONTINUOUS
 10
524.404785
 20
32.519707
 11
410.404785
 21
32.519707
  0
LINE
  8
0
  6
CONTINUOUS
 10
524.404785
 20
100.768669
 11
418.404785
 21
100.768669
  0
LINE
  8
0
  6
CONTINUOUS
 10
524.404785
 20
40.270706
 11
418.404785
 21
40.270706
  0
LINE
  8
0
  6
CONTINUOUS
 10
418.404785
 20
106.519669
 11
418.404785
 21
34.519688
  0
ARC
  8
0
  6
CONTINUOUS
 10
416.404785
 20
106.519691
 40
2.000000
 50
0.000000
 51
90.000000
  0
ARC
  8
0
  6
CONTINUOUS
 10
416.404785
 20
34.519707
 40
2.000000
 50
-90.000000
 51
0.000000
  0
LINE
  8
0
  6
CONTINUOUS
 10
544.904785
 20
38.519688
 11
544.904785
 21
102.519691
  0
LINE
  8
0
  6
CONTINUOUS
 10
540.940735
 20
108.519691
 11
524.404785
 21
108.519691
  0
LINE
  8
0
  6
CONTINUOUS
 10
540.940674
 20
32.519688
 11
524.404785
 21
32.519688
  0
LINE
  8
0
  6
CONTINUOUS
 10
544.404785
 20
35.519688
 11
544.404785
 21
105.519691
  0
LINE
  8
0
  6
CONTINUOUS
 10
544.904785
 20
102.519691
 11
544.404785
 21
103.019691
  0
LINE
  8
0
  6
CONTINUOUS
 10
544.904785
 20
38.519688
 11
544.404785
 21
38.019688
  0
LINE
  8
0
  6
CONTINUOUS
 10
543.538757
 20
107.019669
 11
544.404785
 21
105.519691
  0
ARC
  8
0
  6
CONTINUOUS
 10
540.940674
 20
105.519707
 40
3.000000
 50
29.999599
 51
90.000000
  0
LINE
  8
0
  6
CONTINUOUS
 10
543.538757
 20
34.019707
 11
544.404785
 21
35.519688
  0
ARC
  8
0
  6
CONTINUOUS
 10
540.940674
 20
35.519688
 40
3.000000
 50
270.000000
 51
330.000397
  0
LINE
  8
0
  6
CONTINUOUS
 10
542.823181
 20
100.768700
 11
524.404785
 21
100.768700
  0
LINE
  8
0
  6
CONTINUOUS
 10
524.404785
 20
40.270687
 11
542.823181
 21
40.270687
  0
LINE
  8
0
  6
CENTER
 10
67.327499
 20
-8.605333
 11
67.327499
 21
170.944687
  0
LINE
  8
0
  6
CENTER
 10
-2.897500
 20
81.519691
 11
136.227493
 21
81.519691
  0
LINE
  8
0
  6
CENTER
 10
8.330469
 20
112.019691
 11
170.577499
 21
112.019691
  0
LINE
  8
0
  6
CONTINUOUS
 10
9.327500
 20
7.019687
 11
42.327499
 21
7.019687
  0
LINE
  8
0
  6
CONTINUOUS
 10
9.327500
 20
17.646088
 11
9.327500
 21
7.019687
  0
LINE
  8
0
  6
CONTINUOUS
 10
125.327499
 20
17.646088
 11
125.327499
 21
7.019687
  0
LINE
  8
0
  6
CONTINUOUS
 10
11.327500
 20
19.019688
 11
32.327499
 21
19.019688
  0
LINE
  8
0
  6
CONTINUOUS
 10
123.327499
 20
19.019688
 11
102.327499
 21
19.019688
  0
LINE
  8
0
  6
CONTINUOUS
 10
35.327499
 20
30.393288
 11
35.327499
 21
154.495605
  0
LINE
  8
0
  6
CONTINUOUS
 10
99.327499
 20
30.393288
 11
99.327499
 21
154.495972
  0
LINE
  8
0
  6
CONTINUOUS
 10
97.362297
 20
156.495667
 11
67.327499
 21
157.019684
  0
LINE
  8
0
  6
CONTINUOUS
 10
37.292500
 20
156.495331
 11
67.327499
 21
157.019684
  0
ARC
  8
0
  6
CONTINUOUS
 10
37.327499
 20
154.495621
 40
2.000000
 50
91.000580
 51
180.000000
  0
ARC
  8
0
  6
CONTINUOUS
 10
97.327499
 20
154.495972
 40
2.000000
 50
0.000000
 51
89.000519
  0
LINE
  8
0
  6
CONTINUOUS
 10
99.327499
 20
22.019688
 11
99.327499
 21
7.019687
  0
ARC
  8
0
  6
CONTINUOUS
 10
102.327499
 20
22.019688
 40
3.000000
 50
180.000000
 51
270.000000
  0
LINE
  8
0
  6
CONTINUOUS
 10
35.327499
 20
22.019688
 11
35.327499
 21
7.019687
  0
ARC
  8
0
  6
CONTINUOUS
 10
32.327499
 20
22.019667
 40
3.000000
 50
-90.000000
 51
0.000000
  0
ARC
  8
0
  6
CONTINUOUS
 10
11.327500
 20
17.019688
 40
2.000000
 50
90.000000
 51
180.000000
  0
ARC
  8
0
  6
CONTINUOUS
 10
123.327499
 20
17.019688
 40
2.000000
 50
0.000000
 51
90.000000
  0
LINE
  8
0
  6
CENTER
 10
22.327499
 20
23.309689
 11
22.327499
 21
2.909688
  0
LINE
  8
0
  6
CENTER
 10
112.327499
 20
24.329687
 11
112.327499
 21
2.399687
  0
LINE
  8
0
  6
CONTINUOUS
 10
34.045502
 20
28.526608
 11
10.609500
 21
19.512789
  0
ARC
  8
0
  6
CONTINUOUS
 10
11.327500
 20
17.646107
 40
2.000000
 50
111.037903
 51
180.000000
  0
LINE
  8
0
  6
CONTINUOUS
 10
35.327499
 20
30.393288
 11
35.327499
 21
22.019688
  0
ARC
  8
0
  6
CONTINUOUS
 10
33.327499
 20
30.393288
 40
2.000000
 50
-68.962189
 51
0.000000
  0
LINE
  8
0
  6
CONTINUOUS
 10
100.609497
 20
28.526588
 11
124.045502
 21
19.512789
  0
ARC
  8
0
  6
CONTINUOUS
 10
123.327499
 20
17.646088
 40
2.000000
 50
0.000000
 51
68.962646
  0
LINE
  8
0
  6
CONTINUOUS
 10
99.327499
 20
30.393288
 11
99.327499
 21
22.019688
  0
ARC
  8
0
  6
CONTINUOUS
 10
101.327499
 20
30.393309
 40
2.000000
 50
180.000000
 51
248.962799
  0
LINE
  8
0
  6
CONTINUOUS
 10
19.327499
 20
86.826836
 11
19.327499
 21
137.212524
  0
LINE
  8
0
  6
CONTINUOUS
 10
115.327499
 20
86.826843
 11
115.327499
 21
137.212524
  0
LINE
  8
0
  6
CONTINUOUS
 10
105.327499
 20
53.824528
 11
105.327499
 21
114.089691
  0
LINE
  8
0
  6
CONTINUOUS
 10
29.327499
 20
53.824528
 11
29.327499
 21
114.089691
  0
LINE
  8
0
  6
CONTINUOUS
 10
113.097702
 20
140.111984
 11
101.557297
 21
143.177383
  0
LINE
  8
0
  6
CONTINUOUS
 10
113.097702
 20
83.927383
 11
107.557297
 21
82.455734
  0
LINE
  8
0
  6
CONTINUOUS
 10
103.100502
 20
50.925827
 11
101.554497
 21
50.513546
  0
LINE
  8
0
  6
CONTINUOUS
 10
31.554501
 20
50.925808
 11
33.100498
 21
50.513546
  0
LINE
  8
0
  6
CONTINUOUS
 10
21.557301
 20
83.927383
 11
27.097700
 21
82.455734
  0
LINE
  8
0
  6
CONTINUOUS
 10
21.557301
 20
140.111984
 11
33.097698
 21
143.177383
  0
ARC
  8
0
  6
CONTINUOUS
 10
22.327499
 20
137.212540
 40
3.000000
 50
104.876099
 51
180.000000
  0
ARC
  8
0
  6
CONTINUOUS
 10
22.327499
 20
86.826859
 40
3.000000
 50
180.000000
 51
255.124603
  0
ARC
  8
0
  6
CONTINUOUS
 10
112.327499
 20
137.212524
 40
3.000000
 50
0.000000
 51
75.124413
  0
ARC
  8
0
  6
CONTINUOUS
 10
112.327499
 20
86.826836
 40
3.000000
 50
-75.124207
 51
0.000000
  0
ARC
  8
0
  6
CONTINUOUS
 10
32.327499
 20
53.824547
 40
3.000000
 50
180.000000
 51
255.069000
  0
ARC
  8
0
  6
CONTINUOUS
 10
102.327499
 20
53.824528
 40
3.000000
 50
-75.068420
 51
0.000000
  0
ARC
  8
0
  6
CONTINUOUS
 10
102.327499
 20
146.076874
 40
3.000000
 50
180.000000
 51
255.124603
  0
ARC
  8
0
  6
CONTINUOUS
 10
108.327499
 20
79.556297
 40
3.000000
 50
104.876099
 51
180.000000
  0
ARC
  8
0
  6
CONTINUOUS
 10
102.327499
 20
47.614868
 40
3.000000
 50
104.931801
 51
180.000000
  0
ARC
  8
0
  6
CONTINUOUS
 10
32.327499
 20
47.614849
 40
3.000000
 50
0.000000
 51
75.068779
  0
ARC
  8
0
  6
CONTINUOUS
 10
26.327499
 20
79.556267
 40
3.000000
 50
0.000000
 51
75.124496
  0
ARC
  8
0
  6
CONTINUOUS
 10
32.327499
 20
146.076828
 40
3.000000
 50
-75.124153
 51
0.000000
  0
LINE
  8
0
  6
DASHED
 10
16.827499
 20
19.019688
 11
16.827499
 21
7.019687
  0
LINE
  8
0
  6
DASHED
 10
27.827499
 20
19.019688
 11
27.827499
 21
7.019687
  0
LINE
  8
0
  6
DASHED
 10
106.827499
 20
19.019688
 11
106.827499
 21
7.019687
  0
LINE
  8
0
  6
DASHED
 10
117.827499
 20
19.019688
 11
117.827499
 21
7.019687
  0
LINE
  8
0
  6
CONTINUOUS
 10
37.557499
 20
134.019684
 11
97.227501
 21
134.019684
  0
LINE
  8
0
  6
CONTINUOUS
 10
19.827499
 20
39.019688
 11
19.827499
 21
48.071030
  0
LINE
  8
0
  6
CONTINUOUS
 10
114.827499
 20
39.019688
 11
114.827499
 21
48.071030
  0
LINE
  8
0
  6
CONTINUOUS
 10
24.827499
 20
34.019688
 11
33.858700
 21
34.019688
  0
LINE
  8
0
  6
CONTINUOUS
 10
109.827499
 20
34.019688
 11
100.776100
 21
34.019688
  0
ARC
  8
0
  6
CONTINUOUS
 10
67.327499
 20
81.519691
 40
57.250000
 50
-32.501888
 51
19.914110
  0
ARC
  8
0
  6
CONTINUOUS
 10
67.327499
 20
81.519691
 40
57.250000
 50
146.974487
 51
212.501907
  0
ARC
  8
0
  6
CONTINUOUS
 10
24.827499
 20
39.019688
 40
5.000000
 50
180.000000
 51
270.000000
  0
ARC
  8
0
  6
CONTINUOUS
 10
109.827499
 20
39.019688
 40
5.000000
 50
-90.000000
 51
0.000000
  0
ARC
  8
0
  6
CONTINUOUS
 10
33.878899
 20
29.019688
 40
5.000000
 50
73.928284
 51
90.230461
  0
ARC
  8
0
  6
CONTINUOUS
 10
100.776100
 20
29.019688
 40
5.000000
 50
90.000000
 51
106.071800
  0
ARC
  8
0
  6
CONTINUOUS
 10
14.827500
 20
48.071030
 40
5.000000
 50
0.000000
 51
32.499691
  0
ARC
  8
0
  6
CONTINUOUS
 10
119.827499
 20
48.071030
 40
5.000000
 50
147.498306
 51
180.000000
  0
LINE
  8
0
  6
CONTINUOUS
 10
101.327499
 20
32.519688
 11
99.327499
 21
32.519688
  0
LINE
  8
0
  6
CONTINUOUS
 10
33.327499
 20
32.519688
 11
35.327499
 21
32.519688
  0
ARC
  8
0
  6
CONTINUOUS
 10
101.327499
 20
36.519688
 40
4.000000
 50
270.000000
 51
322.311005
  0
ARC
  8
0
  6
CONTINUOUS
 10
33.327499
 20
36.519688
 40
4.000000
 50
218.645996
 51
270.000000
  0
LINE
  8
0
  6
CONTINUOUS
 10
157.327499
 20
101.019691
 11
157.327499
 21
123.019691
  0
LINE
  8
0
  6
CONTINUOUS
 10
117.327499
 20
123.019691
 11
157.327499
 21
123.019691
  0
LINE
  8
0
  6
CONTINUOUS
 10
117.327499
 20
101.019691
 11
157.327499
 21
101.019691
  0
LINE
  8
0
  6
CONTINUOUS
 10
117.327499
 20
124.519691
 11
117.327499
 21
99.519691
  0
LINE
  8
0
  6
CONTINUOUS
 10
115.327499
 20
124.519691
 11
117.327499
 21
124.519691
  0
LINE
  8
0
  6
CONTINUOUS
 10
115.327499
 20
99.519691
 11
117.327499
 21
99.519691
  0
ARC
  8
0
  6
CONTINUOUS
 10
125.327499
 20
112.019691
 40
3.000000
 50
90.000000
 51
270.000000
  0
LINE
  8
0
  6
CONTINUOUS
 10
125.327499
 20
115.019691
 11
157.327499
 21
115.019691
  0
LINE
  8
0
  6
CONTINUOUS
 10
125.327499
 20
109.019691
 11
157.327499
 21
109.019691
  0
LINE
  8
0
  6
CENTER
 10
556.979797
 20
70.519691
 11
325.654785
 21
70.519691
  0
LINE
  8
0
  6
CONTINUOUS
 10
368.817535
 20
109.971947
 11
410.404785
 21
108.519691
  0
LINE
  8
0
  6
CONTINUOUS
 10
358.404785
 20
30.703808
 11
410.404785
 21
32.519688
  0
LINE
  8
0
  6
CONTINUOUS
 10
366.404785
 20
138.019684
 11
366.404785
 21
111.019691
  0
LINE
  8
0
  6
CONTINUOUS
 10
365.404785
 20
139.019684
 11
358.404755
 21
139.019684
  0
LINE
  8
0
  6
CONTINUOUS
 10
363.904785
 20
24.019688
 11
358.404785
 21
24.019688
  0
LINE
  8
0
  6
CONTINUOUS
 10
366.404785
 20
111.519691
 11
366.404785
 21
40.607033
  0
LINE
  8
0
  6
CONTINUOUS
 10
410.404785
 20
108.519691
 11
410.404785
 21
32.519688
  0
LINE
  8
0
  6
CONTINUOUS
 10
367.817902
 20
121.837494
 11
393.761353
 21
109.313080
  0
LINE
  8
0
  6
CENTER
 10
293.654785
 20
219.554993
 11
293.654785
 21
384.136810
  0
LINE
  8
0
  6
CENTER
 10
556.351440
 20
315.756683
 11
224.315308
 21
315.756683
  0
LINE
  8
0
  6
CONTINUOUS
 10
344.872803
 20
283.756683
 11
246.126831
 21
283.756683
  0
LINE
  8
0
  6
CONTINUOUS
 10
344.872803
 20
347.756683
 11
246.126831
 21
347.756683
  0
LINE
  8
0
  6
CONTINUOUS
 10
250.716675
 20
257.756683
 11
280.154785
 21
257.756683
  0
LINE
  8
0
  6
CONTINUOUS
 10
336.592865
 20
373.756683
 11
293.654785
 21
373.756683
  0
LINE
  8
0
  6
CONTINUOUS
 10
240.654770
 20
315.756683
 11
241.213333
 21
283.756683
  0
LINE
  8
0
  6
CONTINUOUS
 10
245.822708
 20
261.732452
 11
241.213333
 21
283.756683
  0
ARC
  8
0
  6
CONTINUOUS
 10
250.716675
 20
262.756683
 40
5.000000
 50
191.820602
 51
270.000000
  0
LINE
  8
0
  6
CONTINUOUS
 10
240.654770
 20
315.756683
 11
241.213333
 21
347.756683
  0
LINE
  8
0
  6
CONTINUOUS
 10
245.822708
 20
369.780945
 11
241.213333
 21
347.756683
  0
ARC
  8
0
  6
CONTINUOUS
 10
250.716675
 20
368.756683
 40
5.000000
 50
90.000000
 51
168.179398
  0
LINE
  8
0
  6
CONTINUOUS
 10
273.654785
 20
345.756683
 11
273.654785
 21
285.756683
  0
LINE
  8
0
  6
CONTINUOUS
 10
313.654785
 20
345.756683
 11
313.654785
 21
285.756683
  0
ARC
  8
0
  6
CONTINUOUS
 10
246.126831
 20
288.756683
 40
5.000000
 50
181.000000
 51
270.000000
  0
ARC
  8
0
  6
CONTINUOUS
 10
246.126831
 20
342.756683
 40
5.000000
 50
90.000000
 51
179.000000
  0
LINE
  8
0
  6
CONTINUOUS
 10
350.328278
 20
370.085236
 11
349.871094
 21
352.625824
  0
LINE
  8
0
  6
CONTINUOUS
 10
358.404785
 20
258.256683
 11
358.404785
 21
373.256683
  0
LINE
  8
0
  6
CONTINUOUS
 10
339.839783
 20
297.756683
 11
339.839783
 21
333.756683
  0
LINE
  8
0
  6
CONTINUOUS
 10
358.404785
 20
258.506683
 11
353.327240
 21
258.506683
  0
LINE
  8
0
  6
CONTINUOUS
 10
353.327240
 20
373.006683
 11
358.404785
 21
373.006683
  0
ARC
  8
0
  6
CONTINUOUS
 10
344.872803
 20
352.756683
 40
5.000000
 50
270.000000
 51
358.500000
  0
ARC
  8
0
  6
CONTINUOUS
 10
353.327240
 20
370.006683
 40
3.000000
 50
90.000000
 51
178.500000
  0
LINE
  8
0
  6
CONTINUOUS
 10
350.328278
 20
261.428162
 11
349.871094
 21
278.887573
  0
ARC
  8
0
  6
CONTINUOUS
 10
344.872803
 20
278.756683
 40
5.000000
 50
1.500000
 51
90.000000
  0
ARC
  8
0
  6
CONTINUOUS
 10
353.327240
 20
261.506683
 40
3.000000
 50
-178.500000
 51
-90.000000
  0
LINE
  8
0
  6
CONTINUOUS
 10
341.486847
 20
261.732452
 11
346.065979
 21
283.612244
  0
ARC
  8
0
  6
CONTINUOUS
 10
336.592865
 20
262.756683
 40
5.000000
 50
270.000000
 51
348.179413
  0
LINE
  8
0
  6
CONTINUOUS
 10
341.486847
 20
369.780945
 11
346.065979
 21
347.901154
  0
ARC
  8
0
  6
CONTINUOUS
 10
336.592865
 20
368.756683
 40
5.000000
 50
11.820596
 51
90.000000
  0
LINE
  8
0
  6
CENTER
 10
269.104370
 20
360.756683
 11
248.250214
 21
360.756683
  0
LINE
  8
0
  6
CENTER
 10
258.654785
 20
353.199402
 11
258.654785
 21
369.970245
  0
CIRCLE
  8
0
  6
CONTINUOUS
 10
258.654785
 20
360.756683
 40
5.500000
  0
LINE
  8
0
  6
CENTER
 10
318.205170
 20
360.756683
 11
339.059326
 21
360.756683
  0
LINE
  8
0
  6
CENTER
 10
328.654785
 20
353.199402
 11
328.654785
 21
369.970245
  0
CIRCLE
  8
0
  6
CONTINUOUS
 10
328.654785
 20
360.756683
 40
5.500000
  0
LINE
  8
0
  6
CENTER
 10
269.104370
 20
270.756683
 11
248.250214
 21
270.756683
  0
LINE
  8
0
  6
CENTER
 10
258.654785
 20
278.313995
 11
258.654785
 21
261.543152
  0
CIRCLE
  8
0
  6
CONTINUOUS
 10
258.654785
 20
270.756683
 40
5.500000
  0
LINE
  8
0
  6
CENTER
 10
318.205170
 20
270.756683
 11
339.059326
 21
270.756683
  0
LINE
  8
0
  6
CENTER
 10
328.654785
 20
278.313995
 11
328.654785
 21
261.543152
  0
CIRCLE
  8
0
  6
CONTINUOUS
 10
328.654785
 20
270.756683
 40
5.500000
  0
LINE
  8
0
  6
CONTINUOUS
 10
318.847626
 20
363.756683
 11
268.461945
 21
363.756683
  0
LINE
  8
0
  6
CONTINUOUS
 10
263.498535
 20
353.756683
 11
260.211670
 21
353.756683
  0
ARC
  8
0
  6
CONTINUOUS
 10
268.461945
 20
360.756683
 40
3.000000
 50
90.000000
 51
165.124313
  0
LINE
  8
0
  6
CONTINUOUS
 10
257.312225
 20
351.526855
 11
256.903076
 21
349.986511
  0
ARC
  8
0
  6
CONTINUOUS
 10
260.211670
 20
350.756683
 40
3.000000
 50
90.000000
 51
165.124313
  0
ARC
  8
0
  6
CONTINUOUS
 10
254.003616
 20
350.756683
 40
3.000000
 50
270.000000
 51
345.124329
  0
LINE
  8
0
  6
CONTINUOUS
 10
263.498535
 20
353.756683
 11
265.562469
 21
361.526855
  0
LINE
  8
0
  6
CONTINUOUS
 10
329.997314
 20
351.526855
 11
330.406464
 21
349.986511
  0
ARC
  8
0
  6
CONTINUOUS
 10
327.097870
 20
350.756683
 40
3.000000
 50
14.875682
 51
90.000000
  0
ARC
  8
0
  6
CONTINUOUS
 10
333.305939
 20
350.756683
 40
3.000000
 50
194.875687
 51
270.000000
  0
LINE
  8
0
  6
CONTINUOUS
 10
323.811035
 20
353.756683
 11
327.097870
 21
353.756683
  0
ARC
  8
0
  6
CONTINUOUS
 10
318.847626
 20
360.756683
 40
3.000000
 50
14.875682
 51
90.000000
  0
LINE
  8
0
  6
CONTINUOUS
 10
323.811035
 20
353.756683
 11
321.747070
 21
361.526855
  0
CIRCLE
  8
0
  6
CONTINUOUS
 10
258.654785
 20
270.756683
 40
5.500000
  0
LINE
  8
0
  6
CONTINUOUS
 10
318.847626
 20
267.756683
 11
268.461945
 21
267.756683
  0
LINE
  8
0
  6
CONTINUOUS
 10
263.498535
 20
277.756683
 11
260.211670
 21
277.756683
  0
ARC
  8
0
  6
CONTINUOUS
 10
268.461945
 20
270.756683
 40
3.000000
 50
-165.124313
 51
-90.000000
  0
LINE
  8
0
  6
CONTINUOUS
 10
257.312225
 20
279.986542
 11
256.903076
 21
281.526855
  0
ARC
  8
0
  6
CONTINUOUS
 10
260.211670
 20
280.756683
 40
3.000000
 50
-165.124313
 51
-90.000000
  0
ARC
  8
0
  6
CONTINUOUS
 10
254.003616
 20
280.756683
 40
3.000000
 50
14.875682
 51
90.000000
  0
LINE
  8
0
  6
CONTINUOUS
 10
263.498535
 20
277.756683
 11
265.562469
 21
269.986511
  0
LINE
  8
0
  6
CONTINUOUS
 10
329.997314
 20
279.986511
 11
330.406464
 21
281.526855
  0
ARC
  8
0
  6
CONTINUOUS
 10
327.097870
 20
280.756683
 40
3.000000
 50
270.000000
 51
345.124329
  0
ARC
  8
0
  6
CONTINUOUS
 10
333.305939
 20
280.756683
 40
3.000000
 50
90.000000
 51
165.124313
  0
LINE
  8
0
  6
CONTINUOUS
 10
323.811035
 20
277.756683
 11
327.097870
 21
277.756683
  0
ARC
  8
0
  6
CONTINUOUS
 10
318.847626
 20
270.756683
 40
3.000000
 50
270.000000
 51
345.124329
  0
LINE
  8
0
  6
CONTINUOUS
 10
323.811035
 20
277.756683
 11
321.747070
 21
269.986511
  0
LINE
  8
0
  6
CONTINUOUS
 10
293.654785
 20
373.756683
 11
250.716675
 21
373.756683
  0
LINE
  8
0
  6
CONTINUOUS
 10
304.654785
 20
225.756699
 11
280.154785
 21
225.756699
  0
LINE
  8
0
  6
CONTINUOUS
 10
282.654785
 20
265.756683
 11
282.654785
 21
260.756683
  0
LINE
  8
0
  6
CONTINUOUS
 10
304.654785
 20
265.756683
 11
304.654785
 21
225.756699
  0
LINE
  8
0
  6
CONTINUOUS
 10
281.154785
 20
267.756683
 11
281.154785
 21
265.756683
  0
LINE
  8
0
  6
CONTINUOUS
 10
306.154785
 20
267.756683
 11
306.154785
 21
265.756683
  0
LINE
  8
0
  6
CONTINUOUS
 10
306.154785
 20
265.756683
 11
281.154785
 21
265.756683
  0
LINE
  8
0
  6
CONTINUOUS
 10
280.154785
 20
260.756683
 11
280.154785
 21
225.756699
  0
LINE
  8
0
  6
CONTINUOUS
 10
283.071777
 20
225.756699
 11
283.071777
 21
260.756683
  0
LINE
  8
0
  6
CONTINUOUS
 10
283.071777
 20
260.756683
 11
280.154785
 21
260.756683
  0
LINE
  8
0
  6
CONTINUOUS
 10
304.654785
 20
257.756683
 11
336.771057
 21
257.756683
  0
LINE
  8
0
  6
CONTINUOUS
 10
358.404785
 20
268.256683
 11
353.071930
 21
268.256683
  0
ARC
  8
0
  6
CONTINUOUS
 10
353.071930
 20
271.256683
 40
3.000000
 50
181.500000
 51
270.000000
  0
LINE
  8
0
  6
CONTINUOUS
 10
350.114288
 20
283.756683
 11
358.404785
 21
283.756683
  0
LINE
  8
0
  6
CONTINUOUS
 10
350.114288
 20
347.756683
 11
358.404785
 21
347.756683
  0
LINE
  8
0
  6
CONTINUOUS
 10
358.404785
 20
363.256683
 11
353.071930
 21
363.256683
  0
ARC
  8
0
  6
CONTINUOUS
 10
353.071930
 20
360.256683
 40
3.000000
 50
90.000000
 51
178.500000
  0
LINE
  8
0
  6
CONTINUOUS
 10
43.327499
 20
8.019687
 11
91.327499
 21
8.019687
  0
LINE
  8
0
  6
CONTINUOUS
 10
92.327499
 20
7.019687
 11
91.327499
 21
8.019687
  0
LINE
  8
0
  6
CONTINUOUS
 10
42.327499
 20
7.019687
 11
43.327499
 21
8.019687
  0
LINE
  8
0
  6
CONTINUOUS
 10
92.327499
 20
7.019687
 11
125.327499
 21
7.019687
  0
LINE
  8
0
  6
CONTINUOUS
 10
363.904785
 20
373.256683
 11
358.404785
 21
373.256683
  0
LINE
  8
0
  6
CONTINUOUS
 10
363.904785
 20
258.256683
 11
358.404785
 21
258.256683
  0
LINE
  8
0
  6
CONTINUOUS
 10
366.404785
 20
370.756683
 11
366.404785
 21
260.756683
  0
LINE
  8
0
  6
CONTINUOUS
 10
410.404785
 20
277.756683
 11
410.404785
 21
353.756683
  0
LINE
  8
0
  6
CONTINUOUS
 10
368.817535
 20
276.304443
 11
410.404785
 21
277.756683
  0
LINE
  8
0
  6
CONTINUOUS
 10
368.817535
 20
355.208954
 11
410.404785
 21
353.756683
  0
ARC
  8
0
  6
CONTINUOUS
 10
363.904785
 20
260.756683
 40
2.500000
 50
-90.000000
 51
0.000000
  0
ARC
  8
0
  6
CONTINUOUS
 10
363.904785
 20
370.756683
 40
2.500000
 50
0.000000
 51
90.000000
  0
ARC
  8
0
  6
CONTINUOUS
 10
365.404785
 20
138.019684
 40
1.000000
 50
0.000000
 51
90.000000
  0
ARC
  8
0
  6
CONTINUOUS
 10
368.904785
 20
124.088867
 40
2.500000
 50
180.000000
 51
244.230682
  0
ARC
  8
0
  6
CONTINUOUS
 10
368.904785
 20
112.470421
 40
2.500000
 50
180.000000
 51
268.000000
  0
ARC
  8
0
  6
CONTINUOUS
 10
394.848206
 20
111.564461
 40
2.500000
 50
-115.769325
 51
-92.000000
  0
LINE
  8
0
  6
CONTINUOUS
 10
410.404785
 20
277.756683
 11
410.404785
 21
353.756683
  0
LINE
  8
0
  6
CONTINUOUS
 10
524.404663
 20
353.756683
 11
524.404663
 21
340.756714
  0
LINE
  8
0
  6
CONTINUOUS
 10
524.404663
 20
277.756714
 11
410.404663
 21
277.756714
  0
LINE
  8
0
  6
CONTINUOUS
 10
524.404663
 20
353.756683
 11
410.404663
 21
353.756683
  0
LINE
  8
0
  6
CONTINUOUS
 10
418.404663
 20
279.756714
 11
418.404663
 21
292.756683
  0
ARC
  8
0
  6
CONTINUOUS
 10
416.404663
 20
279.756683
 40
2.000000
 50
-90.000000
 51
0.000000
  0
ARC
  8
0
  6
CONTINUOUS
 10
416.404663
 20
351.756683
 40
2.000000
 50
0.000000
 51
90.000000
  0
LINE
  8
0
  6
CONTINUOUS
 10
544.904663
 20
347.756683
 11
544.904663
 21
283.756683
  0
LINE
  8
0
  6
CONTINUOUS
 10
540.940552
 20
277.756683
 11
524.404663
 21
277.756683
  0
LINE
  8
0
  6
CONTINUOUS
 10
540.940552
 20
353.756683
 11
524.404663
 21
353.756683
  0
LINE
  8
0
  6
CONTINUOUS
 10
544.404663
 20
350.756683
 11
544.404663
 21
280.756683
  0
LINE
  8
0
  6
CONTINUOUS
 10
544.904663
 20
283.756683
 11
544.404663
 21
283.256683
  0
LINE
  8
0
  6
CONTINUOUS
 10
544.904663
 20
347.756683
 11
544.404663
 21
348.256683
  0
LINE
  8
0
  6
CONTINUOUS
 10
543.538635
 20
279.256714
 11
544.404663
 21
280.756683
  0
ARC
  8
0
  6
CONTINUOUS
 10
540.940552
 20
280.756683
 40
3.000000
 50
270.000000
 51
330.000397
  0
LINE
  8
0
  6
CONTINUOUS
 10
543.538635
 20
352.256683
 11
544.404663
 21
350.756683
  0
ARC
  8
0
  6
CONTINUOUS
 10
540.940552
 20
350.756683
 40
3.000000
 50
29.999599
 51
90.000000
  0
LINE
  8
0
  6
CONTINUOUS
 10
483.404663
 20
292.756683
 11
418.404663
 21
292.756683
  0
LINE
  8
0
  6
CONTINUOUS
 10
533.404663
 20
292.756683
 11
542.822998
 21
292.756683
  0
LINE
  8
0
  6
CONTINUOUS
 10
483.404663
 20
338.756683
 11
418.404663
 21
338.756683
  0
LINE
  8
0
  6
CONTINUOUS
 10
533.404663
 20
338.756683
 11
542.822998
 21
338.756683
  0
LINE
  8
0
  6
CONTINUOUS
 10
418.404663
 20
338.756683
 11
418.404663
 21
351.756683
  0
LINE
  8
0
  6
CONTINUOUS
 10
524.404663
 20
290.756714
 11
524.404663
 21
277.756683
  0
ARC
  8
0
  6
CONTINUOUS
 10
379.235138
 20
315.756683
 40
15.000000
 50
-49.252373
 51
49.252373
  0
LINE
  8
0
  6
CONTINUOUS
 10
367.272949
 20
285.650696
 11
389.026062
 21
304.392822
  0
LINE
  8
0
  6
CONTINUOUS
 10
367.272949
 20
345.862671
 11
389.026062
 21
327.120575
  0
ARC
  8
0
  6
CONTINUOUS
 10
368.904785
 20
283.756714
 40
2.500000
 50
130.747620
 51
180.000000
  0
ARC
  8
0
  6
CONTINUOUS
 10
368.904785
 20
273.805969
 40
2.500000
 50
92.000000
 51
180.000000
  0
ARC
  8
0
  6
CONTINUOUS
 10
368.904785
 20
347.756653
 40
2.500000
 50
180.000000
 51
229.252380
  0
ARC
  8
0
  6
CONTINUOUS
 10
368.904785
 20
357.707428
 40
2.500000
 50
180.000000
 51
268.000000
  0
LINE
  8
0
  6
CONTINUOUS
 10
365.279694
 20
38.365688
 11
358.404785
 21
38.365688
  0
LINE
  8
0
  6
CONTINUOUS
 10
366.404785
 20
26.519688
 11
366.404785
 21
28.568953
  0
ARC
  8
0
  6
CONTINUOUS
 10
363.904785
 20
26.519688
 40
2.500000
 50
-90.000000
 51
0.000000
  0
ARC
  8
0
  6
CONTINUOUS
 10
368.904785
 20
28.568953
 40
2.500000
 50
92.000000
 51
180.000000
  0
ARC
  8
0
  6
CONTINUOUS
 10
67.327499
 20
81.519691
 40
57.500000
 50
236.002823
 51
236.184402
  0
ARC
  8
0
  6
CONTINUOUS
 10
67.327499
 20
81.519691
 40
57.500000
 50
303.815582
 51
303.997162
  0
ARC
  8
0
  6
CONTINUOUS
 10
67.327499
 20
81.519691
 40
57.500000
 50
-33.997124
 51
19.823904
  0
ARC
  8
0
  6
CONTINUOUS
 10
67.327499
 20
81.519691
 40
57.500000
 50
146.593216
 51
213.997131
  0
LINE
  8
0
  6
CENTER
 10
293.654785
 20
164.269684
 11
293.654785
 21
0.769688
  0
LINE
  8
0
  6
CENTER
 10
333.712494
 20
112.019691
 11
248.392502
 21
112.019691
  0
LINE
  8
0
  6
CONTINUOUS
 10
346.654785
 20
7.019688
 11
240.654770
 21
7.019688
  0
LINE
  8
0
  6
CONTINUOUS
 10
312.084167
 20
157.019684
 11
275.225372
 21
157.019684
  0
LINE
  8
0
  6
CONTINUOUS
 10
240.654770
 20
131.409927
 11
240.654770
 21
7.019708
  0
LINE
  8
0
  6
CONTINUOUS
 10
346.654785
 20
32.019688
 11
346.654785
 21
7.019688
  0
LINE
  8
0
  6
CONTINUOUS
 10
358.404785
 20
138.769684
 11
340.781769
 21
138.769684
  0
LINE
  8
0
  6
CONTINUOUS
 10
358.404785
 20
24.269688
 11
351.654785
 21
24.269688
  0
LINE
  8
0
  6
CONTINUOUS
 10
350.404785
 20
36.019688
 11
350.404785
 21
127.019691
  0
LINE
  8
0
  6
CONTINUOUS
 10
242.795776
 20
135.511932
 11
272.366364
 21
156.121674
  0
LINE
  8
0
  6
CONTINUOUS
 10
344.513763
 20
135.511932
 11
314.943176
 21
156.121674
  0
LINE
  8
0
  6
CONTINUOUS
 10
312.716370
 20
19.019688
 11
346.654785
 21
19.019688
  0
LINE
  8
0
  6
CONTINUOUS
 10
307.093170
 20
29.019688
 11
280.216370
 21
29.019688
  0
LINE
  8
0
  6
CONTINUOUS
 10
278.654785
 20
27.582188
 11
278.654785
 21
20.019688
  0
LINE
  8
0
  6
CONTINUOUS
 10
308.654785
 20
27.394688
 11
308.654785
 21
20.019688
  0
LINE
  8
0
  6
CONTINUOUS
 10
310.775970
 20
20.534609
 11
309.033569
 21
27.504768
  0
LINE
  8
0
  6
CONTINUOUS
 10
276.533569
 20
20.534609
 11
278.275970
 21
27.504747
  0
LINE
  8
0
  6
CONTINUOUS
 10
340.654785
 20
17.957188
 11
340.654785
 21
7.019688
  0
LINE
  8
0
  6
CONTINUOUS
 10
246.654770
 20
17.957188
 11
246.654770
 21
7.019688
  0
LINE
  8
0
  6
CENTER
 10
328.654785
 20
22.769688
 11
328.654785
 21
2.769688
  0
LINE
  8
0
  6
CENTER
 10
258.654785
 20
23.769688
 11
258.654785
 21
3.269688
  0
LINE
  8
0
  6
DASHED
 10
334.154785
 20
19.019688
 11
334.154785
 21
7.019688
  0
LINE
  8
0
  6
DASHED
 10
323.154785
 20
19.019688
 11
323.154785
 21
7.019688
  0
LINE
  8
0
  6
DASHED
 10
264.154785
 20
19.019688
 11
264.154785
 21
7.019688
  0
LINE
  8
0
  6
DASHED
 10
253.154770
 20
19.019688
 11
253.154770
 21
7.019688
  0
ARC
  8
0
  6
CONTINUOUS
 10
275.225189
 20
152.019684
 40
5.000000
 50
90.000000
 51
124.875198
  0
ARC
  8
0
  6
CONTINUOUS
 10
312.084167
 20
152.019684
 40
5.000000
 50
55.124401
 51
90.000000
  0
ARC
  8
0
  6
CONTINUOUS
 10
245.654770
 20
131.409927
 40
5.000000
 50
124.875198
 51
180.000000
  0
ARC
  8
0
  6
CONTINUOUS
 10
341.654785
 20
131.409943
 40
5.000000
 50
0.000000
 51
55.124298
  0
LINE
  8
0
  6
CONTINUOUS
 10
358.404785
 20
129.019684
 11
348.654785
 21
129.019684
  0
LINE
  8
0
  6
CONTINUOUS
 10
352.404785
 20
34.019688
 11
358.404785
 21
34.019688
  0
LINE
  8
0
  6
CONTINUOUS
 10
358.404785
 20
113.479691
 11
351.529785
 21
113.479691
  0
LINE
  8
0
  6
CONTINUOUS
 10
358.404785
 20
49.559689
 11
351.404785
 21
49.559689
  0
ARC
  8
0
  6
CONTINUOUS
 10
340.781769
 20
141.769684
 40
3.000000
 50
-124.875397
 51
-90.000000
  0
ARC
  8
0
  6
CONTINUOUS
 10
352.404785
 20
127.019691
 40
2.000000
 50
90.000000
 51
180.000000
  0
ARC
  8
0
  6
CONTINUOUS
 10
348.654785
 20
131.019684
 40
2.000000
 50
180.000000
 51
270.000000
  0
LINE
  8
0
  6
CONTINUOUS
 10
346.654785
 20
131.409943
 11
346.654785
 21
131.019684
  0
ARC
  8
0
  6
CONTINUOUS
 10
348.654785
 20
32.019688
 40
2.000000
 50
90.000000
 51
180.000000
  0
LINE
  8
0
  6
CONTINUOUS
 10
352.404785
 20
34.019688
 11
348.654785
 21
34.019688
  0
ARC
  8
0
  6
CONTINUOUS
 10
352.404785
 20
36.019688
 40
2.000000
 50
180.000000
 51
270.000000
  0
ARC
  8
0
  6
CONTINUOUS
 10
351.654785
 20
19.269669
 40
5.000000
 50
90.000000
 51
180.000000
  0
ARC
  8
0
  6
CONTINUOUS
 10
280.216370
 20
27.019688
 40
2.000000
 50
90.000000
 51
165.963593
  0
ARC
  8
0
  6
CONTINUOUS
 10
307.093170
 20
27.019688
 40
2.000000
 50
14.036100
 51
90.000000
  0
LINE
  8
0
  6
CONTINUOUS
 10
274.593170
 20
19.019688
 11
240.654770
 21
19.019688
  0
ARC
  8
0
  6
CONTINUOUS
 10
312.716370
 20
21.019688
 40
2.000000
 50
-165.963699
 51
-90.000000
  0
LINE
  8
0
  6
CONTINUOUS
 10
274.593170
 20
19.019688
 11
312.716370
 21
19.019688
  0
ARC
  8
0
  6
CONTINUOUS
 10
274.593170
 20
21.019688
 40
2.000000
 50
-90.000000
 51
-14.036190
  0
ARC
  8
0
  6
CONTINUOUS
 10
309.654785
 20
20.019688
 40
1.000000
 50
180.000000
 51
270.000000
  0
ARC
  8
0
  6
CONTINUOUS
 10
277.654785
 20
20.019688
 40
1.000000
 50
-90.000000
 51
0.000000
  0
LINE
  8
0
  6
CONTINUOUS
 10
243.654770
 20
115.519691
 11
243.654770
 21
71.658997
  0
LINE
  8
0
  6
CONTINUOUS
 10
343.654785
 20
116.380371
 11
343.654785
 21
70.046303
  0
ARC
  8
0
  6
CONTINUOUS
 10
293.654785
 20
94.019699
 40
60.000000
 50
48.189621
 51
131.810394
  0
ARC
  8
0
  6
CONTINUOUS
 10
293.654785
 20
94.019699
 40
60.000000
 50
228.189697
 51
309.631744
  0
ARC
  8
0
  6
CONTINUOUS
 10
313.654785
 20
116.380371
 40
30.000000
 50
0.000000
 51
48.189629
  0
CIRCLE
  8
0
  6
CONTINUOUS
 10
293.654785
 20
112.019691
 40
27.500000
  0
ARC
  8
0
  6
CONTINUOUS
 10
293.654785
 20
112.019691
 40
31.750000
 50
7.552697
 51
172.447403
  0
ARC
  8
0
  6
CONTINUOUS
 10
276.904785
 20
70.519691
 40
20.600000
 50
172.447403
 51
270.000000
  0
ARC
  8
0
  6
CONTINUOUS
 10
310.404785
 20
70.519691
 40
20.600000
 50
-90.000000
 51
7.552700
  0
LINE
  8
0
  6
CONTINUOUS
 10
325.129364
 20
116.192848
 11
330.825989
 21
73.227318
  0
LINE
  8
0
  6
CONTINUOUS
 10
256.483582
 20
73.227280
 11
262.180176
 21
116.192787
  0
LINE
  8
0
  6
CONTINUOUS
 10
276.904785
 20
49.919689
 11
310.404785
 21
49.919689
  0
ARC
  8
0
  6
CONTINUOUS
 10
276.904785
 20
70.519691
 40
19.000000
 50
172.447601
 51
270.000000
  0
ARC
  8
0
  6
CONTINUOUS
 10
310.404785
 20
70.519691
 40
19.000000
 50
-90.000000
 51
7.552700
  0
ARC
  8
0
  6
CONTINUOUS
 10
293.654785
 20
112.019691
 40
30.150000
 50
-187.552597
 51
7.552697
  0
LINE
  8
0
  6
CONTINUOUS
 10
258.069580
 20
73.016983
 11
263.766388
 21
115.982506
  0
LINE
  8
0
  6
CONTINUOUS
 10
323.543182
 20
115.982552
 11
329.239990
 21
73.017014
  0
LINE
  8
0
  6
CONTINUOUS
 10
276.904785
 20
51.519688
 11
310.404785
 21
51.519688
  0
LINE
  8
0
  6
CONTINUOUS
 10
283.358368
 20
59.019688
 11
279.197968
 21
59.019688
  0
LINE
  8
0
  6
CONTINUOUS
 10
285.654785
 20
65.988441
 11
285.654785
 21
59.019688
  0
LINE
  8
0
  6
CONTINUOUS
 10
289.654785
 20
68.519691
 11
289.654785
 21
71.019691
  0
LINE
  8
0
  6
CONTINUOUS
 10
297.654785
 20
68.519691
 11
297.654785
 21
71.019691
  0
LINE
  8
0
  6
CONTINUOUS
 10
292.873566
 20
69.550941
 11
292.873566
 21
60.332188
  0
LINE
  8
0
  6
CONTINUOUS
 10
294.373566
 20
69.550941
 11
294.373566
 21
60.332188
  0
LINE
  8
0
  6
CONTINUOUS
 10
302.248566
 20
69.550941
 11
302.248566
 21
60.269688
  0
LINE
  8
0
  6
CONTINUOUS
 10
303.623566
 20
64.629059
 11
303.623566
 21
60.269688
  0
LINE
  8
0
  6
CONTINUOUS
 10
283.756775
 20
69.425941
 11
279.901764
 21
69.425941
  0
LINE
  8
0
  6
CONTINUOUS
 10
279.901764
 20
69.425941
 11
278.998566
 21
68.305939
  0
LINE
  8
0
  6
CONTINUOUS
 10
279.107178
 20
71.019691
 11
277.654785
 21
69.159935
  0
LINE
  8
0
  6
CONTINUOUS
 10
278.998566
 20
61.392609
 11
279.916168
 21
60.425926
  0
LINE
  8
0
  6
CONTINUOUS
 10
277.654785
 20
60.576847
 11
279.197968
 21
59.019688
  0
LINE
  8
0
  6
CONTINUOUS
 10
277.654785
 20
69.159935
 11
277.654785
 21
60.576847
  0
LINE
  8
0
  6
CONTINUOUS
 10
278.998566
 20
68.305939
 11
278.998566
 21
61.392609
  0
LINE
  8
0
  6
CONTINUOUS
 10
284.498566
 20
68.708839
 11
283.741577
 21
69.425941
  0
LINE
  8
0
  6
CONTINUOUS
 10
284.486572
 20
71.019691
 11
285.654785
 21
69.723190
  0
LINE
  8
0
  6
CONTINUOUS
 10
284.498566
 20
68.519691
 11
285.654785
 21
68.519691
  0
LINE
  8
0
  6
CONTINUOUS
 10
279.107178
 20
71.019691
 11
284.486572
 21
71.019691
  0
LINE
  8
0
  6
CONTINUOUS
 10
282.404785
 20
65.988441
 11
285.654785
 21
65.988441
  0
LINE
  8
0
  6
CONTINUOUS
 10
284.498566
 20
64.675941
 11
282.404785
 21
64.675941
  0
LINE
  8
0
  6
CONTINUOUS
 10
281.998566
 20
60.425926
 11
279.916168
 21
60.425926
  0
LINE
  8
0
  6
CONTINUOUS
 10
284.498566
 20
63.425938
 11
284.498566
 21
64.425941
  0
ARC
  8
0
  6
CONTINUOUS
 10
281.998566
 20
62.925930
 40
2.500000
 50
-89.999786
 51
0.000109
  0
LINE
  8
0
  6
CONTINUOUS
 10
284.498566
 20
59.976250
 11
284.498566
 21
59.019688
  0
LINE
  8
0
  6
CONTINUOUS
 10
285.654785
 20
69.723190
 11
285.654785
 21
68.519691
  0
LINE
  8
0
  6
CONTINUOUS
 10
284.498566
 20
64.675941
 11
284.498566
 21
62.925938
  0
LINE
  8
0
  6
CONTINUOUS
 10
282.404785
 20
65.988441
 11
282.404785
 21
64.675941
  0
LINE
  8
0
  6
CONTINUOUS
 10
284.498566
 20
59.019688
 11
285.654785
 21
59.019688
  0
LINE
  8
0
  6
CONTINUOUS
 10
284.498566
 20
59.976250
 11
283.358368
 21
59.019688
  0
LINE
  8
0
  6
CONTINUOUS
 10
294.373566
 20
60.332188
 11
294.873566
 21
60.332188
  0
LINE
  8
0
  6
CONTINUOUS
 10
292.279785
 20
60.332188
 11
292.279785
 21
59.019688
  0
LINE
  8
0
  6
CONTINUOUS
 10
294.873566
 20
60.332188
 11
294.873566
 21
59.019688
  0
LINE
  8
0
  6
CONTINUOUS
 10
296.820374
 20
68.519691
 11
297.654785
 21
68.519691
  0
LINE
  8
0
  6
CONTINUOUS
 10
289.654785
 20
68.519691
 11
290.542786
 21
68.519691
  0
LINE
  8
0
  6
CONTINUOUS
 10
289.654785
 20
71.019691
 11
297.654785
 21
71.019691
  0
LINE
  8
0
  6
CONTINUOUS
 10
292.279785
 20
59.019688
 11
294.873566
 21
59.019688
  0
LINE
  8
0
  6
CONTINUOUS
 10
292.279785
 20
60.332188
 11
292.873566
 21
60.332188
  0
ARC
  8
0
  6
CONTINUOUS
 10
306.451569
 20
67.816559
 40
3.203126
 50
-73.981873
 51
90.003510
  0
ARC
  8
0
  6
CONTINUOUS
 10
306.451569
 20
67.816559
 40
1.954124
 50
-82.585274
 51
62.411850
  0
LINE
  8
0
  6
CONTINUOUS
 10
301.654785
 20
71.019691
 11
306.451569
 21
71.019691
  0
LINE
  8
0
  6
CONTINUOUS
 10
306.703766
 20
65.878777
 11
303.623566
 21
65.878777
  0
LINE
  8
0
  6
CONTINUOUS
 10
301.654785
 20
71.019691
 11
301.654785
 21
69.550941
  0
LINE
  8
0
  6
CONTINUOUS
 10
303.623566
 20
69.550941
 11
303.623566
 21
65.878777
  0
LINE
  8
0
  6
CONTINUOUS
 10
307.335571
 20
64.737801
 11
309.317963
 21
60.269688
  0
LINE
  8
0
  6
CONTINUOUS
 10
306.183960
 20
64.629059
 11
308.060181
 21
60.269688
  0
LINE
  8
0
  6
CONTINUOUS
 10
301.654785
 20
60.269688
 11
302.248566
 21
60.269688
  0
LINE
  8
0
  6
CONTINUOUS
 10
303.623566
 20
60.269688
 11
304.170380
 21
60.269688
  0
LINE
  8
0
  6
CONTINUOUS
 10
304.170380
 20
59.019688
 11
301.654785
 21
59.019688
  0
LINE
  8
0
  6
CONTINUOUS
 10
307.810974
 20
60.269688
 11
308.060181
 21
60.269688
  0
LINE
  8
0
  6
CONTINUOUS
 10
307.810974
 20
59.019688
 11
309.654785
 21
59.019688
  0
LINE
  8
0
  6
CONTINUOUS
 10
307.810974
 20
60.269688
 11
307.810974
 21
59.019688
  0
LINE
  8
0
  6
CONTINUOUS
 10
304.170380
 20
60.269688
 11
304.170380
 21
59.019688
  0
LINE
  8
0
  6
CONTINUOUS
 10
301.654785
 20
60.269688
 11
301.654785
 21
59.019688
  0
LINE
  8
0
  6
CONTINUOUS
 10
290.972565
 20
69.550941
 11
290.542786
 21
68.519691
  0
LINE
  8
0
  6
CONTINUOUS
 10
296.457977
 20
69.550941
 11
296.820374
 21
68.519691
  0
LINE
  8
0
  6
CONTINUOUS
 10
294.373566
 20
69.550941
 11
296.457977
 21
69.550941
  0
LINE
  8
0
  6
CONTINUOUS
 10
292.873566
 20
69.550941
 11
290.972565
 21
69.550941
  0
LINE
  8
0
  6
CONTINUOUS
 10
303.623566
 20
64.629059
 11
306.183960
 21
64.629059
  0
LINE
  8
0
  6
CONTINUOUS
 10
301.654785
 20
69.550941
 11
302.248566
 21
69.550941
  0
LINE
  8
0
  6
CONTINUOUS
 10
303.623566
 20
69.550941
 11
307.356567
 21
69.548515
  0
LINE
  8
0
  6
CONTINUOUS
 10
284.498566
 20
68.708839
 11
284.498566
 21
68.519691
  0
ARC
  8
0
  6
CONTINUOUS
 10
273.654785
 20
116.380386
 40
30.000000
 50
131.810394
 51
181.671204
  0
ARC
  8
0
  6
CONTINUOUS
 10
313.654785
 20
71.658997
 40
30.043320
 50
307.456360
 51
356.922760
  0
ARC
  8
0
  6
CONTINUOUS
 10
273.654785
 20
71.658997
 40
30.000000
 50
180.000000
 51
228.189697
  0
LINE
  8
0
  6
CONTINUOUS
 10
286.154785
 20
115.019691
 11
286.154785
 21
109.019691
  0
LINE
  8
0
  6
CONTINUOUS
 10
280.154785
 20
115.019691
 11
280.154785
 21
109.019691
  0
LINE
  8
0
  6
CONTINUOUS
 10
280.154785
 20
115.019691
 11
286.154785
 21
115.019691
  0
LINE
  8
0
  6
CONTINUOUS
 10
280.154785
 20
109.019691
 11
286.154785
 21
109.019691
  0
ARC
  8
0
  6
CONTINUOUS
 10
293.654785
 20
112.019691
 40
11.000000
 50
-164.173401
 51
164.173401
  0
LINE
  8
0
  6
CONTINUOUS
 10
358.404785
 20
139.019592
 11
358.404785
 21
24.019789
  0
LINE
  8
0
  6
CONTINUOUS
 10
533.404663
 20
338.756683
 11
533.404663
 21
292.756683
  0
LINE
  8
0
  6
CONTINUOUS
 10
531.404663
 20
290.756683
 11
533.404663
 21
292.756683
  0
LINE
  8
0
  6
CONTINUOUS
 10
531.404663
 20
290.756683
 11
485.404663
 21
290.756683
  0
LINE
  8
0
  6
CONTINUOUS
 10
490.904663
 20
295.256683
 11
490.904663
 21
290.756683
  0
ARC
  8
0
  6
CONTINUOUS
 10
487.904663
 20
295.256683
 40
3.000000
 50
0.000000
 51
90.000000
  0
LINE
  8
0
  6
CONTINUOUS
 10
487.904663
 20
298.256683
 11
483.404663
 21
298.256683
  0
CIRCLE
  8
0
  6
CONTINUOUS
 10
486.904663
 20
294.256683
 40
2.250000
  0
LINE
  8
0
  6
CONTINUOUS
 10
483.404663
 20
338.756683
 11
483.404663
 21
292.756683
  0
LINE
  8
0
  6
CONTINUOUS
 10
485.404663
 20
290.756683
 11
483.404663
 21
292.756683
  0
LINE
  8
0
  6
CONTINUOUS
 10
485.404663
 20
340.756683
 11
483.404663
 21
338.756683
  0
LINE
  8
0
  6
CONTINUOUS
 10
485.404663
 20
340.756683
 11
531.404663
 21
340.756683
  0
LINE
  8
0
  6
CONTINUOUS
 10
533.404663
 20
338.756683
 11
531.404663
 21
340.756683
  0
LINE
  8
0
  6
CONTINUOUS
 10
528.904663
 20
333.256683
 11
533.404663
 21
333.256683
  0
CIRCLE
  8
0
  6
CONTINUOUS
 10
529.904663
 20
337.256683
 40
2.250000
  0
ARC
  8
0
  6
CONTINUOUS
 10
528.904663
 20
336.256683
 40
3.000000
 50
180.000000
 51
270.000000
  0
LINE
  8
0
  6
CONTINUOUS
 10
525.904663
 20
336.256683
 11
525.904663
 21
340.756683
  0
LINE
  8
0
  6
CENTER
 10
508.404663
 20
348.222443
 11
508.404663
 21
284.090424
  0
LINE
  8
0
  6
CONTINUOUS
 10
532.404663
 20
333.256683
 11
532.404663
 21
298.256683
  0
LINE
  8
0
  6
CONTINUOUS
 10
490.904663
 20
291.756683
 11
525.904663
 21
291.756683
  0
LINE
  8
0
  6
CONTINUOUS
 10
484.404663
 20
298.256683
 11
484.404663
 21
333.256683
  0
LINE
  8
0
  6
CONTINUOUS
 10
525.904663
 20
339.756683
 11
490.904663
 21
339.756683
  0
LINE
  8
0
  6
CONTINUOUS
 10
528.904663
 20
298.256683
 11
533.404663
 21
298.256683
  0
ARC
  8
0
  6
CONTINUOUS
 10
528.904663
 20
295.256683
 40
3.000000
 50
90.000000
 51
180.000000
  0
LINE
  8
0
  6
CONTINUOUS
 10
525.904663
 20
295.256683
 11
525.904663
 21
290.756683
  0
CIRCLE
  8
0
  6
CONTINUOUS
 10
529.904663
 20
294.256683
 40
2.250000
  0
ARC
  8
0
  6
CONTINUOUS
 10
487.904663
 20
336.256683
 40
3.000000
 50
-90.000000
 51
0.000000
  0
LINE
  8
0
  6
CONTINUOUS
 10
490.904663
 20
336.256683
 11
490.904663
 21
340.756653
  0
LINE
  8
0
  6
CONTINUOUS
 10
487.904663
 20
333.256683
 11
483.404663
 21
333.256683
  0
CIRCLE
  8
0
  6
CONTINUOUS
 10
486.904663
 20
337.256683
 40
2.250000
  0
LINE
  8
0
  6
CONTINUOUS
 10
531.904785
 20
110.019691
 11
485.404785
 21
110.019691
  0
LINE
  8
0
  6
CONTINUOUS
 10
483.404816
 20
154.019684
 11
483.404785
 21
112.019691
  0
LINE
  8
0
  6
CONTINUOUS
 10
533.404785
 20
154.019684
 11
533.404785
 21
112.019691
  0
LINE
  8
0
  6
CONTINUOUS
 10
533.404785
 20
122.019691
 11
483.404785
 21
122.019691
  0
LINE
  8
0
  6
CONTINUOUS
 10
485.404785
 20
110.019691
 11
483.404785
 21
112.019691
  0
LINE
  8
0
  6
CONTINUOUS
 10
533.404785
 20
112.019691
 11
531.404785
 21
110.019691
  0
LINE
  8
0
  6
CONTINUOUS
 10
533.404785
 20
112.019691
 11
483.404785
 21
112.019691
  0
LINE
  8
0
  6
CONTINUOUS
 10
533.404785
 20
123.019691
 11
483.404816
 21
123.019691
  0
LINE
  8
0
  6
CONTINUOUS
 10
532.404785
 20
155.019684
 11
484.404816
 21
155.019684
  0
LINE
  8
0
  6
CONTINUOUS
 10
484.404816
 20
155.019684
 11
483.404816
 21
154.019684
  0
LINE
  8
0
  6
CONTINUOUS
 10
532.404785
 20
155.019684
 11
533.404785
 21
154.019684
  0
LINE
  8
0
  6
CONTINUOUS
 10
533.404785
 20
154.019684
 11
483.404816
 21
154.019684
  0
LINE
  8
0
  6
CENTER
 10
508.404785
 20
103.630180
 11
508.404785
 21
161.322189
  0
LINE
  8
0
  6
CENTER
 10
535.779785
 20
138.019684
 11
531.154785
 21
138.019684
  0
LINE
  8
0
  6
CONTINUOUS
 10
531.904785
 20
110.019691
 11
531.904785
 21
108.519691
  0
LINE
  8
0
  6
CONTINUOUS
 10
485.904785
 20
110.019691
 11
485.904785
 21
108.519691
  0
LINE
  8
0
  6
CONTINUOUS
 10
534.279785
 20
148.519684
 11
532.279785
 21
148.519684
  0
LINE
  8
0
  6
CONTINUOUS
 10
534.279785
 20
127.519691
 11
532.279785
 21
127.519691
  0
LINE
  8
0
  6
CONTINUOUS
 10
366.404785
 20
61.119686
 11
410.404785
 21
61.119686
  0
LINE
  8
0
  6
CONTINUOUS
 10
366.404785
 20
50.919689
 11
410.404785
 21
50.919689
  0
TEXT
  8
0
 10
-20.000000
 20
-8.000000
 40
4.000000
 41
1.000000
  1
HLM-22L-300~450-T40K
 50
0.000000
  0
ENDSEC
  0
EOF
