  0
SECTION
  2
HEADER
  9
$CLAYER
  8
1
  9
$LTSCALE
 40
3.0
  0
ENDSEC
  0
SECTION
  2
TABLES
  0
TABLE
  2
LTYPE
 70
     4
  0
LTYPE
  2
CONTINUOUS
  3
solid line
 70
    64
 72
    65
 73
     0
 40
0.0
  0
LTYPE
  2
DASHED
  3
__ __ __ __ __ __ __ __ __ __ __ __ __ __ __
 70
    64
 72
    65
 73
     2
 40
0.75
 49
0.5
 49
-0.25
  0
LTYPE
  2
CENTER
  3
____ _ ____ _ ____ _ ____ _ ____ _ ____ _ ____
 70
    64
 72
    65
 73
     4
 40
2.0
 49
1.25
 49
-0.25
 49
0.25
 49
-0.25
  0
LTYPE
  2
PHANTOM
  3
_____ _ _ _____ _ _ _____ _ _ _____ _ _ ____
 70
    64
 72
    65
 73
     6
 40
2.5
 49
1.25
 49
-0.25
 49
0.25
 49
-0.25
 49
0.25
 49
-0.25
  0
ENDTAB
  0
TABLE
  2
LAYER
 70
     1
  0
LAYER
  2
0
 70
    64
 62
     7
  6
CONTINUOUS
  0
ENDTAB
  0
TABLE
  2
STYLE
 70
     1
  0
STYLE
  2
STANDARD
 70
     0
 40
0.000000
 41
1.000000
 50
0.000000
 71
     0
 42
3.000000
  3
txt
  4
BIGFONT
  0
ENDTAB
  0
ENDSEC
  0
SECTION
  2
BLOCKS
  0
ENDSEC
  0
SECTION
  2
ENTITIES
  0
LINE
  8
0
  6
CENTER
 10
415.791260
 20
82.654686
 11
302.694794
 21
82.654686
  0
LINE
  8
0
  6
CONTINUOUS
 10
501.444794
 20
109.654671
 11
387.444794
 21
109.654671
  0
LINE
  8
0
  6
CONTINUOUS
 10
501.444794
 20
33.654709
 11
387.444794
 21
33.654709
  0
LINE
  8
0
  6
CONTINUOUS
 10
501.444794
 20
101.903671
 11
395.444794
 21
101.903671
  0
LINE
  8
0
  6
CONTINUOUS
 10
501.444794
 20
41.405708
 11
395.444794
 21
41.405708
  0
LINE
  8
0
  6
CONTINUOUS
 10
395.444794
 20
107.654671
 11
395.444794
 21
35.654686
  0
ARC
  8
0
  6
CONTINUOUS
 10
393.444794
 20
107.654686
 40
2.000000
 50
0.000000
 51
90.000000
  0
ARC
  8
0
  6
CONTINUOUS
 10
393.444794
 20
35.654709
 40
2.000000
 50
-90.000000
 51
0.000000
  0
LINE
  8
0
  6
CENTER
 10
61.775002
 20
-7.470333
 11
61.775002
 21
172.079681
  0
LINE
  8
0
  6
CENTER
 10
-8.450000
 20
82.654686
 11
130.675003
 21
82.654686
  0
LINE
  8
0
  6
CENTER
 10
2.777969
 20
113.154686
 11
165.024994
 21
113.154686
  0
LINE
  8
0
  6
CONTINUOUS
 10
3.775000
 20
8.154687
 11
36.775002
 21
8.154687
  0
LINE
  8
0
  6
CONTINUOUS
 10
3.775000
 20
18.781088
 11
3.775000
 21
8.154687
  0
LINE
  8
0
  6
CONTINUOUS
 10
119.775002
 20
18.781088
 11
119.775002
 21
8.154687
  0
LINE
  8
0
  6
CONTINUOUS
 10
5.775000
 20
20.154688
 11
26.775000
 21
20.154688
  0
LINE
  8
0
  6
CONTINUOUS
 10
117.775002
 20
20.154688
 11
96.775002
 21
20.154688
  0
LINE
  8
0
  6
CONTINUOUS
 10
29.775000
 20
31.528288
 11
29.775000
 21
155.630615
  0
LINE
  8
0
  6
CONTINUOUS
 10
93.775002
 20
31.528288
 11
93.775002
 21
155.630966
  0
LINE
  8
0
  6
CONTINUOUS
 10
91.809799
 20
157.630661
 11
61.775002
 21
158.154694
  0
LINE
  8
0
  6
CONTINUOUS
 10
31.740000
 20
157.630325
 11
61.775002
 21
158.154694
  0
ARC
  8
0
  6
CONTINUOUS
 10
31.775000
 20
155.630630
 40
2.000000
 50
91.000580
 51
180.000000
  0
ARC
  8
0
  6
CONTINUOUS
 10
91.775002
 20
155.630966
 40
2.000000
 50
0.000000
 51
89.000519
  0
LINE
  8
0
  6
CONTINUOUS
 10
93.775002
 20
23.154688
 11
93.775002
 21
8.154687
  0
ARC
  8
0
  6
CONTINUOUS
 10
96.775002
 20
23.154688
 40
3.000000
 50
180.000000
 51
270.000000
  0
LINE
  8
0
  6
CONTINUOUS
 10
29.775000
 20
23.154688
 11
29.775000
 21
8.154687
  0
ARC
  8
0
  6
CONTINUOUS
 10
26.775000
 20
23.154667
 40
3.000000
 50
-90.000000
 51
0.000000
  0
ARC
  8
0
  6
CONTINUOUS
 10
5.775000
 20
18.154688
 40
2.000000
 50
90.000000
 51
180.000000
  0
ARC
  8
0
  6
CONTINUOUS
 10
117.775002
 20
18.154688
 40
2.000000
 50
0.000000
 51
90.000000
  0
LINE
  8
0
  6
CENTER
 10
16.775000
 20
24.444689
 11
16.775000
 21
4.044688
  0
LINE
  8
0
  6
CENTER
 10
106.775002
 20
25.464687
 11
106.775002
 21
3.534687
  0
LINE
  8
0
  6
CONTINUOUS
 10
28.493000
 20
29.661608
 11
5.057000
 21
20.647787
  0
ARC
  8
0
  6
CONTINUOUS
 10
5.775000
 20
18.781107
 40
2.000000
 50
111.037903
 51
180.000000
  0
LINE
  8
0
  6
CONTINUOUS
 10
29.775000
 20
31.528288
 11
29.775000
 21
23.154688
  0
ARC
  8
0
  6
CONTINUOUS
 10
27.775000
 20
31.528288
 40
2.000000
 50
-68.962189
 51
0.000000
  0
LINE
  8
0
  6
CONTINUOUS
 10
95.056999
 20
29.661589
 11
118.492996
 21
20.647787
  0
ARC
  8
0
  6
CONTINUOUS
 10
117.775002
 20
18.781088
 40
2.000000
 50
0.000000
 51
68.962646
  0
LINE
  8
0
  6
CONTINUOUS
 10
93.775002
 20
31.528288
 11
93.775002
 21
23.154688
  0
ARC
  8
0
  6
CONTINUOUS
 10
95.775002
 20
31.528309
 40
2.000000
 50
180.000000
 51
248.962799
  0
LINE
  8
0
  6
CONTINUOUS
 10
13.775000
 20
87.961838
 11
13.775000
 21
138.347534
  0
LINE
  8
0
  6
CONTINUOUS
 10
109.775002
 20
87.961838
 11
109.775002
 21
138.347534
  0
LINE
  8
0
  6
CONTINUOUS
 10
99.775002
 20
54.959530
 11
99.775002
 21
115.224686
  0
LINE
  8
0
  6
CONTINUOUS
 10
23.775000
 20
54.959530
 11
23.775000
 21
115.224686
  0
LINE
  8
0
  6
CONTINUOUS
 10
107.545197
 20
141.246994
 11
96.004799
 21
144.312393
  0
LINE
  8
0
  6
CONTINUOUS
 10
107.545197
 20
85.062386
 11
102.004799
 21
83.590736
  0
LINE
  8
0
  6
CONTINUOUS
 10
97.547997
 20
52.060825
 11
96.001999
 21
51.648548
  0
LINE
  8
0
  6
CONTINUOUS
 10
26.002001
 20
52.060806
 11
27.548000
 21
51.648548
  0
LINE
  8
0
  6
CONTINUOUS
 10
16.004801
 20
85.062386
 11
21.545200
 21
83.590736
  0
LINE
  8
0
  6
CONTINUOUS
 10
16.004801
 20
141.246994
 11
27.545200
 21
144.312393
  0
ARC
  8
0
  6
CONTINUOUS
 10
16.775000
 20
138.347549
 40
3.000000
 50
104.876099
 51
180.000000
  0
ARC
  8
0
  6
CONTINUOUS
 10
16.775000
 20
87.961861
 40
3.000000
 50
180.000000
 51
255.124603
  0
ARC
  8
0
  6
CONTINUOUS
 10
106.775002
 20
138.347534
 40
3.000000
 50
0.000000
 51
75.124413
  0
ARC
  8
0
  6
CONTINUOUS
 10
106.775002
 20
87.961838
 40
3.000000
 50
-75.124207
 51
0.000000
  0
ARC
  8
0
  6
CONTINUOUS
 10
26.775000
 20
54.959549
 40
3.000000
 50
180.000000
 51
255.069000
  0
ARC
  8
0
  6
CONTINUOUS
 10
96.775002
 20
54.959530
 40
3.000000
 50
-75.068420
 51
0.000000
  0
ARC
  8
0
  6
CONTINUOUS
 10
96.775002
 20
147.211868
 40
3.000000
 50
180.000000
 51
255.124603
  0
ARC
  8
0
  6
CONTINUOUS
 10
102.775002
 20
80.691299
 40
3.000000
 50
104.876099
 51
180.000000
  0
ARC
  8
0
  6
CONTINUOUS
 10
96.775002
 20
48.749866
 40
3.000000
 50
104.931801
 51
180.000000
  0
ARC
  8
0
  6
CONTINUOUS
 10
26.775000
 20
48.749847
 40
3.000000
 50
0.000000
 51
75.068779
  0
ARC
  8
0
  6
CONTINUOUS
 10
20.775000
 20
80.691269
 40
3.000000
 50
0.000000
 51
75.124496
  0
ARC
  8
0
  6
CONTINUOUS
 10
26.775000
 20
147.211823
 40
3.000000
 50
-75.124153
 51
0.000000
  0
LINE
  8
0
  6
DASHED
 10
11.275000
 20
20.154688
 11
11.275000
 21
8.154687
  0
LINE
  8
0
  6
DASHED
 10
22.275000
 20
20.154688
 11
22.275000
 21
8.154687
  0
LINE
  8
0
  6
DASHED
 10
101.275002
 20
20.154688
 11
101.275002
 21
8.154687
  0
LINE
  8
0
  6
DASHED
 10
112.275002
 20
20.154688
 11
112.275002
 21
8.154687
  0
LINE
  8
0
  6
CONTINUOUS
 10
32.005001
 20
135.154694
 11
91.675003
 21
135.154694
  0
LINE
  8
0
  6
CONTINUOUS
 10
14.275000
 20
40.154690
 11
14.275000
 21
49.206028
  0
LINE
  8
0
  6
CONTINUOUS
 10
109.275002
 20
40.154690
 11
109.275002
 21
49.206028
  0
LINE
  8
0
  6
CONTINUOUS
 10
19.275000
 20
35.154686
 11
28.306200
 21
35.154686
  0
LINE
  8
0
  6
CONTINUOUS
 10
104.275002
 20
35.154686
 11
95.223602
 21
35.154686
  0
ARC
  8
0
  6
CONTINUOUS
 10
61.775002
 20
82.654686
 40
57.250000
 50
-32.501888
 51
19.914110
  0
ARC
  8
0
  6
CONTINUOUS
 10
61.775002
 20
82.654686
 40
57.250000
 50
146.974487
 51
212.501907
  0
ARC
  8
0
  6
CONTINUOUS
 10
19.275000
 20
40.154690
 40
5.000000
 50
180.000000
 51
270.000000
  0
ARC
  8
0
  6
CONTINUOUS
 10
104.275002
 20
40.154690
 40
5.000000
 50
-90.000000
 51
0.000000
  0
ARC
  8
0
  6
CONTINUOUS
 10
28.326401
 20
30.154688
 40
5.000000
 50
73.928284
 51
90.230461
  0
ARC
  8
0
  6
CONTINUOUS
 10
95.223602
 20
30.154688
 40
5.000000
 50
90.000000
 51
106.071800
  0
ARC
  8
0
  6
CONTINUOUS
 10
9.275000
 20
49.206028
 40
5.000000
 50
0.000000
 51
32.499691
  0
ARC
  8
0
  6
CONTINUOUS
 10
114.275002
 20
49.206028
 40
5.000000
 50
147.498306
 51
180.000000
  0
LINE
  8
0
  6
CONTINUOUS
 10
95.775002
 20
33.654686
 11
93.775002
 21
33.654686
  0
LINE
  8
0
  6
CONTINUOUS
 10
27.775000
 20
33.654686
 11
29.775000
 21
33.654686
  0
ARC
  8
0
  6
CONTINUOUS
 10
95.775002
 20
37.654690
 40
4.000000
 50
270.000000
 51
322.311005
  0
ARC
  8
0
  6
CONTINUOUS
 10
27.775000
 20
37.654690
 40
4.000000
 50
218.645996
 51
270.000000
  0
LINE
  8
0
  6
CONTINUOUS
 10
151.774994
 20
102.154686
 11
151.774994
 21
124.154686
  0
LINE
  8
0
  6
CONTINUOUS
 10
111.775002
 20
124.154686
 11
151.774994
 21
124.154686
  0
LINE
  8
0
  6
CONTINUOUS
 10
111.775002
 20
102.154686
 11
151.774994
 21
102.154686
  0
LINE
  8
0
  6
CONTINUOUS
 10
111.775002
 20
125.654686
 11
111.775002
 21
100.654686
  0
LINE
  8
0
  6
CONTINUOUS
 10
109.775002
 20
125.654686
 11
111.775002
 21
125.654686
  0
LINE
  8
0
  6
CONTINUOUS
 10
109.775002
 20
100.654686
 11
111.775002
 21
100.654686
  0
ARC
  8
0
  6
CONTINUOUS
 10
119.775002
 20
113.154686
 40
3.000000
 50
90.000000
 51
270.000000
  0
LINE
  8
0
  6
CONTINUOUS
 10
119.775002
 20
116.154686
 11
151.774994
 21
116.154686
  0
LINE
  8
0
  6
CONTINUOUS
 10
119.775002
 20
110.154686
 11
151.774994
 21
110.154686
  0
LINE
  8
0
  6
CENTER
 10
572.085022
 20
71.654686
 11
302.694794
 21
71.654686
  0
LINE
  8
0
  6
CONTINUOUS
 10
345.857544
 20
111.106949
 11
387.444794
 21
109.654686
  0
LINE
  8
0
  6
CONTINUOUS
 10
335.444794
 20
31.838808
 11
387.444794
 21
33.654686
  0
LINE
  8
0
  6
CONTINUOUS
 10
343.444794
 20
139.154694
 11
343.444794
 21
112.154686
  0
LINE
  8
0
  6
CONTINUOUS
 10
342.444794
 20
140.154694
 11
335.444763
 21
140.154694
  0
LINE
  8
0
  6
CONTINUOUS
 10
340.944794
 20
25.154688
 11
335.444794
 21
25.154688
  0
LINE
  8
0
  6
CONTINUOUS
 10
343.444794
 20
112.654686
 11
343.444794
 21
41.742031
  0
LINE
  8
0
  6
CONTINUOUS
 10
387.444794
 20
109.654686
 11
387.444794
 21
33.654686
  0
LINE
  8
0
  6
CONTINUOUS
 10
344.857910
 20
122.972488
 11
370.801331
 21
110.448082
  0
LINE
  8
0
  6
CENTER
 10
270.694763
 20
204.930710
 11
270.694763
 21
369.512512
  0
LINE
  8
0
  6
CENTER
 10
570.369995
 20
301.132385
 11
201.355316
 21
301.132385
  0
LINE
  8
0
  6
CONTINUOUS
 10
321.912811
 20
269.132385
 11
223.166824
 21
269.132385
  0
LINE
  8
0
  6
CONTINUOUS
 10
321.912811
 20
333.132385
 11
223.166824
 21
333.132385
  0
LINE
  8
0
  6
CONTINUOUS
 10
227.756668
 20
243.132401
 11
257.194763
 21
243.132401
  0
LINE
  8
0
  6
CONTINUOUS
 10
313.632874
 20
359.132385
 11
270.694763
 21
359.132385
  0
LINE
  8
0
  6
CONTINUOUS
 10
217.694778
 20
301.132385
 11
218.253342
 21
269.132385
  0
LINE
  8
0
  6
CONTINUOUS
 10
222.862701
 20
247.108154
 11
218.253342
 21
269.132385
  0
ARC
  8
0
  6
CONTINUOUS
 10
227.756668
 20
248.132401
 40
5.000000
 50
191.820602
 51
270.000000
  0
LINE
  8
0
  6
CONTINUOUS
 10
217.694778
 20
301.132385
 11
218.253342
 21
333.132385
  0
LINE
  8
0
  6
CONTINUOUS
 10
222.862701
 20
355.156647
 11
218.253342
 21
333.132385
  0
ARC
  8
0
  6
CONTINUOUS
 10
227.756668
 20
354.132385
 40
5.000000
 50
90.000000
 51
168.179398
  0
LINE
  8
0
  6
CONTINUOUS
 10
250.694778
 20
331.132385
 11
250.694778
 21
271.132385
  0
LINE
  8
0
  6
CONTINUOUS
 10
290.694763
 20
331.132385
 11
290.694763
 21
271.132385
  0
ARC
  8
0
  6
CONTINUOUS
 10
223.166824
 20
274.132385
 40
5.000000
 50
181.000000
 51
270.000000
  0
ARC
  8
0
  6
CONTINUOUS
 10
223.166824
 20
328.132385
 40
5.000000
 50
90.000000
 51
179.000000
  0
LINE
  8
0
  6
CONTINUOUS
 10
327.368286
 20
355.460938
 11
326.911072
 21
338.001526
  0
LINE
  8
0
  6
CONTINUOUS
 10
335.444763
 20
243.632401
 11
335.444763
 21
358.632385
  0
LINE
  8
0
  6
CONTINUOUS
 10
316.879761
 20
283.132385
 11
316.879761
 21
319.132385
  0
LINE
  8
0
  6
CONTINUOUS
 10
335.444763
 20
243.882401
 11
330.367249
 21
243.882401
  0
LINE
  8
0
  6
CONTINUOUS
 10
330.367249
 20
358.382385
 11
335.444763
 21
358.382385
  0
ARC
  8
0
  6
CONTINUOUS
 10
321.912811
 20
338.132385
 40
5.000000
 50
270.000000
 51
358.500000
  0
ARC
  8
0
  6
CONTINUOUS
 10
330.367249
 20
355.382385
 40
3.000000
 50
90.000000
 51
178.500000
  0
LINE
  8
0
  6
CONTINUOUS
 10
327.368286
 20
246.803864
 11
326.911072
 21
264.263275
  0
ARC
  8
0
  6
CONTINUOUS
 10
321.912811
 20
264.132385
 40
5.000000
 50
1.500000
 51
90.000000
  0
ARC
  8
0
  6
CONTINUOUS
 10
330.367249
 20
246.882401
 40
3.000000
 50
-178.500000
 51
-90.000000
  0
LINE
  8
0
  6
CONTINUOUS
 10
318.526855
 20
247.108154
 11
323.105988
 21
268.987946
  0
ARC
  8
0
  6
CONTINUOUS
 10
313.632874
 20
248.132401
 40
5.000000
 50
270.000000
 51
348.179413
  0
LINE
  8
0
  6
CONTINUOUS
 10
318.526855
 20
355.156647
 11
323.105988
 21
333.276855
  0
ARC
  8
0
  6
CONTINUOUS
 10
313.632874
 20
354.132385
 40
5.000000
 50
11.820596
 51
90.000000
  0
LINE
  8
0
  6
CENTER
 10
246.144379
 20
346.132385
 11
225.290207
 21
346.132385
  0
LINE
  8
0
  6
CENTER
 10
235.694778
 20
338.575104
 11
235.694778
 21
355.345947
  0
CIRCLE
  8
0
  6
CONTINUOUS
 10
235.694778
 20
346.132385
 40
5.500000
  0
LINE
  8
0
  6
CENTER
 10
295.245178
 20
346.132385
 11
316.099335
 21
346.132385
  0
LINE
  8
0
  6
CENTER
 10
305.694763
 20
338.575104
 11
305.694763
 21
355.345947
  0
CIRCLE
  8
0
  6
CONTINUOUS
 10
305.694763
 20
346.132385
 40
5.500000
  0
LINE
  8
0
  6
CENTER
 10
246.144379
 20
256.132385
 11
225.290207
 21
256.132385
  0
LINE
  8
0
  6
CENTER
 10
235.694778
 20
263.689697
 11
235.694778
 21
246.918854
  0
CIRCLE
  8
0
  6
CONTINUOUS
 10
235.694778
 20
256.132385
 40
5.500000
  0
LINE
  8
0
  6
CENTER
 10
295.245178
 20
256.132385
 11
316.099335
 21
256.132385
  0
LINE
  8
0
  6
CENTER
 10
305.694763
 20
263.689697
 11
305.694763
 21
246.918854
  0
CIRCLE
  8
0
  6
CONTINUOUS
 10
305.694763
 20
256.132385
 40
5.500000
  0
LINE
  8
0
  6
CONTINUOUS
 10
295.887604
 20
349.132385
 11
245.501938
 21
349.132385
  0
LINE
  8
0
  6
CONTINUOUS
 10
240.538528
 20
339.132385
 11
237.251678
 21
339.132385
  0
ARC
  8
0
  6
CONTINUOUS
 10
245.501938
 20
346.132385
 40
3.000000
 50
90.000000
 51
165.124313
  0
LINE
  8
0
  6
CONTINUOUS
 10
234.352219
 20
336.902557
 11
233.943069
 21
335.362213
  0
ARC
  8
0
  6
CONTINUOUS
 10
237.251678
 20
336.132385
 40
3.000000
 50
90.000000
 51
165.124313
  0
ARC
  8
0
  6
CONTINUOUS
 10
231.043625
 20
336.132385
 40
3.000000
 50
270.000000
 51
345.124329
  0
LINE
  8
0
  6
CONTINUOUS
 10
240.538528
 20
339.132385
 11
242.602478
 21
346.902557
  0
LINE
  8
0
  6
CONTINUOUS
 10
307.037323
 20
336.902557
 11
307.446472
 21
335.362213
  0
ARC
  8
0
  6
CONTINUOUS
 10
304.137878
 20
336.132385
 40
3.000000
 50
14.875682
 51
90.000000
  0
ARC
  8
0
  6
CONTINUOUS
 10
310.345917
 20
336.132385
 40
3.000000
 50
194.875687
 51
270.000000
  0
LINE
  8
0
  6
CONTINUOUS
 10
300.851013
 20
339.132385
 11
304.137878
 21
339.132385
  0
ARC
  8
0
  6
CONTINUOUS
 10
295.887604
 20
346.132385
 40
3.000000
 50
14.875682
 51
90.000000
  0
LINE
  8
0
  6
CONTINUOUS
 10
300.851013
 20
339.132385
 11
298.787079
 21
346.902557
  0
CIRCLE
  8
0
  6
CONTINUOUS
 10
235.694778
 20
256.132385
 40
5.500000
  0
LINE
  8
0
  6
CONTINUOUS
 10
295.887604
 20
253.132401
 11
245.501938
 21
253.132401
  0
LINE
  8
0
  6
CONTINUOUS
 10
240.538528
 20
263.132385
 11
237.251678
 21
263.132385
  0
ARC
  8
0
  6
CONTINUOUS
 10
245.501938
 20
256.132385
 40
3.000000
 50
-165.124313
 51
-90.000000
  0
LINE
  8
0
  6
CONTINUOUS
 10
234.352219
 20
265.362244
 11
233.943069
 21
266.902557
  0
ARC
  8
0
  6
CONTINUOUS
 10
237.251678
 20
266.132385
 40
3.000000
 50
-165.124313
 51
-90.000000
  0
ARC
  8
0
  6
CONTINUOUS
 10
231.043625
 20
266.132385
 40
3.000000
 50
14.875682
 51
90.000000
  0
LINE
  8
0
  6
CONTINUOUS
 10
240.538528
 20
263.132385
 11
242.602478
 21
255.362228
  0
LINE
  8
0
  6
CONTINUOUS
 10
307.037323
 20
265.362213
 11
307.446472
 21
266.902557
  0
ARC
  8
0
  6
CONTINUOUS
 10
304.137878
 20
266.132385
 40
3.000000
 50
270.000000
 51
345.124329
  0
ARC
  8
0
  6
CONTINUOUS
 10
310.345917
 20
266.132385
 40
3.000000
 50
90.000000
 51
165.124313
  0
LINE
  8
0
  6
CONTINUOUS
 10
300.851013
 20
263.132385
 11
304.137878
 21
263.132385
  0
ARC
  8
0
  6
CONTINUOUS
 10
295.887604
 20
256.132385
 40
3.000000
 50
270.000000
 51
345.124329
  0
LINE
  8
0
  6
CONTINUOUS
 10
300.851013
 20
263.132385
 11
298.787079
 21
255.362228
  0
LINE
  8
0
  6
CONTINUOUS
 10
270.694763
 20
359.132385
 11
227.756668
 21
359.132385
  0
LINE
  8
0
  6
CONTINUOUS
 10
281.694763
 20
211.132401
 11
257.194763
 21
211.132401
  0
LINE
  8
0
  6
CONTINUOUS
 10
259.694763
 20
251.132401
 11
259.694763
 21
246.132401
  0
LINE
  8
0
  6
CONTINUOUS
 10
281.694763
 20
251.132401
 11
281.694763
 21
211.132401
  0
LINE
  8
0
  6
CONTINUOUS
 10
258.194763
 20
253.132401
 11
258.194763
 21
251.132401
  0
LINE
  8
0
  6
CONTINUOUS
 10
283.194763
 20
253.132401
 11
283.194763
 21
251.132401
  0
LINE
  8
0
  6
CONTINUOUS
 10
283.194763
 20
251.132401
 11
258.194763
 21
251.132401
  0
LINE
  8
0
  6
CONTINUOUS
 10
257.194763
 20
246.132401
 11
257.194763
 21
211.132401
  0
LINE
  8
0
  6
CONTINUOUS
 10
260.111755
 20
211.132401
 11
260.111755
 21
246.132401
  0
LINE
  8
0
  6
CONTINUOUS
 10
260.111755
 20
246.132401
 11
257.194763
 21
246.132401
  0
LINE
  8
0
  6
CONTINUOUS
 10
281.694763
 20
243.132401
 11
313.811035
 21
243.132401
  0
LINE
  8
0
  6
CONTINUOUS
 10
335.444763
 20
253.632401
 11
330.111938
 21
253.632401
  0
ARC
  8
0
  6
CONTINUOUS
 10
330.111938
 20
256.632385
 40
3.000000
 50
181.500000
 51
270.000000
  0
LINE
  8
0
  6
CONTINUOUS
 10
327.154297
 20
269.132385
 11
335.444763
 21
269.132385
  0
LINE
  8
0
  6
CONTINUOUS
 10
327.154297
 20
333.132385
 11
335.444763
 21
333.132385
  0
LINE
  8
0
  6
CONTINUOUS
 10
335.444763
 20
348.632385
 11
330.111938
 21
348.632385
  0
ARC
  8
0
  6
CONTINUOUS
 10
330.111938
 20
345.632385
 40
3.000000
 50
90.000000
 51
178.500000
  0
LINE
  8
0
  6
CONTINUOUS
 10
37.775002
 20
9.154687
 11
85.775002
 21
9.154687
  0
LINE
  8
0
  6
CONTINUOUS
 10
86.775002
 20
8.154687
 11
85.775002
 21
9.154687
  0
LINE
  8
0
  6
CONTINUOUS
 10
36.775002
 20
8.154687
 11
37.775002
 21
9.154687
  0
LINE
  8
0
  6
CONTINUOUS
 10
86.775002
 20
8.154687
 11
119.775002
 21
8.154687
  0
LINE
  8
0
  6
CONTINUOUS
 10
340.944763
 20
358.632385
 11
335.444763
 21
358.632385
  0
LINE
  8
0
  6
CONTINUOUS
 10
340.944763
 20
243.632401
 11
335.444763
 21
243.632401
  0
LINE
  8
0
  6
CONTINUOUS
 10
343.444763
 20
356.132385
 11
343.444763
 21
246.132401
  0
LINE
  8
0
  6
CONTINUOUS
 10
387.444763
 20
263.132385
 11
387.444763
 21
339.132385
  0
LINE
  8
0
  6
CONTINUOUS
 10
345.857513
 20
261.680145
 11
387.444763
 21
263.132385
  0
LINE
  8
0
  6
CONTINUOUS
 10
345.857513
 20
340.584656
 11
387.444763
 21
339.132385
  0
ARC
  8
0
  6
CONTINUOUS
 10
340.944763
 20
246.132401
 40
2.500000
 50
-90.000000
 51
0.000000
  0
ARC
  8
0
  6
CONTINUOUS
 10
340.944763
 20
356.132385
 40
2.500000
 50
0.000000
 51
90.000000
  0
ARC
  8
0
  6
CONTINUOUS
 10
342.444794
 20
139.154694
 40
1.000000
 50
0.000000
 51
90.000000
  0
ARC
  8
0
  6
CONTINUOUS
 10
345.944794
 20
125.223869
 40
2.500000
 50
180.000000
 51
244.230682
  0
ARC
  8
0
  6
CONTINUOUS
 10
345.944794
 20
113.605423
 40
2.500000
 50
180.000000
 51
268.000000
  0
ARC
  8
0
  6
CONTINUOUS
 10
371.888214
 20
112.699455
 40
2.500000
 50
-115.769325
 51
-92.000000
  0
LINE
  8
0
  6
CONTINUOUS
 10
387.444763
 20
263.132385
 11
387.444763
 21
339.132385
  0
LINE
  8
0
  6
CONTINUOUS
 10
501.444641
 20
263.132416
 11
387.444641
 21
263.132416
  0
LINE
  8
0
  6
CONTINUOUS
 10
501.444641
 20
339.132385
 11
387.444641
 21
339.132385
  0
LINE
  8
0
  6
CONTINUOUS
 10
395.444641
 20
265.132416
 11
395.444641
 21
278.132385
  0
ARC
  8
0
  6
CONTINUOUS
 10
393.444641
 20
265.132385
 40
2.000000
 50
-90.000000
 51
0.000000
  0
ARC
  8
0
  6
CONTINUOUS
 10
393.444641
 20
337.132385
 40
2.000000
 50
0.000000
 51
90.000000
  0
LINE
  8
0
  6
CONTINUOUS
 10
460.444672
 20
324.132416
 11
395.444641
 21
324.132385
  0
LINE
  8
0
  6
CONTINUOUS
 10
395.444641
 20
324.132385
 11
395.444641
 21
337.132385
  0
ARC
  8
0
  6
CONTINUOUS
 10
356.275146
 20
301.132385
 40
15.000000
 50
-49.252373
 51
49.252373
  0
LINE
  8
0
  6
CONTINUOUS
 10
344.312958
 20
271.026398
 11
366.066071
 21
289.768524
  0
LINE
  8
0
  6
CONTINUOUS
 10
344.312958
 20
331.238403
 11
366.066071
 21
312.496277
  0
ARC
  8
0
  6
CONTINUOUS
 10
345.944763
 20
269.132416
 40
2.500000
 50
130.747620
 51
180.000000
  0
ARC
  8
0
  6
CONTINUOUS
 10
345.944763
 20
259.181671
 40
2.500000
 50
92.000000
 51
180.000000
  0
ARC
  8
0
  6
CONTINUOUS
 10
345.944763
 20
333.132355
 40
2.500000
 50
180.000000
 51
229.252380
  0
ARC
  8
0
  6
CONTINUOUS
 10
345.944763
 20
343.083130
 40
2.500000
 50
180.000000
 51
268.000000
  0
LINE
  8
0
  6
CONTINUOUS
 10
342.319702
 20
39.500687
 11
335.444794
 21
39.500687
  0
LINE
  8
0
  6
CONTINUOUS
 10
343.444794
 20
27.654688
 11
343.444794
 21
29.703953
  0
ARC
  8
0
  6
CONTINUOUS
 10
340.944794
 20
27.654688
 40
2.500000
 50
-90.000000
 51
0.000000
  0
ARC
  8
0
  6
CONTINUOUS
 10
345.944794
 20
29.703953
 40
2.500000
 50
92.000000
 51
180.000000
  0
ARC
  8
0
  6
CONTINUOUS
 10
61.775002
 20
82.654686
 40
57.500000
 50
236.002823
 51
236.184402
  0
ARC
  8
0
  6
CONTINUOUS
 10
61.775002
 20
82.654686
 40
57.500000
 50
303.815582
 51
303.997162
  0
ARC
  8
0
  6
CONTINUOUS
 10
61.775002
 20
82.654686
 40
57.500000
 50
-33.997124
 51
19.823904
  0
ARC
  8
0
  6
CONTINUOUS
 10
61.775002
 20
82.654686
 40
57.500000
 50
146.593216
 51
213.997131
  0
LINE
  8
0
  6
CENTER
 10
270.694763
 20
165.404694
 11
270.694763
 21
1.904688
  0
LINE
  8
0
  6
CENTER
 10
310.752502
 20
113.154686
 11
225.432495
 21
113.154686
  0
LINE
  8
0
  6
CONTINUOUS
 10
323.694763
 20
8.154688
 11
217.694778
 21
8.154688
  0
LINE
  8
0
  6
CONTINUOUS
 10
289.124176
 20
158.154694
 11
252.265381
 21
158.154694
  0
LINE
  8
0
  6
CONTINUOUS
 10
217.694778
 20
132.544922
 11
217.694778
 21
8.154708
  0
LINE
  8
0
  6
CONTINUOUS
 10
323.694763
 20
33.154690
 11
323.694763
 21
8.154688
  0
LINE
  8
0
  6
CONTINUOUS
 10
335.444763
 20
139.904694
 11
317.821777
 21
139.904694
  0
LINE
  8
0
  6
CONTINUOUS
 10
335.444763
 20
25.404688
 11
328.694763
 21
25.404688
  0
LINE
  8
0
  6
CONTINUOUS
 10
327.444763
 20
37.154690
 11
327.444763
 21
128.154694
  0
LINE
  8
0
  6
CONTINUOUS
 10
219.835770
 20
136.646927
 11
249.406372
 21
157.256668
  0
LINE
  8
0
  6
CONTINUOUS
 10
321.553772
 20
136.646927
 11
291.983185
 21
157.256668
  0
LINE
  8
0
  6
CONTINUOUS
 10
289.756378
 20
20.154688
 11
323.694763
 21
20.154688
  0
LINE
  8
0
  6
CONTINUOUS
 10
284.133179
 20
30.154688
 11
257.256378
 21
30.154688
  0
LINE
  8
0
  6
CONTINUOUS
 10
255.694778
 20
28.717188
 11
255.694778
 21
21.154688
  0
LINE
  8
0
  6
CONTINUOUS
 10
285.694763
 20
28.529688
 11
285.694763
 21
21.154688
  0
LINE
  8
0
  6
CONTINUOUS
 10
287.815979
 20
21.669607
 11
286.073578
 21
28.639769
  0
LINE
  8
0
  6
CONTINUOUS
 10
253.573578
 20
21.669607
 11
255.315979
 21
28.639748
  0
LINE
  8
0
  6
CONTINUOUS
 10
317.694763
 20
19.092188
 11
317.694763
 21
8.154688
  0
LINE
  8
0
  6
CONTINUOUS
 10
223.694778
 20
19.092188
 11
223.694778
 21
8.154688
  0
LINE
  8
0
  6
CENTER
 10
305.694763
 20
23.904688
 11
305.694763
 21
3.904688
  0
LINE
  8
0
  6
CENTER
 10
235.694778
 20
24.904688
 11
235.694778
 21
4.404688
  0
LINE
  8
0
  6
DASHED
 10
311.194763
 20
20.154688
 11
311.194763
 21
8.154688
  0
LINE
  8
0
  6
DASHED
 10
300.194763
 20
20.154688
 11
300.194763
 21
8.154688
  0
LINE
  8
0
  6
DASHED
 10
241.194778
 20
20.154688
 11
241.194778
 21
8.154688
  0
LINE
  8
0
  6
DASHED
 10
230.194778
 20
20.154688
 11
230.194778
 21
8.154688
  0
ARC
  8
0
  6
CONTINUOUS
 10
252.265182
 20
153.154694
 40
5.000000
 50
90.000000
 51
124.875198
  0
ARC
  8
0
  6
CONTINUOUS
 10
289.124176
 20
153.154694
 40
5.000000
 50
55.124401
 51
90.000000
  0
ARC
  8
0
  6
CONTINUOUS
 10
222.694778
 20
132.544922
 40
5.000000
 50
124.875198
 51
180.000000
  0
ARC
  8
0
  6
CONTINUOUS
 10
318.694763
 20
132.544952
 40
5.000000
 50
0.000000
 51
55.124298
  0
LINE
  8
0
  6
CONTINUOUS
 10
335.444763
 20
130.154694
 11
325.694763
 21
130.154694
  0
LINE
  8
0
  6
CONTINUOUS
 10
329.444763
 20
35.154690
 11
335.444763
 21
35.154690
  0
LINE
  8
0
  6
CONTINUOUS
 10
335.444763
 20
114.614685
 11
328.569763
 21
114.614685
  0
LINE
  8
0
  6
CONTINUOUS
 10
335.444763
 20
50.694687
 11
328.444763
 21
50.694687
  0
ARC
  8
0
  6
CONTINUOUS
 10
317.821777
 20
142.904694
 40
3.000000
 50
-124.875397
 51
-90.000000
  0
ARC
  8
0
  6
CONTINUOUS
 10
329.444763
 20
128.154694
 40
2.000000
 50
90.000000
 51
180.000000
  0
ARC
  8
0
  6
CONTINUOUS
 10
325.694763
 20
132.154694
 40
2.000000
 50
180.000000
 51
270.000000
  0
LINE
  8
0
  6
CONTINUOUS
 10
323.694763
 20
132.544952
 11
323.694763
 21
132.154694
  0
ARC
  8
0
  6
CONTINUOUS
 10
325.694763
 20
33.154690
 40
2.000000
 50
90.000000
 51
180.000000
  0
LINE
  8
0
  6
CONTINUOUS
 10
329.444763
 20
35.154690
 11
325.694763
 21
35.154690
  0
ARC
  8
0
  6
CONTINUOUS
 10
329.444763
 20
37.154690
 40
2.000000
 50
180.000000
 51
270.000000
  0
ARC
  8
0
  6
CONTINUOUS
 10
328.694763
 20
20.404669
 40
5.000000
 50
90.000000
 51
180.000000
  0
ARC
  8
0
  6
CONTINUOUS
 10
257.256378
 20
28.154688
 40
2.000000
 50
90.000000
 51
165.963593
  0
ARC
  8
0
  6
CONTINUOUS
 10
284.133179
 20
28.154688
 40
2.000000
 50
14.036100
 51
90.000000
  0
LINE
  8
0
  6
CONTINUOUS
 10
251.633179
 20
20.154688
 11
217.694778
 21
20.154688
  0
ARC
  8
0
  6
CONTINUOUS
 10
289.756378
 20
22.154688
 40
2.000000
 50
-165.963699
 51
-90.000000
  0
LINE
  8
0
  6
CONTINUOUS
 10
251.633179
 20
20.154688
 11
289.756378
 21
20.154688
  0
ARC
  8
0
  6
CONTINUOUS
 10
251.633179
 20
22.154688
 40
2.000000
 50
-90.000000
 51
-14.036190
  0
ARC
  8
0
  6
CONTINUOUS
 10
286.694763
 20
21.154688
 40
1.000000
 50
180.000000
 51
270.000000
  0
ARC
  8
0
  6
CONTINUOUS
 10
254.694778
 20
21.154688
 40
1.000000
 50
-90.000000
 51
0.000000
  0
LINE
  8
0
  6
CONTINUOUS
 10
220.694778
 20
116.654686
 11
220.694778
 21
72.793999
  0
LINE
  8
0
  6
CONTINUOUS
 10
320.694763
 20
117.515366
 11
320.694763
 21
71.181305
  0
ARC
  8
0
  6
CONTINUOUS
 10
270.694763
 20
95.154694
 40
60.000000
 50
48.189621
 51
131.810394
  0
ARC
  8
0
  6
CONTINUOUS
 10
270.694763
 20
95.154694
 40
60.000000
 50
228.189697
 51
309.631744
  0
ARC
  8
0
  6
CONTINUOUS
 10
290.694763
 20
117.515366
 40
30.000000
 50
0.000000
 51
48.189629
  0
CIRCLE
  8
0
  6
CONTINUOUS
 10
270.694763
 20
113.154686
 40
27.500000
  0
ARC
  8
0
  6
CONTINUOUS
 10
270.694763
 20
113.154686
 40
31.750000
 50
7.552697
 51
172.447403
  0
ARC
  8
0
  6
CONTINUOUS
 10
253.944778
 20
71.654686
 40
20.600000
 50
172.447403
 51
270.000000
  0
ARC
  8
0
  6
CONTINUOUS
 10
287.444763
 20
71.654686
 40
20.600000
 50
-90.000000
 51
7.552700
  0
LINE
  8
0
  6
CONTINUOUS
 10
302.169373
 20
117.327850
 11
307.865967
 21
74.362312
  0
LINE
  8
0
  6
CONTINUOUS
 10
233.523575
 20
74.362274
 11
239.220169
 21
117.327789
  0
LINE
  8
0
  6
CONTINUOUS
 10
253.944778
 20
51.054688
 11
287.444763
 21
51.054688
  0
ARC
  8
0
  6
CONTINUOUS
 10
253.944778
 20
71.654686
 40
19.000000
 50
172.447601
 51
270.000000
  0
ARC
  8
0
  6
CONTINUOUS
 10
287.444763
 20
71.654686
 40
19.000000
 50
-90.000000
 51
7.552700
  0
ARC
  8
0
  6
CONTINUOUS
 10
270.694763
 20
113.154686
 40
30.150000
 50
-187.552597
 51
7.552697
  0
LINE
  8
0
  6
CONTINUOUS
 10
235.109573
 20
74.151978
 11
240.806381
 21
117.117508
  0
LINE
  8
0
  6
CONTINUOUS
 10
300.583160
 20
117.117546
 11
306.279968
 21
74.152016
  0
LINE
  8
0
  6
CONTINUOUS
 10
253.944778
 20
52.654690
 11
287.444763
 21
52.654690
  0
LINE
  8
0
  6
CONTINUOUS
 10
260.398376
 20
60.154690
 11
256.237976
 21
60.154690
  0
LINE
  8
0
  6
CONTINUOUS
 10
262.694763
 20
67.123444
 11
262.694763
 21
60.154690
  0
LINE
  8
0
  6
CONTINUOUS
 10
266.694763
 20
69.654686
 11
266.694763
 21
72.154686
  0
LINE
  8
0
  6
CONTINUOUS
 10
274.694763
 20
69.654686
 11
274.694763
 21
72.154686
  0
LINE
  8
0
  6
CONTINUOUS
 10
269.913574
 20
70.685936
 11
269.913574
 21
61.467190
  0
LINE
  8
0
  6
CONTINUOUS
 10
271.413574
 20
70.685936
 11
271.413574
 21
61.467190
  0
LINE
  8
0
  6
CONTINUOUS
 10
279.288574
 20
70.685936
 11
279.288574
 21
61.404690
  0
LINE
  8
0
  6
CONTINUOUS
 10
280.663574
 20
65.764061
 11
280.663574
 21
61.404690
  0
LINE
  8
0
  6
CONTINUOUS
 10
260.796783
 20
70.560944
 11
256.941772
 21
70.560944
  0
LINE
  8
0
  6
CONTINUOUS
 10
256.941772
 20
70.560944
 11
256.038574
 21
69.440941
  0
LINE
  8
0
  6
CONTINUOUS
 10
256.147186
 20
72.154686
 11
254.694778
 21
70.294930
  0
LINE
  8
0
  6
CONTINUOUS
 10
256.038574
 20
62.527607
 11
256.956177
 21
61.560928
  0
LINE
  8
0
  6
CONTINUOUS
 10
254.694778
 20
61.711849
 11
256.237976
 21
60.154690
  0
LINE
  8
0
  6
CONTINUOUS
 10
254.694778
 20
70.294930
 11
254.694778
 21
61.711849
  0
LINE
  8
0
  6
CONTINUOUS
 10
256.038574
 20
69.440941
 11
256.038574
 21
62.527607
  0
LINE
  8
0
  6
CONTINUOUS
 10
261.538574
 20
69.843842
 11
260.781586
 21
70.560944
  0
LINE
  8
0
  6
CONTINUOUS
 10
261.526581
 20
72.154686
 11
262.694763
 21
70.858192
  0
LINE
  8
0
  6
CONTINUOUS
 10
261.538574
 20
69.654686
 11
262.694763
 21
69.654686
  0
LINE
  8
0
  6
CONTINUOUS
 10
256.147186
 20
72.154686
 11
261.526581
 21
72.154686
  0
LINE
  8
0
  6
CONTINUOUS
 10
259.444763
 20
67.123444
 11
262.694763
 21
67.123444
  0
LINE
  8
0
  6
CONTINUOUS
 10
261.538574
 20
65.810936
 11
259.444763
 21
65.810936
  0
LINE
  8
0
  6
CONTINUOUS
 10
259.038574
 20
61.560928
 11
256.956177
 21
61.560928
  0
LINE
  8
0
  6
CONTINUOUS
 10
261.538574
 20
64.560936
 11
261.538574
 21
65.560944
  0
ARC
  8
0
  6
CONTINUOUS
 10
259.038574
 20
64.060928
 40
2.500000
 50
-89.999786
 51
0.000109
  0
LINE
  8
0
  6
CONTINUOUS
 10
261.538574
 20
61.111248
 11
261.538574
 21
60.154690
  0
LINE
  8
0
  6
CONTINUOUS
 10
262.694763
 20
70.858192
 11
262.694763
 21
69.654686
  0
LINE
  8
0
  6
CONTINUOUS
 10
261.538574
 20
65.810936
 11
261.538574
 21
64.060936
  0
LINE
  8
0
  6
CONTINUOUS
 10
259.444763
 20
67.123444
 11
259.444763
 21
65.810936
  0
LINE
  8
0
  6
CONTINUOUS
 10
261.538574
 20
60.154690
 11
262.694763
 21
60.154690
  0
LINE
  8
0
  6
CONTINUOUS
 10
261.538574
 20
61.111248
 11
260.398376
 21
60.154690
  0
LINE
  8
0
  6
CONTINUOUS
 10
271.413574
 20
61.467190
 11
271.913574
 21
61.467190
  0
LINE
  8
0
  6
CONTINUOUS
 10
269.319763
 20
61.467190
 11
269.319763
 21
60.154690
  0
LINE
  8
0
  6
CONTINUOUS
 10
271.913574
 20
61.467190
 11
271.913574
 21
60.154690
  0
LINE
  8
0
  6
CONTINUOUS
 10
273.860382
 20
69.654686
 11
274.694763
 21
69.654686
  0
LINE
  8
0
  6
CONTINUOUS
 10
266.694763
 20
69.654686
 11
267.582764
 21
69.654686
  0
LINE
  8
0
  6
CONTINUOUS
 10
266.694763
 20
72.154686
 11
274.694763
 21
72.154686
  0
LINE
  8
0
  6
CONTINUOUS
 10
269.319763
 20
60.154690
 11
271.913574
 21
60.154690
  0
LINE
  8
0
  6
CONTINUOUS
 10
269.319763
 20
61.467190
 11
269.913574
 21
61.467190
  0
ARC
  8
0
  6
CONTINUOUS
 10
283.491577
 20
68.951561
 40
3.203126
 50
-73.981873
 51
90.003510
  0
ARC
  8
0
  6
CONTINUOUS
 10
283.491577
 20
68.951561
 40
1.954124
 50
-82.585274
 51
62.411850
  0
LINE
  8
0
  6
CONTINUOUS
 10
278.694763
 20
72.154686
 11
283.491577
 21
72.154686
  0
LINE
  8
0
  6
CONTINUOUS
 10
283.743774
 20
67.013771
 11
280.663574
 21
67.013771
  0
LINE
  8
0
  6
CONTINUOUS
 10
278.694763
 20
72.154686
 11
278.694763
 21
70.685936
  0
LINE
  8
0
  6
CONTINUOUS
 10
280.663574
 20
70.685936
 11
280.663574
 21
67.013771
  0
LINE
  8
0
  6
CONTINUOUS
 10
284.375580
 20
65.872795
 11
286.357971
 21
61.404690
  0
LINE
  8
0
  6
CONTINUOUS
 10
283.223969
 20
65.764061
 11
285.100189
 21
61.404690
  0
LINE
  8
0
  6
CONTINUOUS
 10
278.694763
 20
61.404690
 11
279.288574
 21
61.404690
  0
LINE
  8
0
  6
CONTINUOUS
 10
280.663574
 20
61.404690
 11
281.210388
 21
61.404690
  0
LINE
  8
0
  6
CONTINUOUS
 10
281.210388
 20
60.154690
 11
278.694763
 21
60.154690
  0
LINE
  8
0
  6
CONTINUOUS
 10
284.850983
 20
61.404690
 11
285.100189
 21
61.404690
  0
LINE
  8
0
  6
CONTINUOUS
 10
284.850983
 20
60.154690
 11
286.694763
 21
60.154690
  0
LINE
  8
0
  6
CONTINUOUS
 10
284.850983
 20
61.404690
 11
284.850983
 21
60.154690
  0
LINE
  8
0
  6
CONTINUOUS
 10
281.210388
 20
61.404690
 11
281.210388
 21
60.154690
  0
LINE
  8
0
  6
CONTINUOUS
 10
278.694763
 20
61.404690
 11
278.694763
 21
60.154690
  0
LINE
  8
0
  6
CONTINUOUS
 10
268.012573
 20
70.685936
 11
267.582764
 21
69.654686
  0
LINE
  8
0
  6
CONTINUOUS
 10
273.497986
 20
70.685936
 11
273.860382
 21
69.654686
  0
LINE
  8
0
  6
CONTINUOUS
 10
271.413574
 20
70.685936
 11
273.497986
 21
70.685936
  0
LINE
  8
0
  6
CONTINUOUS
 10
269.913574
 20
70.685936
 11
268.012573
 21
70.685936
  0
LINE
  8
0
  6
CONTINUOUS
 10
280.663574
 20
65.764061
 11
283.223969
 21
65.764061
  0
LINE
  8
0
  6
CONTINUOUS
 10
278.694763
 20
70.685936
 11
279.288574
 21
70.685936
  0
LINE
  8
0
  6
CONTINUOUS
 10
280.663574
 20
70.685936
 11
284.396576
 21
70.683510
  0
LINE
  8
0
  6
CONTINUOUS
 10
261.538574
 20
69.843842
 11
261.538574
 21
69.654686
  0
ARC
  8
0
  6
CONTINUOUS
 10
250.694778
 20
117.515388
 40
30.000000
 50
131.810394
 51
181.671204
  0
ARC
  8
0
  6
CONTINUOUS
 10
290.694763
 20
72.793999
 40
30.043320
 50
307.456360
 51
356.922760
  0
ARC
  8
0
  6
CONTINUOUS
 10
250.694778
 20
72.793999
 40
30.000000
 50
180.000000
 51
228.189697
  0
LINE
  8
0
  6
CONTINUOUS
 10
263.194763
 20
116.154686
 11
263.194763
 21
110.154686
  0
LINE
  8
0
  6
CONTINUOUS
 10
257.194763
 20
116.154686
 11
257.194763
 21
110.154686
  0
LINE
  8
0
  6
CONTINUOUS
 10
257.194763
 20
116.154686
 11
263.194763
 21
116.154686
  0
LINE
  8
0
  6
CONTINUOUS
 10
257.194763
 20
110.154686
 11
263.194763
 21
110.154686
  0
ARC
  8
0
  6
CONTINUOUS
 10
270.694763
 20
113.154686
 40
11.000000
 50
-164.173401
 51
164.173401
  0
LINE
  8
0
  6
CONTINUOUS
 10
335.444763
 20
140.154587
 11
335.444763
 21
25.154787
  0
LINE
  8
0
  6
CONTINUOUS
 10
501.444641
 20
339.132385
 11
501.444641
 21
326.132416
  0
LINE
  8
0
  6
CONTINUOUS
 10
501.444641
 20
339.132385
 11
510.944641
 21
339.132385
  0
LINE
  8
0
  6
CONTINUOUS
 10
501.444641
 20
263.132385
 11
510.944641
 21
263.132385
  0
LINE
  8
0
  6
CONTINUOUS
 10
510.444641
 20
278.132416
 11
510.944641
 21
278.132385
  0
LINE
  8
0
  6
CONTINUOUS
 10
501.444641
 20
276.132416
 11
501.444641
 21
263.132385
  0
LINE
  8
0
  6
CONTINUOUS
 10
510.944641
 20
261.132385
 11
510.944641
 21
293.632416
  0
LINE
  8
0
  6
CONTINUOUS
 10
554.944641
 20
341.132385
 11
510.944641
 21
341.132385
  0
LINE
  8
0
  6
CONTINUOUS
 10
554.944641
 20
261.132385
 11
510.944641
 21
261.132385
  0
LINE
  8
0
  6
CONTINUOUS
 10
559.944641
 20
266.132385
 11
559.944641
 21
336.132385
  0
ARC
  8
0
  6
CONTINUOUS
 10
554.944641
 20
336.132385
 40
5.000000
 50
0.000000
 51
90.000000
  0
ARC
  8
0
  6
CONTINUOUS
 10
554.944641
 20
266.132385
 40
5.000000
 50
-90.000000
 51
0.000000
  0
LINE
  8
0
  6
CONTINUOUS
 10
557.444641
 20
325.132385
 11
510.944641
 21
325.132385
  0
LINE
  8
0
  6
CONTINUOUS
 10
557.444641
 20
275.132385
 11
510.944641
 21
275.132385
  0
LINE
  8
0
  6
CONTINUOUS
 10
510.944794
 20
109.654671
 11
501.444794
 21
109.654671
  0
LINE
  8
0
  6
CONTINUOUS
 10
510.944794
 20
33.654667
 11
501.444794
 21
33.654667
  0
LINE
  8
0
  6
CONTINUOUS
 10
510.944794
 20
31.654667
 11
510.944794
 21
111.654671
  0
LINE
  8
0
  6
CONTINUOUS
 10
510.944794
 20
101.903664
 11
501.444794
 21
101.903664
  0
LINE
  8
0
  6
CONTINUOUS
 10
510.944794
 20
41.405666
 11
501.444794
 21
41.405666
  0
LINE
  8
0
  6
CONTINUOUS
 10
554.944763
 20
111.654671
 11
510.944794
 21
111.654671
  0
LINE
  8
0
  6
CONTINUOUS
 10
554.944763
 20
31.654667
 11
510.944794
 21
31.654667
  0
LINE
  8
0
  6
CONTINUOUS
 10
559.944763
 20
36.654667
 11
559.944763
 21
106.654671
  0
ARC
  8
0
  6
CONTINUOUS
 10
554.944763
 20
106.654671
 40
5.000000
 50
0.000000
 51
90.000000
  0
ARC
  8
0
  6
CONTINUOUS
 10
554.944763
 20
36.654667
 40
5.000000
 50
-90.000000
 51
0.000000
  0
LINE
  8
0
  6
CONTINUOUS
 10
557.444763
 20
97.654671
 11
510.944794
 21
97.654671
  0
LINE
  8
0
  6
CONTINUOUS
 10
557.444763
 20
47.654667
 11
510.944794
 21
47.654667
  0
LINE
  8
0
  6
CONTINUOUS
 10
501.444794
 20
33.654686
 11
501.444794
 21
109.654671
  0
LINE
  8
0
  6
CONTINUOUS
 10
511.444641
 20
293.632416
 11
510.444641
 21
293.632416
  0
ARC
  8
0
  6
CONTINUOUS
 10
511.444641
 20
294.632416
 40
1.000000
 50
-90.000000
 51
0.000000
  0
LINE
  8
0
  6
CONTINUOUS
 10
515.944641
 20
297.132416
 11
515.944641
 21
305.132416
  0
LINE
  8
0
  6
CONTINUOUS
 10
515.944641
 20
297.132416
 11
512.444641
 21
295.632416
  0
LINE
  8
0
  6
CONTINUOUS
 10
515.944641
 20
305.132416
 11
512.444641
 21
306.632416
  0
LINE
  8
0
  6
CONTINUOUS
 10
512.444641
 20
294.632416
 11
512.444641
 21
307.632416
  0
LINE
  8
0
  6
CONTINUOUS
 10
511.444641
 20
308.632416
 11
510.444641
 21
308.632416
  0
ARC
  8
0
  6
CONTINUOUS
 10
511.444641
 20
307.632416
 40
1.000000
 50
0.000000
 51
90.000000
  0
LINE
  8
0
  6
CONTINUOUS
 10
510.444641
 20
324.132416
 11
510.444641
 21
278.132416
  0
LINE
  8
0
  6
CONTINUOUS
 10
508.444641
 20
276.132416
 11
510.444641
 21
278.132416
  0
LINE
  8
0
  6
CONTINUOUS
 10
508.444641
 20
276.132416
 11
462.444672
 21
276.132416
  0
LINE
  8
0
  6
CONTINUOUS
 10
467.944641
 20
280.632416
 11
467.944641
 21
276.132416
  0
ARC
  8
0
  6
CONTINUOUS
 10
464.944641
 20
280.632416
 40
3.000000
 50
0.000000
 51
90.000000
  0
LINE
  8
0
  6
CONTINUOUS
 10
464.944641
 20
283.632416
 11
460.444672
 21
283.632416
  0
CIRCLE
  8
0
  6
CONTINUOUS
 10
463.944641
 20
279.632416
 40
2.250000
  0
LINE
  8
0
  6
CONTINUOUS
 10
460.444672
 20
324.132416
 11
460.444672
 21
278.132416
  0
LINE
  8
0
  6
CONTINUOUS
 10
462.444672
 20
276.132416
 11
460.444672
 21
278.132416
  0
LINE
  8
0
  6
CONTINUOUS
 10
462.444672
 20
326.132416
 11
460.444672
 21
324.132416
  0
LINE
  8
0
  6
CONTINUOUS
 10
462.444672
 20
326.132416
 11
508.444641
 21
326.132416
  0
LINE
  8
0
  6
CONTINUOUS
 10
510.444641
 20
324.132416
 11
508.444641
 21
326.132416
  0
LINE
  8
0
  6
CONTINUOUS
 10
505.944641
 20
318.632416
 11
510.444641
 21
318.632416
  0
CIRCLE
  8
0
  6
CONTINUOUS
 10
506.944641
 20
322.632416
 40
2.250000
  0
ARC
  8
0
  6
CONTINUOUS
 10
505.944641
 20
321.632416
 40
3.000000
 50
180.000000
 51
270.000000
  0
LINE
  8
0
  6
CONTINUOUS
 10
502.944641
 20
321.632416
 11
502.944641
 21
326.132416
  0
LINE
  8
0
  6
CENTER
 10
485.444641
 20
333.598206
 11
485.444641
 21
269.466156
  0
LINE
  8
0
  6
CONTINUOUS
 10
508.030426
 20
277.132416
 11
509.444641
 21
278.546631
  0
LINE
  8
0
  6
CONTINUOUS
 10
509.444641
 20
318.632416
 11
509.444641
 21
278.546631
  0
LINE
  8
0
  6
CONTINUOUS
 10
467.944641
 20
277.132416
 11
508.030426
 21
277.132416
  0
LINE
  8
0
  6
CONTINUOUS
 10
461.444672
 20
283.632416
 11
461.444672
 21
323.718201
  0
LINE
  8
0
  6
CONTINUOUS
 10
502.944641
 20
325.132416
 11
462.858887
 21
325.132416
  0
LINE
  8
0
  6
CONTINUOUS
 10
462.858887
 20
325.132416
 11
461.444672
 21
323.718201
  0
LINE
  8
0
  6
CONTINUOUS
 10
510.444641
 20
324.132416
 11
510.944641
 21
324.132385
  0
LINE
  8
0
  6
CONTINUOUS
 10
460.444672
 20
278.132416
 11
395.444641
 21
278.132385
  0
LINE
  8
0
  6
CONTINUOUS
 10
510.944641
 20
308.632416
 11
510.944641
 21
341.132385
  0
LINE
  8
0
  6
CONTINUOUS
 10
508.944794
 20
111.154686
 11
462.444794
 21
111.154686
  0
LINE
  8
0
  6
CONTINUOUS
 10
460.444794
 20
141.154694
 11
460.444794
 21
113.154686
  0
LINE
  8
0
  6
CONTINUOUS
 10
510.444794
 20
141.154694
 11
510.444794
 21
113.154686
  0
LINE
  8
0
  6
CONTINUOUS
 10
512.444763
 20
123.154686
 11
460.444794
 21
123.154686
  0
LINE
  8
0
  6
CONTINUOUS
 10
462.444794
 20
111.154686
 11
460.444794
 21
113.154686
  0
LINE
  8
0
  6
CONTINUOUS
 10
510.444794
 20
113.154686
 11
508.444794
 21
111.154686
  0
LINE
  8
0
  6
CONTINUOUS
 10
510.444794
 20
113.154686
 11
460.444794
 21
113.154686
  0
LINE
  8
0
  6
CONTINUOUS
 10
509.444794
 20
142.154694
 11
461.444794
 21
142.154694
  0
LINE
  8
0
  6
CONTINUOUS
 10
461.444794
 20
142.154694
 11
460.444794
 21
141.154694
  0
LINE
  8
0
  6
CONTINUOUS
 10
509.444794
 20
142.154694
 11
510.444794
 21
141.154694
  0
LINE
  8
0
  6
CONTINUOUS
 10
510.444794
 20
141.154694
 11
460.444794
 21
141.154694
  0
LINE
  8
0
  6
CENTER
 10
518.388550
 20
132.654694
 11
506.313538
 21
132.654694
  0
LINE
  8
0
  6
CONTINUOUS
 10
512.444763
 20
139.154694
 11
512.444763
 21
123.154686
  0
LINE
  8
0
  6
CONTINUOUS
 10
511.444794
 20
140.154694
 11
510.444794
 21
140.154694
  0
ARC
  8
0
  6
CONTINUOUS
 10
511.444763
 20
139.154694
 40
1.000000
 50
0.000000
 51
90.000000
  0
LINE
  8
0
  6
CONTINUOUS
 10
515.944763
 20
136.654694
 11
515.944763
 21
128.654694
  0
LINE
  8
0
  6
CONTINUOUS
 10
515.944763
 20
136.654694
 11
512.444763
 21
138.154694
  0
LINE
  8
0
  6
CONTINUOUS
 10
515.944763
 20
128.654694
 11
512.444763
 21
127.154686
  0
LINE
  8
0
  6
CENTER
 10
485.444794
 20
106.460938
 11
485.444794
 21
147.542191
  0
LINE
  8
0
  6
CONTINUOUS
 10
508.944794
 20
111.154686
 11
508.944794
 21
109.654686
  0
LINE
  8
0
  6
CONTINUOUS
 10
462.944794
 20
111.154686
 11
462.944794
 21
109.654686
  0
LINE
  8
0
  6
CONTINUOUS
 10
343.444794
 20
62.254688
 11
387.444794
 21
62.254688
  0
LINE
  8
0
  6
CONTINUOUS
 10
343.444794
 20
52.054688
 11
387.444794
 21
52.054688
  0
TEXT
  8
0
 10
-42.000000
 20
-7.000000
 40
4.000000
 41
1.000000
  1
HLM-22L-300~450-T60WT
 50
0.000000
  0
ENDSEC
  0
EOF
