  0
SECTION
  2
HEADER
  9
$CLAYER
  8
1
  9
$LTSCALE
 40
3.0
  0
ENDSEC
  0
SECTION
  2
TABLES
  0
TABLE
  2
LTYPE
 70
     4
  0
LTYPE
  2
CONTINUOUS
  3
solid line
 70
    64
 72
    65
 73
     0
 40
0.0
  0
LTYPE
  2
DASHED
  3
__ __ __ __ __ __ __ __ __ __ __ __ __ __ __
 70
    64
 72
    65
 73
     2
 40
0.75
 49
0.5
 49
-0.25
  0
LTYPE
  2
CENTER
  3
____ _ ____ _ ____ _ ____ _ ____ _ ____ _ ____
 70
    64
 72
    65
 73
     4
 40
2.0
 49
1.25
 49
-0.25
 49
0.25
 49
-0.25
  0
LTYPE
  2
PHANTOM
  3
_____ _ _ _____ _ _ _____ _ _ _____ _ _ ____
 70
    64
 72
    65
 73
     6
 40
2.5
 49
1.25
 49
-0.25
 49
0.25
 49
-0.25
 49
0.25
 49
-0.25
  0
ENDTAB
  0
TABLE
  2
LAYER
 70
     1
  0
LAYER
  2
0
 70
    64
 62
     7
  6
CONTINUOUS
  0
ENDTAB
  0
TABLE
  2
STYLE
 70
     1
  0
STYLE
  2
STANDARD
 70
     0
 40
0.000000
 41
1.000000
 50
0.000000
 71
     0
 42
3.000000
  3
txt
  4
BIGFONT
  0
ENDTAB
  0
ENDSEC
  0
SECTION
  2
BLOCKS
  0
ENDSEC
  0
SECTION
  2
ENTITIES
  0
LINE
  8
0
  6
CENTER
 10
96.144997
 20
87.259689
 11
215.239532
 21
87.259689
  0
LINE
  8
0
  6
CENTER
 10
247.239532
 20
170.009689
 11
247.239532
 21
6.509687
  0
LINE
  8
0
  6
CENTER
 10
200.669128
 20
117.759689
 11
291.977509
 21
117.759689
  0
LINE
  8
0
  6
CONTINUOUS
 10
194.239532
 20
12.759687
 11
300.239532
 21
12.759687
  0
LINE
  8
0
  6
CONTINUOUS
 10
228.810135
 20
162.759689
 11
265.668945
 21
162.759689
  0
LINE
  8
0
  6
CONTINUOUS
 10
300.239532
 20
137.149933
 11
300.239532
 21
12.759708
  0
LINE
  8
0
  6
CONTINUOUS
 10
194.239532
 20
37.759686
 11
194.239532
 21
12.759687
  0
LINE
  8
0
  6
CONTINUOUS
 10
182.489532
 20
144.509689
 11
200.112534
 21
144.509689
  0
LINE
  8
0
  6
CONTINUOUS
 10
182.489532
 20
30.009687
 11
189.239548
 21
30.009687
  0
LINE
  8
0
  6
CONTINUOUS
 10
190.489532
 20
41.759689
 11
190.489532
 21
132.759689
  0
LINE
  8
0
  6
CONTINUOUS
 10
298.098541
 20
141.251923
 11
268.527924
 21
161.861664
  0
LINE
  8
0
  6
CONTINUOUS
 10
196.380524
 20
141.251923
 11
225.951126
 21
161.861664
  0
LINE
  8
0
  6
CONTINUOUS
 10
228.177933
 20
24.759687
 11
194.239532
 21
24.759687
  0
LINE
  8
0
  6
CONTINUOUS
 10
233.801132
 20
34.759686
 11
260.677917
 21
34.759686
  0
LINE
  8
0
  6
CONTINUOUS
 10
262.239532
 20
33.322186
 11
262.239532
 21
25.759687
  0
LINE
  8
0
  6
CONTINUOUS
 10
232.239532
 20
33.134686
 11
232.239532
 21
25.759687
  0
LINE
  8
0
  6
CONTINUOUS
 10
230.118332
 20
26.274607
 11
231.860733
 21
33.244766
  0
LINE
  8
0
  6
CONTINUOUS
 10
264.360718
 20
26.274607
 11
262.618317
 21
33.244747
  0
LINE
  8
0
  6
CONTINUOUS
 10
200.239532
 20
23.697187
 11
200.239532
 21
12.759687
  0
LINE
  8
0
  6
CONTINUOUS
 10
294.239532
 20
23.697187
 11
294.239532
 21
12.759687
  0
LINE
  8
0
  6
CENTER
 10
212.239532
 20
28.509687
 11
212.239532
 21
8.509687
  0
LINE
  8
0
  6
CENTER
 10
282.239532
 20
29.509687
 11
282.239532
 21
9.009687
  0
LINE
  8
0
  6
DASHED
 10
206.739532
 20
24.759687
 11
206.739532
 21
12.759687
  0
LINE
  8
0
  6
DASHED
 10
217.739532
 20
24.759687
 11
217.739532
 21
12.759687
  0
LINE
  8
0
  6
DASHED
 10
276.739532
 20
24.759687
 11
276.739532
 21
12.759687
  0
LINE
  8
0
  6
DASHED
 10
287.739532
 20
24.759687
 11
287.739532
 21
12.759687
  0
ARC
  8
0
  6
CONTINUOUS
 10
265.668945
 20
157.759689
 40
5.000000
 50
55.124809
 51
90.000000
  0
ARC
  8
0
  6
CONTINUOUS
 10
228.810135
 20
157.759689
 40
5.000000
 50
90.000000
 51
124.875603
  0
ARC
  8
0
  6
CONTINUOUS
 10
295.239532
 20
137.149933
 40
5.000000
 50
0.000000
 51
55.124851
  0
ARC
  8
0
  6
CONTINUOUS
 10
199.239532
 20
137.149948
 40
5.000000
 50
124.875702
 51
180.000000
  0
LINE
  8
0
  6
CONTINUOUS
 10
182.489532
 20
134.759689
 11
192.239532
 21
134.759689
  0
LINE
  8
0
  6
CONTINUOUS
 10
188.489532
 20
39.759686
 11
182.489532
 21
39.759686
  0
LINE
  8
0
  6
CONTINUOUS
 10
182.489532
 20
119.219688
 11
189.364532
 21
119.219688
  0
LINE
  8
0
  6
CONTINUOUS
 10
182.489532
 20
55.299686
 11
189.489532
 21
55.299686
  0
ARC
  8
0
  6
CONTINUOUS
 10
200.112335
 20
147.509689
 40
3.000000
 50
270.000000
 51
304.875397
  0
ARC
  8
0
  6
CONTINUOUS
 10
188.489548
 20
132.759689
 40
2.000000
 50
0.000000
 51
90.000000
  0
ARC
  8
0
  6
CONTINUOUS
 10
192.239532
 20
136.759689
 40
2.000000
 50
-90.000000
 51
0.000000
  0
LINE
  8
0
  6
CONTINUOUS
 10
194.239548
 20
137.149948
 11
194.239532
 21
136.759689
  0
ARC
  8
0
  6
CONTINUOUS
 10
192.239532
 20
37.759686
 40
2.000000
 50
0.000000
 51
90.000000
  0
LINE
  8
0
  6
CONTINUOUS
 10
188.489532
 20
39.759686
 11
192.239532
 21
39.759686
  0
ARC
  8
0
  6
CONTINUOUS
 10
188.489532
 20
41.759689
 40
2.000000
 50
-90.000000
 51
0.000000
  0
ARC
  8
0
  6
CONTINUOUS
 10
189.239548
 20
25.009666
 40
5.000000
 50
0.000000
 51
90.000000
  0
ARC
  8
0
  6
CONTINUOUS
 10
260.677917
 20
32.759686
 40
2.000000
 50
14.036440
 51
90.000000
  0
ARC
  8
0
  6
CONTINUOUS
 10
233.801132
 20
32.759686
 40
2.000000
 50
90.000000
 51
165.963898
  0
LINE
  8
0
  6
CONTINUOUS
 10
266.301117
 20
24.759687
 11
300.239532
 21
24.759687
  0
ARC
  8
0
  6
CONTINUOUS
 10
228.177933
 20
26.759687
 40
2.000000
 50
270.000000
 51
345.963715
  0
LINE
  8
0
  6
CONTINUOUS
 10
266.301117
 20
24.759687
 11
228.177933
 21
24.759687
  0
ARC
  8
0
  6
CONTINUOUS
 10
266.301117
 20
26.759687
 40
2.000000
 50
194.036194
 51
270.000000
  0
ARC
  8
0
  6
CONTINUOUS
 10
231.239532
 20
25.759687
 40
1.000000
 50
-90.000000
 51
0.000000
  0
ARC
  8
0
  6
CONTINUOUS
 10
263.239532
 20
25.759687
 40
1.000000
 50
180.000000
 51
270.000000
  0
CIRCLE
  8
0
  6
CONTINUOUS
 10
247.239532
 20
117.759689
 40
27.500000
  0
ARC
  8
0
  6
CONTINUOUS
 10
247.239532
 20
117.759689
 40
31.750000
 50
7.552697
 51
172.447403
  0
ARC
  8
0
  6
CONTINUOUS
 10
230.489532
 20
76.259689
 40
20.600000
 50
172.447403
 51
270.000000
  0
ARC
  8
0
  6
CONTINUOUS
 10
263.989532
 20
76.259689
 40
20.600000
 50
-90.000000
 51
7.552700
  0
LINE
  8
0
  6
CONTINUOUS
 10
278.714142
 20
121.932846
 11
284.410736
 21
78.967316
  0
LINE
  8
0
  6
CONTINUOUS
 10
210.068329
 20
78.967278
 11
215.764938
 21
121.932785
  0
LINE
  8
0
  6
CONTINUOUS
 10
230.489532
 20
55.659687
 11
263.989532
 21
55.659687
  0
ARC
  8
0
  6
CONTINUOUS
 10
230.489532
 20
76.259689
 40
19.000000
 50
172.447601
 51
270.000000
  0
ARC
  8
0
  6
CONTINUOUS
 10
263.989532
 20
76.259689
 40
19.000000
 50
-90.000000
 51
7.552700
  0
ARC
  8
0
  6
CONTINUOUS
 10
247.239532
 20
117.759689
 40
30.150000
 50
-187.552597
 51
7.552697
  0
LINE
  8
0
  6
CONTINUOUS
 10
211.654327
 20
78.756981
 11
217.351135
 21
121.722511
  0
LINE
  8
0
  6
CONTINUOUS
 10
277.127930
 20
121.722549
 11
282.824738
 21
78.757011
  0
LINE
  8
0
  6
CONTINUOUS
 10
230.489532
 20
57.259689
 11
263.989532
 21
57.259689
  0
LINE
  8
0
  6
CONTINUOUS
 10
236.943130
 20
64.759689
 11
232.782730
 21
64.759689
  0
LINE
  8
0
  6
CONTINUOUS
 10
239.239532
 20
71.728439
 11
239.239532
 21
64.759689
  0
LINE
  8
0
  6
CONTINUOUS
 10
243.239532
 20
74.259689
 11
243.239532
 21
76.759689
  0
LINE
  8
0
  6
CONTINUOUS
 10
251.239532
 20
74.259689
 11
251.239532
 21
76.759689
  0
LINE
  8
0
  6
CONTINUOUS
 10
246.458328
 20
75.290939
 11
246.458328
 21
66.072189
  0
LINE
  8
0
  6
CONTINUOUS
 10
247.958328
 20
75.290939
 11
247.958328
 21
66.072189
  0
LINE
  8
0
  6
CONTINUOUS
 10
255.833328
 20
75.290939
 11
255.833328
 21
66.009689
  0
LINE
  8
0
  6
CONTINUOUS
 10
257.208344
 20
70.369064
 11
257.208344
 21
66.009689
  0
LINE
  8
0
  6
CONTINUOUS
 10
237.341537
 20
75.165939
 11
233.486526
 21
75.165939
  0
LINE
  8
0
  6
CONTINUOUS
 10
233.486526
 20
75.165939
 11
232.583328
 21
74.045937
  0
LINE
  8
0
  6
CONTINUOUS
 10
232.691925
 20
76.759689
 11
231.239532
 21
74.899925
  0
LINE
  8
0
  6
CONTINUOUS
 10
232.583328
 20
67.132607
 11
233.500931
 21
66.165932
  0
LINE
  8
0
  6
CONTINUOUS
 10
231.239532
 20
66.316849
 11
232.782730
 21
64.759689
  0
LINE
  8
0
  6
CONTINUOUS
 10
231.239532
 20
74.899925
 11
231.239532
 21
66.316849
  0
LINE
  8
0
  6
CONTINUOUS
 10
232.583328
 20
74.045937
 11
232.583328
 21
67.132607
  0
LINE
  8
0
  6
CONTINUOUS
 10
238.083328
 20
74.448830
 11
237.326324
 21
75.165939
  0
LINE
  8
0
  6
CONTINUOUS
 10
238.071335
 20
76.759689
 11
239.239532
 21
75.463196
  0
LINE
  8
0
  6
CONTINUOUS
 10
238.083328
 20
74.259689
 11
239.239532
 21
74.259689
  0
LINE
  8
0
  6
CONTINUOUS
 10
232.691925
 20
76.759689
 11
238.071335
 21
76.759689
  0
LINE
  8
0
  6
CONTINUOUS
 10
235.989532
 20
71.728439
 11
239.239532
 21
71.728439
  0
LINE
  8
0
  6
CONTINUOUS
 10
238.083328
 20
70.415939
 11
235.989532
 21
70.415939
  0
LINE
  8
0
  6
CONTINUOUS
 10
235.583328
 20
66.165932
 11
233.500931
 21
66.165932
  0
LINE
  8
0
  6
CONTINUOUS
 10
238.083328
 20
69.165939
 11
238.083328
 21
70.165939
  0
ARC
  8
0
  6
CONTINUOUS
 10
235.583328
 20
68.665932
 40
2.500000
 50
-89.999786
 51
0.000109
  0
LINE
  8
0
  6
CONTINUOUS
 10
238.083328
 20
65.716248
 11
238.083328
 21
64.759689
  0
LINE
  8
0
  6
CONTINUOUS
 10
239.239532
 20
75.463196
 11
239.239532
 21
74.259689
  0
LINE
  8
0
  6
CONTINUOUS
 10
238.083328
 20
70.415939
 11
238.083328
 21
68.665932
  0
LINE
  8
0
  6
CONTINUOUS
 10
235.989532
 20
71.728439
 11
235.989532
 21
70.415939
  0
LINE
  8
0
  6
CONTINUOUS
 10
238.083328
 20
64.759689
 11
239.239532
 21
64.759689
  0
LINE
  8
0
  6
CONTINUOUS
 10
238.083328
 20
65.716248
 11
236.943130
 21
64.759689
  0
LINE
  8
0
  6
CONTINUOUS
 10
247.958328
 20
66.072189
 11
248.458328
 21
66.072189
  0
LINE
  8
0
  6
CONTINUOUS
 10
245.864532
 20
66.072189
 11
245.864532
 21
64.759689
  0
LINE
  8
0
  6
CONTINUOUS
 10
248.458328
 20
66.072189
 11
248.458328
 21
64.759689
  0
LINE
  8
0
  6
CONTINUOUS
 10
250.405136
 20
74.259689
 11
251.239532
 21
74.259689
  0
LINE
  8
0
  6
CONTINUOUS
 10
243.239532
 20
74.259689
 11
244.127533
 21
74.259689
  0
LINE
  8
0
  6
CONTINUOUS
 10
243.239532
 20
76.759689
 11
251.239532
 21
76.759689
  0
LINE
  8
0
  6
CONTINUOUS
 10
245.864532
 20
64.759689
 11
248.458328
 21
64.759689
  0
LINE
  8
0
  6
CONTINUOUS
 10
245.864532
 20
66.072189
 11
246.458328
 21
66.072189
  0
ARC
  8
0
  6
CONTINUOUS
 10
260.036530
 20
73.556564
 40
3.203126
 50
-73.981873
 51
90.003510
  0
ARC
  8
0
  6
CONTINUOUS
 10
260.036530
 20
73.556564
 40
1.954125
 50
-82.585274
 51
62.411850
  0
LINE
  8
0
  6
CONTINUOUS
 10
255.239532
 20
76.759689
 11
260.036530
 21
76.759689
  0
LINE
  8
0
  6
CONTINUOUS
 10
260.288544
 20
71.618774
 11
257.208344
 21
71.618774
  0
LINE
  8
0
  6
CONTINUOUS
 10
255.239532
 20
76.759689
 11
255.239532
 21
75.290939
  0
LINE
  8
0
  6
CONTINUOUS
 10
257.208344
 20
75.290939
 11
257.208344
 21
71.618774
  0
LINE
  8
0
  6
CONTINUOUS
 10
260.920319
 20
70.477798
 11
262.902740
 21
66.009689
  0
LINE
  8
0
  6
CONTINUOUS
 10
259.768738
 20
70.369064
 11
261.644928
 21
66.009689
  0
LINE
  8
0
  6
CONTINUOUS
 10
255.239532
 20
66.009689
 11
255.833328
 21
66.009689
  0
LINE
  8
0
  6
CONTINUOUS
 10
257.208344
 20
66.009689
 11
257.755127
 21
66.009689
  0
LINE
  8
0
  6
CONTINUOUS
 10
257.755127
 20
64.759689
 11
255.239532
 21
64.759689
  0
LINE
  8
0
  6
CONTINUOUS
 10
261.395721
 20
66.009689
 11
261.644928
 21
66.009689
  0
LINE
  8
0
  6
CONTINUOUS
 10
262.902740
 20
66.009689
 11
263.239532
 21
66.009689
  0
LINE
  8
0
  6
CONTINUOUS
 10
261.395721
 20
64.759689
 11
263.239532
 21
64.759689
  0
LINE
  8
0
  6
CONTINUOUS
 10
263.239532
 20
66.009689
 11
263.239532
 21
64.759689
  0
LINE
  8
0
  6
CONTINUOUS
 10
261.395721
 20
66.009689
 11
261.395721
 21
64.759689
  0
LINE
  8
0
  6
CONTINUOUS
 10
257.755127
 20
66.009689
 11
257.755127
 21
64.759689
  0
LINE
  8
0
  6
CONTINUOUS
 10
255.239532
 20
66.009689
 11
255.239532
 21
64.759689
  0
LINE
  8
0
  6
CONTINUOUS
 10
244.557327
 20
75.290939
 11
244.127533
 21
74.259689
  0
LINE
  8
0
  6
CONTINUOUS
 10
250.042725
 20
75.290939
 11
250.405136
 21
74.259689
  0
LINE
  8
0
  6
CONTINUOUS
 10
247.958328
 20
75.290939
 11
250.042725
 21
75.290939
  0
LINE
  8
0
  6
CONTINUOUS
 10
246.458328
 20
75.290939
 11
244.557327
 21
75.290939
  0
LINE
  8
0
  6
CONTINUOUS
 10
257.208344
 20
70.369064
 11
259.768738
 21
70.369064
  0
LINE
  8
0
  6
CONTINUOUS
 10
255.239532
 20
75.290939
 11
255.833328
 21
75.290939
  0
LINE
  8
0
  6
CONTINUOUS
 10
257.208344
 20
75.290939
 11
260.941345
 21
75.288506
  0
LINE
  8
0
  6
CONTINUOUS
 10
238.083328
 20
74.448830
 11
238.083328
 21
74.259689
  0
LINE
  8
0
  6
CONTINUOUS
 10
182.489548
 20
144.759689
 11
182.489532
 21
29.759687
  0
LINE
  8
0
  6
CONTINUOUS
 10
16.489531
 20
38.259708
 11
16.489531
 21
114.259689
  0
LINE
  8
0
  6
CONTINUOUS
 10
16.489531
 20
114.259666
 11
130.489532
 21
114.259666
  0
LINE
  8
0
  6
CONTINUOUS
 10
16.489531
 20
38.259708
 11
130.489532
 21
38.259708
  0
LINE
  8
0
  6
CONTINUOUS
 10
16.489531
 20
106.508667
 11
122.489532
 21
106.508667
  0
LINE
  8
0
  6
CONTINUOUS
 10
16.489531
 20
46.010708
 11
122.489532
 21
46.010708
  0
LINE
  8
0
  6
CONTINUOUS
 10
122.489532
 20
112.259666
 11
122.489532
 21
40.259686
  0
ARC
  8
0
  6
CONTINUOUS
 10
124.489532
 20
112.259689
 40
2.000000
 50
90.000000
 51
180.000000
  0
ARC
  8
0
  6
CONTINUOUS
 10
124.489532
 20
40.259708
 40
2.000000
 50
180.000000
 51
270.000000
  0
LINE
  8
0
  6
CONTINUOUS
 10
-4.010469
 20
44.259689
 11
-4.010469
 21
108.259689
  0
LINE
  8
0
  6
CONTINUOUS
 10
-0.046389
 20
114.259689
 11
16.489531
 21
114.259689
  0
LINE
  8
0
  6
CONTINUOUS
 10
-0.046373
 20
38.259686
 11
16.489531
 21
38.259686
  0
LINE
  8
0
  6
CONTINUOUS
 10
-3.510469
 20
41.259689
 11
-3.510469
 21
111.259689
  0
LINE
  8
0
  6
CONTINUOUS
 10
-4.010469
 20
108.259689
 11
-3.510469
 21
108.759689
  0
LINE
  8
0
  6
CONTINUOUS
 10
-4.010469
 20
44.259689
 11
-3.510469
 21
43.759689
  0
LINE
  8
0
  6
CONTINUOUS
 10
-2.644456
 20
112.759666
 11
-3.510469
 21
111.259689
  0
ARC
  8
0
  6
CONTINUOUS
 10
-0.046373
 20
111.259705
 40
3.000000
 50
90.000000
 51
150.000397
  0
LINE
  8
0
  6
CONTINUOUS
 10
-2.644456
 20
39.759708
 11
-3.510469
 21
41.259689
  0
ARC
  8
0
  6
CONTINUOUS
 10
-0.046373
 20
41.259689
 40
3.000000
 50
-150.000397
 51
-90.000000
  0
LINE
  8
0
  6
CONTINUOUS
 10
-1.928835
 20
106.508698
 11
16.489531
 21
106.508698
  0
LINE
  8
0
  6
CONTINUOUS
 10
16.489531
 20
46.010689
 11
-1.928835
 21
46.010689
  0
LINE
  8
0
  6
CONTINUOUS
 10
16.989531
 20
115.759689
 11
16.989531
 21
114.259689
  0
LINE
  8
0
  6
CONTINUOUS
 10
9.989531
 20
115.759689
 11
9.989531
 21
114.259689
  0
LINE
  8
0
  6
CONTINUOUS
 10
9.989531
 20
115.759689
 11
16.989531
 21
115.759689
  0
LINE
  8
0
  6
CONTINUOUS
 10
14.389525
 20
128.759689
 11
14.389525
 21
115.759689
  0
LINE
  8
0
  6
CONTINUOUS
 10
12.589537
 20
129.384689
 11
12.589537
 21
115.759689
  0
LINE
  8
0
  6
CONTINUOUS
 10
10.789519
 20
127.322189
 11
10.789519
 21
115.759689
  0
LINE
  8
0
  6
CONTINUOUS
 10
16.189531
 20
128.134689
 11
16.189531
 21
115.759689
  0
LINE
  8
0
  6
CONTINUOUS
 10
12.589537
 20
129.384689
 11
14.389525
 21
128.759689
  0
LINE
  8
0
  6
CONTINUOUS
 10
10.789519
 20
127.322189
 11
12.589537
 21
127.947189
  0
LINE
  8
0
  6
CONTINUOUS
 10
16.189531
 20
128.134689
 11
14.390531
 21
127.686989
  0
LINE
  8
0
  6
CENTER
 10
491.989532
 20
-2.865333
 11
491.989532
 21
176.684692
  0
LINE
  8
0
  6
CENTER
 10
421.764526
 20
87.259689
 11
560.889526
 21
87.259689
  0
LINE
  8
0
  6
CENTER
 10
390.239532
 20
117.759689
 11
553.862488
 21
117.759689
  0
LINE
  8
0
  6
CONTINUOUS
 10
433.989532
 20
12.759687
 11
466.989532
 21
12.759687
  0
LINE
  8
0
  6
CONTINUOUS
 10
433.989532
 20
23.386087
 11
433.989532
 21
12.759687
  0
LINE
  8
0
  6
CONTINUOUS
 10
549.989502
 20
23.386087
 11
549.989502
 21
12.759687
  0
LINE
  8
0
  6
CONTINUOUS
 10
435.989532
 20
24.759687
 11
456.989532
 21
24.759687
  0
LINE
  8
0
  6
CONTINUOUS
 10
547.989502
 20
24.759687
 11
526.989502
 21
24.759687
  0
LINE
  8
0
  6
CONTINUOUS
 10
459.989532
 20
36.133289
 11
459.989532
 21
160.235611
  0
LINE
  8
0
  6
CONTINUOUS
 10
523.989502
 20
36.133289
 11
523.989502
 21
160.235962
  0
LINE
  8
0
  6
CONTINUOUS
 10
522.024353
 20
162.235672
 11
491.989532
 21
162.759689
  0
LINE
  8
0
  6
CONTINUOUS
 10
461.954529
 20
162.235321
 11
491.989532
 21
162.759689
  0
ARC
  8
0
  6
CONTINUOUS
 10
461.989532
 20
160.235626
 40
2.000000
 50
91.000580
 51
180.000000
  0
ARC
  8
0
  6
CONTINUOUS
 10
521.989502
 20
160.235962
 40
2.000000
 50
0.000000
 51
89.000519
  0
LINE
  8
0
  6
CONTINUOUS
 10
523.989502
 20
27.759687
 11
523.989502
 21
12.759687
  0
ARC
  8
0
  6
CONTINUOUS
 10
526.989502
 20
27.759687
 40
3.000000
 50
180.000000
 51
270.000000
  0
LINE
  8
0
  6
CONTINUOUS
 10
459.989532
 20
27.759687
 11
459.989532
 21
12.759687
  0
ARC
  8
0
  6
CONTINUOUS
 10
456.989532
 20
27.759666
 40
3.000000
 50
-90.000000
 51
0.000000
  0
ARC
  8
0
  6
CONTINUOUS
 10
435.989532
 20
22.759687
 40
2.000000
 50
90.000000
 51
180.000000
  0
ARC
  8
0
  6
CONTINUOUS
 10
547.989502
 20
22.759687
 40
2.000000
 50
0.000000
 51
90.000000
  0
LINE
  8
0
  6
CENTER
 10
446.989532
 20
29.049688
 11
446.989532
 21
8.649688
  0
LINE
  8
0
  6
CENTER
 10
536.989502
 20
30.069689
 11
536.989502
 21
8.139687
  0
LINE
  8
0
  6
CONTINUOUS
 10
458.707520
 20
34.266609
 11
435.271545
 21
25.252789
  0
ARC
  8
0
  6
CONTINUOUS
 10
435.989532
 20
23.386106
 40
2.000000
 50
111.037903
 51
180.000000
  0
LINE
  8
0
  6
CONTINUOUS
 10
459.989532
 20
36.133289
 11
459.989532
 21
27.759687
  0
ARC
  8
0
  6
CONTINUOUS
 10
457.989532
 20
36.133289
 40
2.000000
 50
-68.962189
 51
0.000000
  0
LINE
  8
0
  6
CONTINUOUS
 10
525.271545
 20
34.266586
 11
548.707520
 21
25.252789
  0
ARC
  8
0
  6
CONTINUOUS
 10
547.989502
 20
23.386087
 40
2.000000
 50
0.000000
 51
68.962646
  0
LINE
  8
0
  6
CONTINUOUS
 10
523.989502
 20
36.133289
 11
523.989502
 21
27.759687
  0
ARC
  8
0
  6
CONTINUOUS
 10
525.989502
 20
36.133308
 40
2.000000
 50
180.000000
 51
248.962799
  0
LINE
  8
0
  6
CONTINUOUS
 10
443.989532
 20
92.566833
 11
443.989532
 21
142.952530
  0
LINE
  8
0
  6
CONTINUOUS
 10
539.989502
 20
92.566841
 11
539.989502
 21
142.952530
  0
LINE
  8
0
  6
CONTINUOUS
 10
529.989502
 20
59.564529
 11
529.989502
 21
119.829689
  0
LINE
  8
0
  6
CONTINUOUS
 10
453.989532
 20
59.564529
 11
453.989532
 21
119.829689
  0
LINE
  8
0
  6
CONTINUOUS
 10
537.759705
 20
145.851990
 11
526.219360
 21
148.917389
  0
LINE
  8
0
  6
CONTINUOUS
 10
537.759705
 20
89.667389
 11
532.219360
 21
88.195732
  0
LINE
  8
0
  6
CONTINUOUS
 10
527.762512
 20
56.665829
 11
526.216553
 21
56.253548
  0
LINE
  8
0
  6
CONTINUOUS
 10
456.216522
 20
56.665806
 11
457.762543
 21
56.253548
  0
LINE
  8
0
  6
CONTINUOUS
 10
446.219330
 20
89.667381
 11
451.759735
 21
88.195732
  0
LINE
  8
0
  6
CONTINUOUS
 10
446.219330
 20
145.851990
 11
457.759735
 21
148.917389
  0
ARC
  8
0
  6
CONTINUOUS
 10
446.989532
 20
142.952545
 40
3.000000
 50
104.876099
 51
180.000000
  0
ARC
  8
0
  6
CONTINUOUS
 10
446.989532
 20
92.566856
 40
3.000000
 50
180.000000
 51
255.124603
  0
ARC
  8
0
  6
CONTINUOUS
 10
536.989502
 20
142.952530
 40
3.000000
 50
0.000000
 51
75.124413
  0
ARC
  8
0
  6
CONTINUOUS
 10
536.989502
 20
92.566833
 40
3.000000
 50
-75.124207
 51
0.000000
  0
ARC
  8
0
  6
CONTINUOUS
 10
456.989532
 20
59.564548
 40
3.000000
 50
180.000000
 51
255.069000
  0
ARC
  8
0
  6
CONTINUOUS
 10
526.989502
 20
59.564529
 40
3.000000
 50
-75.068420
 51
0.000000
  0
ARC
  8
0
  6
CONTINUOUS
 10
526.989502
 20
151.816864
 40
3.000000
 50
180.000000
 51
255.124603
  0
ARC
  8
0
  6
CONTINUOUS
 10
532.989502
 20
85.296295
 40
3.000000
 50
104.876099
 51
180.000000
  0
ARC
  8
0
  6
CONTINUOUS
 10
526.989502
 20
53.354870
 40
3.000000
 50
104.931801
 51
180.000000
  0
ARC
  8
0
  6
CONTINUOUS
 10
456.989532
 20
53.354847
 40
3.000000
 50
0.000000
 51
75.068779
  0
ARC
  8
0
  6
CONTINUOUS
 10
450.989532
 20
85.296265
 40
3.000000
 50
0.000000
 51
75.124496
  0
ARC
  8
0
  6
CONTINUOUS
 10
456.989532
 20
151.816833
 40
3.000000
 50
-75.124153
 51
0.000000
  0
LINE
  8
0
  6
DASHED
 10
441.489532
 20
24.759687
 11
441.489532
 21
12.759687
  0
LINE
  8
0
  6
DASHED
 10
452.489532
 20
24.759687
 11
452.489532
 21
12.759687
  0
LINE
  8
0
  6
DASHED
 10
531.489502
 20
24.759687
 11
531.489502
 21
12.759687
  0
LINE
  8
0
  6
DASHED
 10
542.489502
 20
24.759687
 11
542.489502
 21
12.759687
  0
LINE
  8
0
  6
CONTINUOUS
 10
462.219543
 20
139.759689
 11
521.889526
 21
139.759689
  0
LINE
  8
0
  6
CONTINUOUS
 10
444.489532
 20
44.759689
 11
444.489532
 21
53.811028
  0
LINE
  8
0
  6
CONTINUOUS
 10
539.489502
 20
44.759689
 11
539.489502
 21
53.811028
  0
LINE
  8
0
  6
CONTINUOUS
 10
449.489532
 20
39.759686
 11
458.520721
 21
39.759686
  0
LINE
  8
0
  6
CONTINUOUS
 10
534.489502
 20
39.759686
 11
525.438110
 21
39.759686
  0
ARC
  8
0
  6
CONTINUOUS
 10
491.989532
 20
87.259689
 40
57.250000
 50
-32.501888
 51
33.025517
  0
ARC
  8
0
  6
CONTINUOUS
 10
491.989532
 20
87.259689
 40
57.250000
 50
160.085907
 51
212.501907
  0
ARC
  8
0
  6
CONTINUOUS
 10
449.489532
 20
44.759689
 40
5.000000
 50
180.000000
 51
270.000000
  0
ARC
  8
0
  6
CONTINUOUS
 10
534.489502
 20
44.759689
 40
5.000000
 50
-90.000000
 51
0.000000
  0
ARC
  8
0
  6
CONTINUOUS
 10
458.540924
 20
34.759686
 40
5.000000
 50
73.928284
 51
90.230461
  0
ARC
  8
0
  6
CONTINUOUS
 10
525.438110
 20
34.759686
 40
5.000000
 50
90.000000
 51
106.071800
  0
ARC
  8
0
  6
CONTINUOUS
 10
439.489532
 20
53.811028
 40
5.000000
 50
0.000000
 51
32.499691
  0
ARC
  8
0
  6
CONTINUOUS
 10
544.489502
 20
53.811028
 40
5.000000
 50
147.498306
 51
180.000000
  0
LINE
  8
0
  6
CONTINUOUS
 10
525.989502
 20
38.259686
 11
523.989502
 21
38.259686
  0
LINE
  8
0
  6
CONTINUOUS
 10
457.989532
 20
38.259686
 11
459.989532
 21
38.259686
  0
ARC
  8
0
  6
CONTINUOUS
 10
525.989502
 20
42.259689
 40
4.000000
 50
270.000000
 51
322.311005
  0
ARC
  8
0
  6
CONTINUOUS
 10
457.989532
 20
42.259689
 40
4.000000
 50
218.645996
 51
270.000000
  0
LINE
  8
0
  6
CONTINUOUS
 10
254.739532
 20
114.759705
 11
254.739532
 21
120.759705
  0
LINE
  8
0
  6
CONTINUOUS
 10
260.739532
 20
114.759727
 11
260.739532
 21
120.759727
  0
LINE
  8
0
  6
CONTINUOUS
 10
260.739532
 20
114.759727
 11
254.739532
 21
114.759705
  0
LINE
  8
0
  6
CONTINUOUS
 10
260.739532
 20
120.759727
 11
254.739532
 21
120.759705
  0
ARC
  8
0
  6
CONTINUOUS
 10
247.239532
 20
117.759689
 40
11.000000
 50
15.826600
 51
344.173401
  0
LINE
  8
0
  6
CONTINUOUS
 10
401.989532
 20
106.759689
 11
401.989532
 21
128.759689
  0
LINE
  8
0
  6
CONTINUOUS
 10
441.989532
 20
128.759689
 11
401.989532
 21
128.759689
  0
LINE
  8
0
  6
CONTINUOUS
 10
441.989532
 20
106.759689
 11
401.989532
 21
106.759689
  0
LINE
  8
0
  6
CONTINUOUS
 10
441.989532
 20
130.259689
 11
441.989532
 21
105.259689
  0
LINE
  8
0
  6
CONTINUOUS
 10
443.989532
 20
130.259689
 11
441.989532
 21
130.259689
  0
LINE
  8
0
  6
CONTINUOUS
 10
443.989532
 20
105.259689
 11
441.989532
 21
105.259689
  0
ARC
  8
0
  6
CONTINUOUS
 10
433.989532
 20
117.759689
 40
3.000000
 50
-90.000000
 51
90.000000
  0
LINE
  8
0
  6
CONTINUOUS
 10
433.989532
 20
120.759689
 11
401.989532
 21
120.759689
  0
LINE
  8
0
  6
CONTINUOUS
 10
433.989532
 20
114.759689
 11
401.989532
 21
114.759689
  0
LINE
  8
0
  6
CENTER
 10
-16.085468
 20
76.259689
 11
215.239532
 21
76.259689
  0
LINE
  8
0
  6
CONTINUOUS
 10
172.076782
 20
115.711945
 11
130.489532
 21
114.259689
  0
LINE
  8
0
  6
CONTINUOUS
 10
182.489532
 20
36.443810
 11
130.489532
 21
38.259686
  0
LINE
  8
0
  6
CONTINUOUS
 10
174.489532
 20
143.759689
 11
174.489532
 21
116.759689
  0
LINE
  8
0
  6
CONTINUOUS
 10
175.489532
 20
144.759689
 11
182.489548
 21
144.759689
  0
LINE
  8
0
  6
CONTINUOUS
 10
176.989532
 20
29.759687
 11
182.489532
 21
29.759687
  0
LINE
  8
0
  6
CONTINUOUS
 10
174.489532
 20
117.259689
 11
174.489532
 21
46.347031
  0
LINE
  8
0
  6
CONTINUOUS
 10
130.489532
 20
114.259689
 11
130.489532
 21
38.259686
  0
LINE
  8
0
  6
CONTINUOUS
 10
173.076401
 20
127.577492
 11
147.132980
 21
115.053078
  0
LINE
  8
0
  6
CENTER
 10
247.239532
 20
375.697510
 11
247.239532
 21
205.513443
  0
LINE
  8
0
  6
CENTER
 10
-15.457110
 20
305.737396
 11
316.578979
 21
305.737396
  0
LINE
  8
0
  6
CONTINUOUS
 10
196.021515
 20
337.737396
 11
294.767487
 21
337.737396
  0
LINE
  8
0
  6
CONTINUOUS
 10
196.021515
 20
273.737396
 11
294.767487
 21
273.737396
  0
LINE
  8
0
  6
CONTINUOUS
 10
290.177643
 20
363.737396
 11
247.239532
 21
363.737396
  0
LINE
  8
0
  6
CONTINUOUS
 10
204.301422
 20
247.737396
 11
236.239532
 21
247.737396
  0
LINE
  8
0
  6
CONTINUOUS
 10
300.239532
 20
305.737396
 11
299.680969
 21
337.737396
  0
LINE
  8
0
  6
CONTINUOUS
 10
295.071594
 20
359.761627
 11
299.680969
 21
337.737396
  0
ARC
  8
0
  6
CONTINUOUS
 10
290.177643
 20
358.737396
 40
5.000000
 50
11.820596
 51
90.000000
  0
LINE
  8
0
  6
CONTINUOUS
 10
300.239532
 20
305.737396
 11
299.680969
 21
273.737396
  0
LINE
  8
0
  6
CONTINUOUS
 10
295.071594
 20
251.713150
 11
299.680969
 21
273.737396
  0
ARC
  8
0
  6
CONTINUOUS
 10
290.177643
 20
252.737396
 40
5.000000
 50
-90.000000
 51
-11.820596
  0
LINE
  8
0
  6
CONTINUOUS
 10
267.239532
 20
275.737396
 11
267.239532
 21
335.737396
  0
LINE
  8
0
  6
CONTINUOUS
 10
227.239532
 20
275.737396
 11
227.239532
 21
335.737396
  0
ARC
  8
0
  6
CONTINUOUS
 10
294.767487
 20
332.737396
 40
5.000000
 50
1.000000
 51
90.000000
  0
ARC
  8
0
  6
CONTINUOUS
 10
294.767487
 20
278.737396
 40
5.000000
 50
270.000000
 51
359.000000
  0
LINE
  8
0
  6
CONTINUOUS
 10
190.566040
 20
251.408859
 11
191.023224
 21
268.868286
  0
LINE
  8
0
  6
CONTINUOUS
 10
182.489532
 20
363.237396
 11
182.489532
 21
248.237396
  0
LINE
  8
0
  6
CONTINUOUS
 10
201.054535
 20
323.737396
 11
201.054535
 21
287.737396
  0
LINE
  8
0
  6
CONTINUOUS
 10
182.489532
 20
362.987396
 11
187.567062
 21
362.987396
  0
LINE
  8
0
  6
CONTINUOUS
 10
187.567062
 20
248.487396
 11
182.489532
 21
248.487396
  0
ARC
  8
0
  6
CONTINUOUS
 10
196.021515
 20
268.737396
 40
5.000000
 50
90.000000
 51
178.500000
  0
ARC
  8
0
  6
CONTINUOUS
 10
187.567062
 20
251.487396
 40
3.000000
 50
270.000000
 51
358.500000
  0
LINE
  8
0
  6
CONTINUOUS
 10
190.566040
 20
360.065918
 11
191.023224
 21
342.606506
  0
ARC
  8
0
  6
CONTINUOUS
 10
196.021515
 20
342.737396
 40
5.000000
 50
-178.500000
 51
-90.000000
  0
ARC
  8
0
  6
CONTINUOUS
 10
187.567062
 20
359.987396
 40
3.000000
 50
-358.500000
 51
-270.000000
  0
LINE
  8
0
  6
CONTINUOUS
 10
199.407455
 20
359.761627
 11
194.828323
 21
337.881836
  0
ARC
  8
0
  6
CONTINUOUS
 10
204.301422
 20
358.737396
 40
5.000000
 50
90.000000
 51
168.179398
  0
LINE
  8
0
  6
CONTINUOUS
 10
199.407455
 20
251.713150
 11
194.828323
 21
273.592926
  0
ARC
  8
0
  6
CONTINUOUS
 10
204.301422
 20
252.737396
 40
5.000000
 50
-168.179398
 51
-90.000000
  0
LINE
  8
0
  6
CENTER
 10
271.789917
 20
260.737396
 11
292.644104
 21
260.737396
  0
LINE
  8
0
  6
CENTER
 10
282.239532
 20
268.294678
 11
282.239532
 21
251.523849
  0
CIRCLE
  8
0
  6
CONTINUOUS
 10
282.239532
 20
260.737396
 40
5.500000
  0
LINE
  8
0
  6
CENTER
 10
222.689133
 20
260.737396
 11
201.834961
 21
260.737396
  0
LINE
  8
0
  6
CENTER
 10
212.239532
 20
268.294678
 11
212.239532
 21
251.523849
  0
CIRCLE
  8
0
  6
CONTINUOUS
 10
212.239532
 20
260.737396
 40
5.500000
  0
LINE
  8
0
  6
CENTER
 10
271.789917
 20
350.737396
 11
292.644104
 21
350.737396
  0
LINE
  8
0
  6
CENTER
 10
282.239532
 20
343.180115
 11
282.239532
 21
359.950928
  0
CIRCLE
  8
0
  6
CONTINUOUS
 10
282.239532
 20
350.737396
 40
5.500000
  0
LINE
  8
0
  6
CENTER
 10
222.689133
 20
350.737396
 11
201.834961
 21
350.737396
  0
LINE
  8
0
  6
CENTER
 10
212.239532
 20
343.180115
 11
212.239532
 21
359.950928
  0
CIRCLE
  8
0
  6
CONTINUOUS
 10
212.239532
 20
350.737396
 40
5.500000
  0
LINE
  8
0
  6
CONTINUOUS
 10
222.046692
 20
257.737396
 11
272.432373
 21
257.737396
  0
LINE
  8
0
  6
CONTINUOUS
 10
277.395782
 20
267.737396
 11
280.682617
 21
267.737396
  0
ARC
  8
0
  6
CONTINUOUS
 10
272.432373
 20
260.737396
 40
3.000000
 50
270.000000
 51
345.124329
  0
LINE
  8
0
  6
CONTINUOUS
 10
283.582092
 20
269.967224
 11
283.991241
 21
271.507568
  0
ARC
  8
0
  6
CONTINUOUS
 10
280.682617
 20
270.737396
 40
3.000000
 50
270.000000
 51
345.124329
  0
ARC
  8
0
  6
CONTINUOUS
 10
286.890686
 20
270.737396
 40
3.000000
 50
90.000000
 51
165.124313
  0
LINE
  8
0
  6
CONTINUOUS
 10
277.395782
 20
267.737396
 11
275.331818
 21
259.967224
  0
LINE
  8
0
  6
CONTINUOUS
 10
210.896988
 20
269.967224
 11
210.487823
 21
271.507568
  0
ARC
  8
0
  6
CONTINUOUS
 10
213.796432
 20
270.737396
 40
3.000000
 50
-165.124313
 51
-90.000000
  0
ARC
  8
0
  6
CONTINUOUS
 10
207.588379
 20
270.737396
 40
3.000000
 50
14.875682
 51
90.000000
  0
LINE
  8
0
  6
CONTINUOUS
 10
217.083282
 20
267.737396
 11
213.796432
 21
267.737396
  0
ARC
  8
0
  6
CONTINUOUS
 10
222.046692
 20
260.737396
 40
3.000000
 50
-165.124313
 51
-90.000000
  0
LINE
  8
0
  6
CONTINUOUS
 10
217.083282
 20
267.737396
 11
219.147232
 21
259.967224
  0
CIRCLE
  8
0
  6
CONTINUOUS
 10
282.239532
 20
350.737396
 40
5.500000
  0
LINE
  8
0
  6
CONTINUOUS
 10
222.046692
 20
353.737396
 11
272.432373
 21
353.737396
  0
LINE
  8
0
  6
CONTINUOUS
 10
277.395782
 20
343.737396
 11
280.682617
 21
343.737396
  0
ARC
  8
0
  6
CONTINUOUS
 10
272.432373
 20
350.737396
 40
3.000000
 50
-345.124329
 51
-270.000000
  0
LINE
  8
0
  6
CONTINUOUS
 10
283.582092
 20
341.507568
 11
283.991241
 21
339.967224
  0
ARC
  8
0
  6
CONTINUOUS
 10
280.682617
 20
340.737396
 40
3.000000
 50
-345.124329
 51
-270.000000
  0
ARC
  8
0
  6
CONTINUOUS
 10
286.890686
 20
340.737396
 40
3.000000
 50
-165.124313
 51
-90.000000
  0
LINE
  8
0
  6
CONTINUOUS
 10
277.395782
 20
343.737396
 11
275.331818
 21
351.507568
  0
LINE
  8
0
  6
CONTINUOUS
 10
210.896988
 20
341.507568
 11
210.487823
 21
339.967224
  0
ARC
  8
0
  6
CONTINUOUS
 10
213.796432
 20
340.737396
 40
3.000000
 50
90.000000
 51
165.124313
  0
ARC
  8
0
  6
CONTINUOUS
 10
207.588379
 20
340.737396
 40
3.000000
 50
-90.000000
 51
-14.875682
  0
LINE
  8
0
  6
CONTINUOUS
 10
217.083282
 20
343.737396
 11
213.796432
 21
343.737396
  0
ARC
  8
0
  6
CONTINUOUS
 10
222.046692
 20
350.737396
 40
3.000000
 50
90.000000
 51
165.124313
  0
LINE
  8
0
  6
CONTINUOUS
 10
217.083282
 20
343.737396
 11
219.147232
 21
351.507568
  0
LINE
  8
0
  6
CONTINUOUS
 10
236.239532
 20
215.737396
 11
260.739532
 21
215.737396
  0
LINE
  8
0
  6
CONTINUOUS
 10
258.239532
 20
255.737396
 11
258.239532
 21
250.737396
  0
LINE
  8
0
  6
CONTINUOUS
 10
236.239532
 20
255.737396
 11
236.239532
 21
215.737396
  0
LINE
  8
0
  6
CONTINUOUS
 10
259.739532
 20
257.737396
 11
259.739532
 21
255.737396
  0
LINE
  8
0
  6
CONTINUOUS
 10
234.739532
 20
257.737396
 11
234.739532
 21
255.737396
  0
LINE
  8
0
  6
CONTINUOUS
 10
234.739532
 20
255.737396
 11
259.739532
 21
255.737396
  0
LINE
  8
0
  6
CONTINUOUS
 10
260.739532
 20
247.737396
 11
290.177643
 21
247.737396
  0
LINE
  8
0
  6
CONTINUOUS
 10
260.739532
 20
250.737396
 11
260.739532
 21
215.737396
  0
LINE
  8
0
  6
CONTINUOUS
 10
257.822540
 20
215.737396
 11
257.822540
 21
250.737396
  0
LINE
  8
0
  6
CONTINUOUS
 10
257.822540
 20
250.737396
 11
260.739532
 21
250.737396
  0
LINE
  8
0
  6
CONTINUOUS
 10
247.239532
 20
363.737396
 11
204.123260
 21
363.737396
  0
LINE
  8
0
  6
CONTINUOUS
 10
182.489532
 20
353.237396
 11
187.822372
 21
353.237396
  0
ARC
  8
0
  6
CONTINUOUS
 10
187.822372
 20
350.237396
 40
3.000000
 50
1.500000
 51
90.000000
  0
LINE
  8
0
  6
CONTINUOUS
 10
190.779999
 20
337.737396
 11
182.489532
 21
337.737396
  0
LINE
  8
0
  6
CONTINUOUS
 10
190.779999
 20
273.737396
 11
182.489532
 21
273.737396
  0
LINE
  8
0
  6
CONTINUOUS
 10
182.489532
 20
258.237396
 11
187.822372
 21
258.237396
  0
ARC
  8
0
  6
CONTINUOUS
 10
187.822372
 20
261.237396
 40
3.000000
 50
-90.000000
 51
-1.500000
  0
LINE
  8
0
  6
CONTINUOUS
 10
467.989532
 20
13.759687
 11
515.989502
 21
13.759687
  0
LINE
  8
0
  6
CONTINUOUS
 10
516.989502
 20
12.759687
 11
515.989502
 21
13.759687
  0
LINE
  8
0
  6
CONTINUOUS
 10
466.989532
 20
12.759687
 11
467.989532
 21
13.759687
  0
LINE
  8
0
  6
CONTINUOUS
 10
516.989502
 20
12.759687
 11
549.989502
 21
12.759687
  0
LINE
  8
0
  6
CONTINUOUS
 10
176.989532
 20
248.237396
 11
182.489532
 21
248.237396
  0
LINE
  8
0
  6
CONTINUOUS
 10
176.989532
 20
363.237396
 11
182.489532
 21
363.237396
  0
LINE
  8
0
  6
CONTINUOUS
 10
174.489532
 20
250.737396
 11
174.489532
 21
360.737396
  0
LINE
  8
0
  6
CONTINUOUS
 10
130.489532
 20
343.737396
 11
130.489532
 21
267.737396
  0
LINE
  8
0
  6
CONTINUOUS
 10
172.076782
 20
345.189667
 11
130.489532
 21
343.737396
  0
LINE
  8
0
  6
CONTINUOUS
 10
172.076782
 20
266.285126
 11
130.489532
 21
267.737396
  0
ARC
  8
0
  6
CONTINUOUS
 10
176.989532
 20
360.737396
 40
2.500000
 50
90.000000
 51
180.000000
  0
ARC
  8
0
  6
CONTINUOUS
 10
176.989532
 20
250.737396
 40
2.500000
 50
180.000000
 51
270.000000
  0
ARC
  8
0
  6
CONTINUOUS
 10
175.489532
 20
143.759689
 40
1.000000
 50
90.000000
 51
180.000000
  0
ARC
  8
0
  6
CONTINUOUS
 10
171.989532
 20
129.828873
 40
2.500000
 50
-64.230675
 51
0.000000
  0
ARC
  8
0
  6
CONTINUOUS
 10
171.989532
 20
118.210426
 40
2.500000
 50
-88.000000
 51
0.000000
  0
ARC
  8
0
  6
CONTINUOUS
 10
146.046097
 20
117.304459
 40
2.500000
 50
272.000000
 51
295.769318
  0
LINE
  8
0
  6
CONTINUOUS
 10
130.489532
 20
343.737396
 11
130.489532
 21
267.737396
  0
LINE
  8
0
  6
CONTINUOUS
 10
16.489653
 20
267.737427
 11
16.489653
 21
298.871368
  0
LINE
  8
0
  6
CONTINUOUS
 10
16.489653
 20
343.737366
 11
130.489655
 21
343.737366
  0
LINE
  8
0
  6
CONTINUOUS
 10
16.489653
 20
267.737427
 11
130.489655
 21
267.737427
  0
LINE
  8
0
  6
CONTINUOUS
 10
122.489655
 20
341.737366
 11
122.489655
 21
328.737396
  0
ARC
  8
0
  6
CONTINUOUS
 10
124.489655
 20
341.737396
 40
2.000000
 50
90.000000
 51
180.000000
  0
ARC
  8
0
  6
CONTINUOUS
 10
124.489655
 20
269.737427
 40
2.000000
 50
180.000000
 51
270.000000
  0
LINE
  8
0
  6
CONTINUOUS
 10
-4.010347
 20
273.737396
 11
-4.010347
 21
337.737396
  0
LINE
  8
0
  6
CONTINUOUS
 10
-0.046267
 20
343.737396
 11
16.489653
 21
343.737396
  0
LINE
  8
0
  6
CONTINUOUS
 10
-0.046247
 20
267.737396
 11
16.489653
 21
267.737396
  0
LINE
  8
0
  6
CONTINUOUS
 10
-3.510347
 20
270.737396
 11
-3.510347
 21
340.737396
  0
LINE
  8
0
  6
CONTINUOUS
 10
-4.010347
 20
337.737396
 11
-3.510347
 21
338.237396
  0
LINE
  8
0
  6
CONTINUOUS
 10
-4.010347
 20
273.737396
 11
-3.510347
 21
273.237396
  0
LINE
  8
0
  6
CONTINUOUS
 10
-2.644327
 20
342.237366
 11
-3.510347
 21
340.737396
  0
ARC
  8
0
  6
CONTINUOUS
 10
-0.046247
 20
340.737427
 40
3.000000
 50
90.000000
 51
150.000397
  0
LINE
  8
0
  6
CONTINUOUS
 10
-2.644327
 20
269.237427
 11
-3.510347
 21
270.737396
  0
ARC
  8
0
  6
CONTINUOUS
 10
-0.046247
 20
270.737396
 40
3.000000
 50
-150.000397
 51
-90.000000
  0
LINE
  8
0
  6
CONTINUOUS
 10
16.489653
 20
328.737396
 11
122.489655
 21
328.737396
  0
LINE
  8
0
  6
CONTINUOUS
 10
16.489653
 20
328.737396
 11
-1.928717
 21
328.737396
  0
LINE
  8
0
  6
CONTINUOUS
 10
16.489653
 20
282.737396
 11
122.489655
 21
282.737396
  0
LINE
  8
0
  6
CONTINUOUS
 10
16.489653
 20
282.737396
 11
-1.928717
 21
282.737396
  0
LINE
  8
0
  6
CONTINUOUS
 10
122.489655
 20
282.737396
 11
122.489655
 21
269.737396
  0
LINE
  8
0
  6
CONTINUOUS
 10
9.989653
 20
299.737396
 11
9.989653
 21
311.737396
  0
LINE
  8
0
  6
CONTINUOUS
 10
16.989653
 20
299.737396
 11
16.989653
 21
311.737396
  0
LINE
  8
0
  6
CONTINUOUS
 10
10.989653
 20
312.737396
 11
15.989653
 21
312.737396
  0
LINE
  8
0
  6
CONTINUOUS
 10
15.989653
 20
298.737396
 11
10.989653
 21
298.737396
  0
ARC
  8
0
  6
CONTINUOUS
 10
15.989653
 20
311.737396
 40
1.000000
 50
0.000000
 51
90.000000
  0
ARC
  8
0
  6
CONTINUOUS
 10
10.989653
 20
311.737396
 40
1.000000
 50
90.000000
 51
180.000000
  0
ARC
  8
0
  6
CONTINUOUS
 10
10.989653
 20
299.737396
 40
1.000000
 50
180.000000
 51
270.000000
  0
ARC
  8
0
  6
CONTINUOUS
 10
15.989653
 20
299.737396
 40
1.000000
 50
-90.000000
 51
0.000000
  0
LINE
  8
0
  6
CONTINUOUS
 10
14.489653
 20
302.237396
 11
14.489653
 21
309.237396
  0
LINE
  8
0
  6
CONTINUOUS
 10
12.489653
 20
302.237396
 11
12.489653
 21
309.237396
  0
ARC
  8
0
  6
CONTINUOUS
 10
13.489653
 20
309.237396
 40
1.000000
 50
90.000000
 51
180.000000
  0
ARC
  8
0
  6
CONTINUOUS
 10
13.489653
 20
309.237396
 40
1.000000
 50
0.000000
 51
90.000000
  0
ARC
  8
0
  6
CONTINUOUS
 10
13.489653
 20
302.237396
 40
1.000000
 50
180.000000
 51
270.000000
  0
ARC
  8
0
  6
CONTINUOUS
 10
13.489653
 20
302.237396
 40
1.000000
 50
-90.000000
 51
0.000000
  0
LINE
  8
0
  6
CONTINUOUS
 10
16.489653
 20
312.603424
 11
16.489653
 21
343.737396
  0
ARC
  8
0
  6
CONTINUOUS
 10
161.659164
 20
305.737396
 40
15.000000
 50
130.747620
 51
229.252380
  0
LINE
  8
0
  6
CONTINUOUS
 10
173.621353
 20
335.843384
 11
151.868240
 21
317.101288
  0
LINE
  8
0
  6
CONTINUOUS
 10
173.621353
 20
275.631409
 11
151.868240
 21
294.373505
  0
ARC
  8
0
  6
CONTINUOUS
 10
171.989532
 20
337.737366
 40
2.500000
 50
-49.252373
 51
0.000000
  0
ARC
  8
0
  6
CONTINUOUS
 10
171.989532
 20
347.688141
 40
2.500000
 50
-88.000000
 51
0.000000
  0
ARC
  8
0
  6
CONTINUOUS
 10
171.989532
 20
273.737427
 40
2.500000
 50
0.000000
 51
49.252373
  0
ARC
  8
0
  6
CONTINUOUS
 10
171.989532
 20
263.786652
 40
2.500000
 50
0.000000
 51
88.000000
  0
LINE
  8
0
  6
CONTINUOUS
 10
175.614609
 20
44.105686
 11
182.489532
 21
44.105686
  0
LINE
  8
0
  6
CONTINUOUS
 10
174.489532
 20
32.259686
 11
174.489532
 21
34.308952
  0
ARC
  8
0
  6
CONTINUOUS
 10
176.989532
 20
32.259686
 40
2.500000
 50
180.000000
 51
270.000000
  0
ARC
  8
0
  6
CONTINUOUS
 10
171.989532
 20
34.308952
 40
2.500000
 50
0.000000
 51
88.000000
  0
ARC
  8
0
  6
CONTINUOUS
 10
491.989532
 20
87.259689
 40
57.500000
 50
236.002823
 51
236.184402
  0
ARC
  8
0
  6
CONTINUOUS
 10
491.989532
 20
87.259689
 40
57.500000
 50
303.815582
 51
303.997162
  0
ARC
  8
0
  6
CONTINUOUS
 10
491.989532
 20
87.259689
 40
57.500000
 50
-33.997124
 51
33.406792
  0
ARC
  8
0
  6
CONTINUOUS
 10
491.989532
 20
87.259689
 40
57.500000
 50
160.176102
 51
213.997131
  0
LINE
  8
0
  6
CONTINUOUS
 10
130.489532
 20
66.859688
 11
174.489532
 21
66.859688
  0
LINE
  8
0
  6
CONTINUOUS
 10
130.489532
 20
56.659687
 11
174.489532
 21
56.659687
  0
TEXT
  8
0
 10
-16.000000
 20
-2.000000
 40
4.000000
 41
1.000000
  1
HLM-22R-300~1800-S15W
 50
0.000000
  0
ENDSEC
  0
EOF
