  0
SECTION
  2
HEADER
  9
$CLAYER
  8
1
  9
$LTSCALE
 40
3.0
  0
ENDSEC
  0
SECTION
  2
TABLES
  0
TABLE
  2
LTYPE
 70
     4
  0
LTYPE
  2
CONTINUOUS
  3
solid line
 70
    64
 72
    65
 73
     0
 40
0.0
  0
LTYPE
  2
DASHED
  3
__ __ __ __ __ __ __ __ __ __ __ __ __ __ __
 70
    64
 72
    65
 73
     2
 40
0.75
 49
0.5
 49
-0.25
  0
LTYPE
  2
CENTER
  3
____ _ ____ _ ____ _ ____ _ ____ _ ____ _ ____
 70
    64
 72
    65
 73
     4
 40
2.0
 49
1.25
 49
-0.25
 49
0.25
 49
-0.25
  0
LTYPE
  2
PHANTOM
  3
_____ _ _ _____ _ _ _____ _ _ _____ _ _ ____
 70
    64
 72
    65
 73
     6
 40
2.5
 49
1.25
 49
-0.25
 49
0.25
 49
-0.25
 49
0.25
 49
-0.25
  0
ENDTAB
  0
TABLE
  2
LAYER
 70
     1
  0
LAYER
  2
0
 70
    64
 62
     7
  6
CONTINUOUS
  0
ENDTAB
  0
TABLE
  2
STYLE
 70
     1
  0
STYLE
  2
STANDARD
 70
     0
 40
0.000000
 41
1.000000
 50
0.000000
 71
     0
 42
3.000000
  3
txt
  4
BIGFONT
  0
ENDTAB
  0
ENDSEC
  0
SECTION
  2
BLOCKS
  0
ENDSEC
  0
SECTION
  2
ENTITIES
  0
LINE
  8
0
  6
CENTER
 10
143.858749
 20
71.174690
 11
258.289520
 21
71.174690
  0
LINE
  8
0
  6
CENTER
 10
290.289520
 20
153.924683
 11
290.289520
 21
-9.575313
  0
LINE
  8
0
  6
CENTER
 10
243.719131
 20
101.674690
 11
335.027496
 21
101.674690
  0
LINE
  8
0
  6
CONTINUOUS
 10
237.289536
 20
-3.325313
 11
343.289520
 21
-3.325313
  0
LINE
  8
0
  6
CONTINUOUS
 10
271.860138
 20
146.674683
 11
308.718933
 21
146.674683
  0
LINE
  8
0
  6
CONTINUOUS
 10
343.289520
 20
121.064926
 11
343.289520
 21
-3.325292
  0
LINE
  8
0
  6
CONTINUOUS
 10
237.289536
 20
21.674686
 11
237.289536
 21
-3.325313
  0
LINE
  8
0
  6
CONTINUOUS
 10
225.539536
 20
128.424683
 11
243.162537
 21
128.424683
  0
LINE
  8
0
  6
CONTINUOUS
 10
225.539536
 20
13.924687
 11
232.289551
 21
13.924687
  0
LINE
  8
0
  6
CONTINUOUS
 10
233.539536
 20
25.674688
 11
233.539536
 21
116.674690
  0
LINE
  8
0
  6
CONTINUOUS
 10
341.148529
 20
125.166924
 11
311.577942
 21
145.776672
  0
LINE
  8
0
  6
CONTINUOUS
 10
239.430527
 20
125.166924
 11
269.001129
 21
145.776672
  0
LINE
  8
0
  6
CONTINUOUS
 10
271.227936
 20
8.674687
 11
237.289536
 21
8.674687
  0
LINE
  8
0
  6
CONTINUOUS
 10
276.851135
 20
18.674686
 11
303.727936
 21
18.674686
  0
LINE
  8
0
  6
CONTINUOUS
 10
305.289520
 20
17.237186
 11
305.289520
 21
9.674687
  0
LINE
  8
0
  6
CONTINUOUS
 10
275.289520
 20
17.049686
 11
275.289520
 21
9.674687
  0
LINE
  8
0
  6
CONTINUOUS
 10
273.168335
 20
10.189607
 11
274.910736
 21
17.159767
  0
LINE
  8
0
  6
CONTINUOUS
 10
307.410736
 20
10.189607
 11
305.668335
 21
17.159748
  0
LINE
  8
0
  6
CONTINUOUS
 10
243.289536
 20
7.612187
 11
243.289536
 21
-3.325313
  0
LINE
  8
0
  6
CONTINUOUS
 10
337.289520
 20
7.612187
 11
337.289520
 21
-3.325313
  0
LINE
  8
0
  6
CENTER
 10
255.289536
 20
12.424687
 11
255.289536
 21
-7.575313
  0
LINE
  8
0
  6
CENTER
 10
325.289520
 20
13.424687
 11
325.289520
 21
-7.075313
  0
LINE
  8
0
  6
DASHED
 10
249.789536
 20
8.674687
 11
249.789536
 21
-3.325313
  0
LINE
  8
0
  6
DASHED
 10
260.789520
 20
8.674687
 11
260.789520
 21
-3.325313
  0
LINE
  8
0
  6
DASHED
 10
319.789520
 20
8.674687
 11
319.789520
 21
-3.325313
  0
LINE
  8
0
  6
DASHED
 10
330.789520
 20
8.674687
 11
330.789520
 21
-3.325313
  0
ARC
  8
0
  6
CONTINUOUS
 10
308.718933
 20
141.674683
 40
5.000000
 50
55.124809
 51
90.000000
  0
ARC
  8
0
  6
CONTINUOUS
 10
271.860138
 20
141.674683
 40
5.000000
 50
90.000000
 51
124.875603
  0
ARC
  8
0
  6
CONTINUOUS
 10
338.289520
 20
121.064926
 40
5.000000
 50
0.000000
 51
55.124851
  0
ARC
  8
0
  6
CONTINUOUS
 10
242.289536
 20
121.064949
 40
5.000000
 50
124.875702
 51
180.000000
  0
LINE
  8
0
  6
CONTINUOUS
 10
225.539536
 20
118.674690
 11
235.289536
 21
118.674690
  0
LINE
  8
0
  6
CONTINUOUS
 10
231.539536
 20
23.674686
 11
225.539536
 21
23.674686
  0
LINE
  8
0
  6
CONTINUOUS
 10
225.539536
 20
103.134689
 11
232.414536
 21
103.134689
  0
LINE
  8
0
  6
CONTINUOUS
 10
225.539536
 20
39.214687
 11
232.539536
 21
39.214687
  0
ARC
  8
0
  6
CONTINUOUS
 10
243.162338
 20
131.424683
 40
3.000000
 50
270.000000
 51
304.875397
  0
ARC
  8
0
  6
CONTINUOUS
 10
231.539551
 20
116.674690
 40
2.000000
 50
0.000000
 51
90.000000
  0
ARC
  8
0
  6
CONTINUOUS
 10
235.289536
 20
120.674690
 40
2.000000
 50
-90.000000
 51
0.000000
  0
LINE
  8
0
  6
CONTINUOUS
 10
237.289551
 20
121.064949
 11
237.289536
 21
120.674690
  0
ARC
  8
0
  6
CONTINUOUS
 10
235.289536
 20
21.674686
 40
2.000000
 50
0.000000
 51
90.000000
  0
LINE
  8
0
  6
CONTINUOUS
 10
231.539536
 20
23.674686
 11
235.289536
 21
23.674686
  0
ARC
  8
0
  6
CONTINUOUS
 10
231.539536
 20
25.674688
 40
2.000000
 50
-90.000000
 51
0.000000
  0
ARC
  8
0
  6
CONTINUOUS
 10
232.289551
 20
8.924667
 40
5.000000
 50
0.000000
 51
90.000000
  0
ARC
  8
0
  6
CONTINUOUS
 10
303.727936
 20
16.674686
 40
2.000000
 50
14.036440
 51
90.000000
  0
ARC
  8
0
  6
CONTINUOUS
 10
276.851135
 20
16.674686
 40
2.000000
 50
90.000000
 51
165.963898
  0
LINE
  8
0
  6
CONTINUOUS
 10
309.351135
 20
8.674687
 11
343.289520
 21
8.674687
  0
ARC
  8
0
  6
CONTINUOUS
 10
271.227936
 20
10.674687
 40
2.000000
 50
270.000000
 51
345.963715
  0
LINE
  8
0
  6
CONTINUOUS
 10
309.351135
 20
8.674687
 11
271.227936
 21
8.674687
  0
ARC
  8
0
  6
CONTINUOUS
 10
309.351135
 20
10.674687
 40
2.000000
 50
194.036194
 51
270.000000
  0
ARC
  8
0
  6
CONTINUOUS
 10
274.289520
 20
9.674687
 40
1.000000
 50
-90.000000
 51
0.000000
  0
ARC
  8
0
  6
CONTINUOUS
 10
306.289520
 20
9.674687
 40
1.000000
 50
180.000000
 51
270.000000
  0
CIRCLE
  8
0
  6
CONTINUOUS
 10
290.289520
 20
101.674690
 40
27.500000
  0
ARC
  8
0
  6
CONTINUOUS
 10
290.289520
 20
101.674690
 40
31.750000
 50
7.552697
 51
172.447403
  0
ARC
  8
0
  6
CONTINUOUS
 10
273.539520
 20
60.174686
 40
20.600000
 50
172.447403
 51
270.000000
  0
ARC
  8
0
  6
CONTINUOUS
 10
307.039520
 20
60.174686
 40
20.600000
 50
-90.000000
 51
7.552700
  0
LINE
  8
0
  6
CONTINUOUS
 10
321.764130
 20
105.847847
 11
327.460724
 21
62.882313
  0
LINE
  8
0
  6
CONTINUOUS
 10
253.118332
 20
62.882275
 11
258.814941
 21
105.847786
  0
LINE
  8
0
  6
CONTINUOUS
 10
273.539520
 20
39.574688
 11
307.039520
 21
39.574688
  0
ARC
  8
0
  6
CONTINUOUS
 10
273.539520
 20
60.174686
 40
19.000000
 50
172.447601
 51
270.000000
  0
ARC
  8
0
  6
CONTINUOUS
 10
307.039520
 20
60.174686
 40
19.000000
 50
-90.000000
 51
7.552700
  0
ARC
  8
0
  6
CONTINUOUS
 10
290.289520
 20
101.674690
 40
30.150000
 50
-187.552597
 51
7.552697
  0
LINE
  8
0
  6
CONTINUOUS
 10
254.704330
 20
62.671978
 11
260.401123
 21
105.637505
  0
LINE
  8
0
  6
CONTINUOUS
 10
320.177917
 20
105.637550
 11
325.874725
 21
62.672012
  0
LINE
  8
0
  6
CONTINUOUS
 10
273.539520
 20
41.174686
 11
307.039520
 21
41.174686
  0
LINE
  8
0
  6
CONTINUOUS
 10
279.993134
 20
48.674686
 11
275.832733
 21
48.674686
  0
LINE
  8
0
  6
CONTINUOUS
 10
282.289520
 20
55.643436
 11
282.289520
 21
48.674686
  0
LINE
  8
0
  6
CONTINUOUS
 10
286.289520
 20
58.174686
 11
286.289520
 21
60.674686
  0
LINE
  8
0
  6
CONTINUOUS
 10
294.289520
 20
58.174686
 11
294.289520
 21
60.674686
  0
LINE
  8
0
  6
CONTINUOUS
 10
289.508331
 20
59.205936
 11
289.508331
 21
49.987186
  0
LINE
  8
0
  6
CONTINUOUS
 10
291.008331
 20
59.205936
 11
291.008331
 21
49.987186
  0
LINE
  8
0
  6
CONTINUOUS
 10
298.883331
 20
59.205936
 11
298.883331
 21
49.924686
  0
LINE
  8
0
  6
CONTINUOUS
 10
300.258331
 20
54.284061
 11
300.258331
 21
49.924686
  0
LINE
  8
0
  6
CONTINUOUS
 10
280.391541
 20
59.080936
 11
276.536530
 21
59.080936
  0
LINE
  8
0
  6
CONTINUOUS
 10
276.536530
 20
59.080936
 11
275.633331
 21
57.960938
  0
LINE
  8
0
  6
CONTINUOUS
 10
275.741943
 20
60.674686
 11
274.289520
 21
58.814926
  0
LINE
  8
0
  6
CONTINUOUS
 10
275.633331
 20
51.047607
 11
276.550934
 21
50.080929
  0
LINE
  8
0
  6
CONTINUOUS
 10
274.289520
 20
50.231850
 11
275.832733
 21
48.674686
  0
LINE
  8
0
  6
CONTINUOUS
 10
274.289520
 20
58.814926
 11
274.289520
 21
50.231850
  0
LINE
  8
0
  6
CONTINUOUS
 10
275.633331
 20
57.960938
 11
275.633331
 21
51.047607
  0
LINE
  8
0
  6
CONTINUOUS
 10
281.133331
 20
58.363831
 11
280.376343
 21
59.080936
  0
LINE
  8
0
  6
CONTINUOUS
 10
281.121338
 20
60.674686
 11
282.289520
 21
59.378197
  0
LINE
  8
0
  6
CONTINUOUS
 10
281.133331
 20
58.174686
 11
282.289520
 21
58.174686
  0
LINE
  8
0
  6
CONTINUOUS
 10
275.741943
 20
60.674686
 11
281.121338
 21
60.674686
  0
LINE
  8
0
  6
CONTINUOUS
 10
279.039520
 20
55.643436
 11
282.289520
 21
55.643436
  0
LINE
  8
0
  6
CONTINUOUS
 10
281.133331
 20
54.330936
 11
279.039520
 21
54.330936
  0
LINE
  8
0
  6
CONTINUOUS
 10
278.633331
 20
50.080929
 11
276.550934
 21
50.080929
  0
LINE
  8
0
  6
CONTINUOUS
 10
281.133331
 20
53.080936
 11
281.133331
 21
54.080936
  0
ARC
  8
0
  6
CONTINUOUS
 10
278.633331
 20
52.580933
 40
2.500000
 50
-89.999786
 51
0.000109
  0
LINE
  8
0
  6
CONTINUOUS
 10
281.133331
 20
49.631248
 11
281.133331
 21
48.674686
  0
LINE
  8
0
  6
CONTINUOUS
 10
282.289520
 20
59.378197
 11
282.289520
 21
58.174686
  0
LINE
  8
0
  6
CONTINUOUS
 10
281.133331
 20
54.330936
 11
281.133331
 21
52.580933
  0
LINE
  8
0
  6
CONTINUOUS
 10
279.039520
 20
55.643436
 11
279.039520
 21
54.330936
  0
LINE
  8
0
  6
CONTINUOUS
 10
281.133331
 20
48.674686
 11
282.289520
 21
48.674686
  0
LINE
  8
0
  6
CONTINUOUS
 10
281.133331
 20
49.631248
 11
279.993134
 21
48.674686
  0
LINE
  8
0
  6
CONTINUOUS
 10
291.008331
 20
49.987186
 11
291.508331
 21
49.987186
  0
LINE
  8
0
  6
CONTINUOUS
 10
288.914520
 20
49.987186
 11
288.914520
 21
48.674686
  0
LINE
  8
0
  6
CONTINUOUS
 10
291.508331
 20
49.987186
 11
291.508331
 21
48.674686
  0
LINE
  8
0
  6
CONTINUOUS
 10
293.455139
 20
58.174686
 11
294.289520
 21
58.174686
  0
LINE
  8
0
  6
CONTINUOUS
 10
286.289520
 20
58.174686
 11
287.177521
 21
58.174686
  0
LINE
  8
0
  6
CONTINUOUS
 10
286.289520
 20
60.674686
 11
294.289520
 21
60.674686
  0
LINE
  8
0
  6
CONTINUOUS
 10
288.914520
 20
48.674686
 11
291.508331
 21
48.674686
  0
LINE
  8
0
  6
CONTINUOUS
 10
288.914520
 20
49.987186
 11
289.508331
 21
49.987186
  0
ARC
  8
0
  6
CONTINUOUS
 10
303.086517
 20
57.471565
 40
3.203126
 50
-73.981873
 51
90.003510
  0
ARC
  8
0
  6
CONTINUOUS
 10
303.086517
 20
57.471565
 40
1.954125
 50
-82.585274
 51
62.411850
  0
LINE
  8
0
  6
CONTINUOUS
 10
298.289520
 20
60.674686
 11
303.086517
 21
60.674686
  0
LINE
  8
0
  6
CONTINUOUS
 10
303.338531
 20
55.533779
 11
300.258331
 21
55.533779
  0
LINE
  8
0
  6
CONTINUOUS
 10
298.289520
 20
60.674686
 11
298.289520
 21
59.205936
  0
LINE
  8
0
  6
CONTINUOUS
 10
300.258331
 20
59.205936
 11
300.258331
 21
55.533779
  0
LINE
  8
0
  6
CONTINUOUS
 10
303.970337
 20
54.392799
 11
305.952728
 21
49.924686
  0
LINE
  8
0
  6
CONTINUOUS
 10
302.818726
 20
54.284061
 11
304.694916
 21
49.924686
  0
LINE
  8
0
  6
CONTINUOUS
 10
298.289520
 20
49.924686
 11
298.883331
 21
49.924686
  0
LINE
  8
0
  6
CONTINUOUS
 10
300.258331
 20
49.924686
 11
300.805145
 21
49.924686
  0
LINE
  8
0
  6
CONTINUOUS
 10
300.805145
 20
48.674686
 11
298.289520
 21
48.674686
  0
LINE
  8
0
  6
CONTINUOUS
 10
304.445740
 20
49.924686
 11
304.694916
 21
49.924686
  0
LINE
  8
0
  6
CONTINUOUS
 10
305.952728
 20
49.924686
 11
306.289520
 21
49.924686
  0
LINE
  8
0
  6
CONTINUOUS
 10
304.445740
 20
48.674686
 11
306.289520
 21
48.674686
  0
LINE
  8
0
  6
CONTINUOUS
 10
306.289520
 20
49.924686
 11
306.289520
 21
48.674686
  0
LINE
  8
0
  6
CONTINUOUS
 10
304.445740
 20
49.924686
 11
304.445740
 21
48.674686
  0
LINE
  8
0
  6
CONTINUOUS
 10
300.805145
 20
49.924686
 11
300.805145
 21
48.674686
  0
LINE
  8
0
  6
CONTINUOUS
 10
298.289520
 20
49.924686
 11
298.289520
 21
48.674686
  0
LINE
  8
0
  6
CONTINUOUS
 10
287.607330
 20
59.205936
 11
287.177521
 21
58.174686
  0
LINE
  8
0
  6
CONTINUOUS
 10
293.092743
 20
59.205936
 11
293.455139
 21
58.174686
  0
LINE
  8
0
  6
CONTINUOUS
 10
291.008331
 20
59.205936
 11
293.092743
 21
59.205936
  0
LINE
  8
0
  6
CONTINUOUS
 10
289.508331
 20
59.205936
 11
287.607330
 21
59.205936
  0
LINE
  8
0
  6
CONTINUOUS
 10
300.258331
 20
54.284061
 11
302.818726
 21
54.284061
  0
LINE
  8
0
  6
CONTINUOUS
 10
298.289520
 20
59.205936
 11
298.883331
 21
59.205936
  0
LINE
  8
0
  6
CONTINUOUS
 10
300.258331
 20
59.205936
 11
303.991333
 21
59.203506
  0
LINE
  8
0
  6
CONTINUOUS
 10
281.133331
 20
58.363831
 11
281.133331
 21
58.174686
  0
LINE
  8
0
  6
CONTINUOUS
 10
225.539551
 20
128.674683
 11
225.539536
 21
13.674687
  0
LINE
  8
0
  6
CONTINUOUS
 10
59.539532
 20
98.174667
 11
173.539536
 21
98.174667
  0
LINE
  8
0
  6
CONTINUOUS
 10
59.539532
 20
22.174707
 11
173.539536
 21
22.174707
  0
LINE
  8
0
  6
CONTINUOUS
 10
59.539532
 20
90.423668
 11
165.539536
 21
90.423668
  0
LINE
  8
0
  6
CONTINUOUS
 10
59.539532
 20
29.925709
 11
165.539536
 21
29.925709
  0
LINE
  8
0
  6
CONTINUOUS
 10
165.539536
 20
96.174667
 11
165.539536
 21
24.174686
  0
ARC
  8
0
  6
CONTINUOUS
 10
167.539536
 20
96.174690
 40
2.000000
 50
90.000000
 51
180.000000
  0
ARC
  8
0
  6
CONTINUOUS
 10
167.539536
 20
24.174707
 40
2.000000
 50
180.000000
 51
270.000000
  0
LINE
  8
0
  6
CENTER
 10
507.855011
 20
-18.950333
 11
507.855011
 21
160.599686
  0
LINE
  8
0
  6
CENTER
 10
437.630005
 20
71.174690
 11
576.755005
 21
71.174690
  0
LINE
  8
0
  6
CENTER
 10
406.105011
 20
101.674690
 11
569.727966
 21
101.674690
  0
LINE
  8
0
  6
CONTINUOUS
 10
449.855011
 20
-3.325313
 11
482.855011
 21
-3.325313
  0
LINE
  8
0
  6
CONTINUOUS
 10
449.855011
 20
7.301087
 11
449.855011
 21
-3.325313
  0
LINE
  8
0
  6
CONTINUOUS
 10
565.854980
 20
7.301087
 11
565.854980
 21
-3.325313
  0
LINE
  8
0
  6
CONTINUOUS
 10
451.855011
 20
8.674687
 11
472.855011
 21
8.674687
  0
LINE
  8
0
  6
CONTINUOUS
 10
563.854980
 20
8.674687
 11
542.854980
 21
8.674687
  0
LINE
  8
0
  6
CONTINUOUS
 10
475.855011
 20
20.048288
 11
475.855011
 21
144.150604
  0
LINE
  8
0
  6
CONTINUOUS
 10
539.854980
 20
20.048288
 11
539.854980
 21
144.150970
  0
LINE
  8
0
  6
CONTINUOUS
 10
537.889771
 20
146.150665
 11
507.855011
 21
146.674683
  0
LINE
  8
0
  6
CONTINUOUS
 10
477.820007
 20
146.150330
 11
507.855011
 21
146.674683
  0
ARC
  8
0
  6
CONTINUOUS
 10
477.855011
 20
144.150635
 40
2.000000
 50
91.000580
 51
180.000000
  0
ARC
  8
0
  6
CONTINUOUS
 10
537.854980
 20
144.150970
 40
2.000000
 50
0.000000
 51
89.000519
  0
LINE
  8
0
  6
CONTINUOUS
 10
539.854980
 20
11.674687
 11
539.854980
 21
-3.325313
  0
ARC
  8
0
  6
CONTINUOUS
 10
542.854980
 20
11.674687
 40
3.000000
 50
180.000000
 51
270.000000
  0
LINE
  8
0
  6
CONTINUOUS
 10
475.855011
 20
11.674687
 11
475.855011
 21
-3.325313
  0
ARC
  8
0
  6
CONTINUOUS
 10
472.855011
 20
11.674667
 40
3.000000
 50
-90.000000
 51
0.000000
  0
ARC
  8
0
  6
CONTINUOUS
 10
451.855011
 20
6.674687
 40
2.000000
 50
90.000000
 51
180.000000
  0
ARC
  8
0
  6
CONTINUOUS
 10
563.854980
 20
6.674687
 40
2.000000
 50
0.000000
 51
90.000000
  0
LINE
  8
0
  6
CENTER
 10
462.855011
 20
12.964688
 11
462.855011
 21
-7.435312
  0
LINE
  8
0
  6
CENTER
 10
552.854980
 20
13.984688
 11
552.854980
 21
-7.945313
  0
LINE
  8
0
  6
CONTINUOUS
 10
474.572998
 20
18.181608
 11
451.136993
 21
9.167788
  0
ARC
  8
0
  6
CONTINUOUS
 10
451.855011
 20
7.301107
 40
2.000000
 50
111.037903
 51
180.000000
  0
LINE
  8
0
  6
CONTINUOUS
 10
475.855011
 20
20.048288
 11
475.855011
 21
11.674687
  0
ARC
  8
0
  6
CONTINUOUS
 10
473.855011
 20
20.048288
 40
2.000000
 50
-68.962189
 51
0.000000
  0
LINE
  8
0
  6
CONTINUOUS
 10
541.137024
 20
18.181587
 11
564.572998
 21
9.167788
  0
ARC
  8
0
  6
CONTINUOUS
 10
563.854980
 20
7.301087
 40
2.000000
 50
0.000000
 51
68.962646
  0
LINE
  8
0
  6
CONTINUOUS
 10
539.854980
 20
20.048288
 11
539.854980
 21
11.674687
  0
ARC
  8
0
  6
CONTINUOUS
 10
541.854980
 20
20.048307
 40
2.000000
 50
180.000000
 51
248.962799
  0
LINE
  8
0
  6
CONTINUOUS
 10
459.855011
 20
76.481834
 11
459.855011
 21
126.867531
  0
LINE
  8
0
  6
CONTINUOUS
 10
555.854980
 20
76.481842
 11
555.854980
 21
126.867531
  0
LINE
  8
0
  6
CONTINUOUS
 10
545.854980
 20
43.479527
 11
545.854980
 21
103.744690
  0
LINE
  8
0
  6
CONTINUOUS
 10
469.855011
 20
43.479527
 11
469.855011
 21
103.744690
  0
LINE
  8
0
  6
CONTINUOUS
 10
553.625183
 20
129.766983
 11
542.084778
 21
132.832382
  0
LINE
  8
0
  6
CONTINUOUS
 10
553.625183
 20
73.582382
 11
548.084778
 21
72.110733
  0
LINE
  8
0
  6
CONTINUOUS
 10
543.627991
 20
40.580826
 11
542.081970
 21
40.168549
  0
LINE
  8
0
  6
CONTINUOUS
 10
472.082001
 20
40.580807
 11
473.627991
 21
40.168549
  0
LINE
  8
0
  6
CONTINUOUS
 10
462.084808
 20
73.582382
 11
467.625214
 21
72.110733
  0
LINE
  8
0
  6
CONTINUOUS
 10
462.084808
 20
129.766983
 11
473.625214
 21
132.832382
  0
ARC
  8
0
  6
CONTINUOUS
 10
462.855011
 20
126.867546
 40
3.000000
 50
104.876099
 51
180.000000
  0
ARC
  8
0
  6
CONTINUOUS
 10
462.855011
 20
76.481857
 40
3.000000
 50
180.000000
 51
255.124603
  0
ARC
  8
0
  6
CONTINUOUS
 10
552.854980
 20
126.867531
 40
3.000000
 50
0.000000
 51
75.124413
  0
ARC
  8
0
  6
CONTINUOUS
 10
552.854980
 20
76.481834
 40
3.000000
 50
-75.124207
 51
0.000000
  0
ARC
  8
0
  6
CONTINUOUS
 10
472.855011
 20
43.479549
 40
3.000000
 50
180.000000
 51
255.069000
  0
ARC
  8
0
  6
CONTINUOUS
 10
542.854980
 20
43.479527
 40
3.000000
 50
-75.068420
 51
0.000000
  0
ARC
  8
0
  6
CONTINUOUS
 10
542.854980
 20
135.731873
 40
3.000000
 50
180.000000
 51
255.124603
  0
ARC
  8
0
  6
CONTINUOUS
 10
548.854980
 20
69.211296
 40
3.000000
 50
104.876099
 51
180.000000
  0
ARC
  8
0
  6
CONTINUOUS
 10
542.854980
 20
37.269867
 40
3.000000
 50
104.931801
 51
180.000000
  0
ARC
  8
0
  6
CONTINUOUS
 10
472.855011
 20
37.269848
 40
3.000000
 50
0.000000
 51
75.068779
  0
ARC
  8
0
  6
CONTINUOUS
 10
466.855011
 20
69.211266
 40
3.000000
 50
0.000000
 51
75.124496
  0
ARC
  8
0
  6
CONTINUOUS
 10
472.855011
 20
135.731827
 40
3.000000
 50
-75.124153
 51
0.000000
  0
LINE
  8
0
  6
DASHED
 10
457.355011
 20
8.674687
 11
457.355011
 21
-3.325313
  0
LINE
  8
0
  6
DASHED
 10
468.355011
 20
8.674687
 11
468.355011
 21
-3.325313
  0
LINE
  8
0
  6
DASHED
 10
547.354980
 20
8.674687
 11
547.354980
 21
-3.325313
  0
LINE
  8
0
  6
DASHED
 10
558.354980
 20
8.674687
 11
558.354980
 21
-3.325313
  0
LINE
  8
0
  6
CONTINUOUS
 10
478.084991
 20
123.674690
 11
537.755005
 21
123.674690
  0
LINE
  8
0
  6
CONTINUOUS
 10
460.355011
 20
28.674688
 11
460.355011
 21
37.726028
  0
LINE
  8
0
  6
CONTINUOUS
 10
555.354980
 20
28.674688
 11
555.354980
 21
37.726028
  0
LINE
  8
0
  6
CONTINUOUS
 10
465.355011
 20
23.674686
 11
474.386200
 21
23.674686
  0
LINE
  8
0
  6
CONTINUOUS
 10
550.354980
 20
23.674686
 11
541.303589
 21
23.674686
  0
ARC
  8
0
  6
CONTINUOUS
 10
507.855011
 20
71.174690
 40
57.250000
 50
-32.501888
 51
33.025517
  0
ARC
  8
0
  6
CONTINUOUS
 10
507.855011
 20
71.174690
 40
57.250000
 50
160.085907
 51
212.501907
  0
ARC
  8
0
  6
CONTINUOUS
 10
465.355011
 20
28.674688
 40
5.000000
 50
180.000000
 51
270.000000
  0
ARC
  8
0
  6
CONTINUOUS
 10
550.354980
 20
28.674688
 40
5.000000
 50
-90.000000
 51
0.000000
  0
ARC
  8
0
  6
CONTINUOUS
 10
474.406403
 20
18.674686
 40
5.000000
 50
73.928284
 51
90.230461
  0
ARC
  8
0
  6
CONTINUOUS
 10
541.303589
 20
18.674686
 40
5.000000
 50
90.000000
 51
106.071800
  0
ARC
  8
0
  6
CONTINUOUS
 10
455.355011
 20
37.726028
 40
5.000000
 50
0.000000
 51
32.499691
  0
ARC
  8
0
  6
CONTINUOUS
 10
560.354980
 20
37.726028
 40
5.000000
 50
147.498306
 51
180.000000
  0
LINE
  8
0
  6
CONTINUOUS
 10
541.854980
 20
22.174686
 11
539.854980
 21
22.174686
  0
LINE
  8
0
  6
CONTINUOUS
 10
473.855011
 20
22.174686
 11
475.855011
 21
22.174686
  0
ARC
  8
0
  6
CONTINUOUS
 10
541.854980
 20
26.174688
 40
4.000000
 50
270.000000
 51
322.311005
  0
ARC
  8
0
  6
CONTINUOUS
 10
473.855011
 20
26.174688
 40
4.000000
 50
218.645996
 51
270.000000
  0
LINE
  8
0
  6
CONTINUOUS
 10
297.789520
 20
98.674706
 11
297.789520
 21
104.674706
  0
LINE
  8
0
  6
CONTINUOUS
 10
303.789520
 20
98.674728
 11
303.789520
 21
104.674728
  0
LINE
  8
0
  6
CONTINUOUS
 10
303.789520
 20
98.674728
 11
297.789520
 21
98.674706
  0
LINE
  8
0
  6
CONTINUOUS
 10
303.789520
 20
104.674728
 11
297.789520
 21
104.674706
  0
ARC
  8
0
  6
CONTINUOUS
 10
290.289520
 20
101.674690
 40
11.000000
 50
15.826600
 51
344.173401
  0
LINE
  8
0
  6
CONTINUOUS
 10
417.855011
 20
90.674690
 11
417.855011
 21
112.674690
  0
LINE
  8
0
  6
CONTINUOUS
 10
457.855011
 20
112.674690
 11
417.855011
 21
112.674690
  0
LINE
  8
0
  6
CONTINUOUS
 10
457.855011
 20
90.674690
 11
417.855011
 21
90.674690
  0
LINE
  8
0
  6
CONTINUOUS
 10
457.855011
 20
114.174690
 11
457.855011
 21
89.174690
  0
LINE
  8
0
  6
CONTINUOUS
 10
459.855011
 20
114.174690
 11
457.855011
 21
114.174690
  0
LINE
  8
0
  6
CONTINUOUS
 10
459.855011
 20
89.174690
 11
457.855011
 21
89.174690
  0
ARC
  8
0
  6
CONTINUOUS
 10
449.855011
 20
101.674690
 40
3.000000
 50
-90.000000
 51
90.000000
  0
LINE
  8
0
  6
CONTINUOUS
 10
449.855011
 20
104.674690
 11
417.855011
 21
104.674690
  0
LINE
  8
0
  6
CONTINUOUS
 10
449.855011
 20
98.674690
 11
417.855011
 21
98.674690
  0
LINE
  8
0
  6
CENTER
 10
-10.945000
 20
60.174686
 11
258.289520
 21
60.174686
  0
LINE
  8
0
  6
CONTINUOUS
 10
215.126785
 20
99.626945
 11
173.539536
 21
98.174690
  0
LINE
  8
0
  6
CONTINUOUS
 10
225.539536
 20
20.358809
 11
173.539536
 21
22.174686
  0
LINE
  8
0
  6
CONTINUOUS
 10
217.539536
 20
127.674690
 11
217.539536
 21
100.674690
  0
LINE
  8
0
  6
CONTINUOUS
 10
218.539536
 20
128.674683
 11
225.539551
 21
128.674683
  0
LINE
  8
0
  6
CONTINUOUS
 10
220.039536
 20
13.674687
 11
225.539536
 21
13.674687
  0
LINE
  8
0
  6
CONTINUOUS
 10
217.539536
 20
101.174690
 11
217.539536
 21
30.262032
  0
LINE
  8
0
  6
CONTINUOUS
 10
173.539536
 20
98.174690
 11
173.539536
 21
22.174686
  0
LINE
  8
0
  6
CONTINUOUS
 10
216.126404
 20
111.492493
 11
190.182968
 21
98.968079
  0
LINE
  8
0
  6
CENTER
 10
290.289520
 20
378.839996
 11
290.289520
 21
208.655945
  0
LINE
  8
0
  6
CENTER
 10
-10.945000
 20
308.879883
 11
359.628998
 21
308.879883
  0
LINE
  8
0
  6
CONTINUOUS
 10
239.071503
 20
340.879883
 11
337.817474
 21
340.879883
  0
LINE
  8
0
  6
CONTINUOUS
 10
239.071503
 20
276.879883
 11
337.817474
 21
276.879883
  0
LINE
  8
0
  6
CONTINUOUS
 10
333.227631
 20
366.879883
 11
290.289520
 21
366.879883
  0
LINE
  8
0
  6
CONTINUOUS
 10
247.351425
 20
250.879898
 11
279.289520
 21
250.879898
  0
LINE
  8
0
  6
CONTINUOUS
 10
343.289520
 20
308.879883
 11
342.730957
 21
340.879883
  0
LINE
  8
0
  6
CONTINUOUS
 10
338.121613
 20
362.904144
 11
342.730957
 21
340.879883
  0
ARC
  8
0
  6
CONTINUOUS
 10
333.227631
 20
361.879883
 40
5.000000
 50
11.820596
 51
90.000000
  0
LINE
  8
0
  6
CONTINUOUS
 10
343.289520
 20
308.879883
 11
342.730957
 21
276.879883
  0
LINE
  8
0
  6
CONTINUOUS
 10
338.121613
 20
254.855652
 11
342.730957
 21
276.879883
  0
ARC
  8
0
  6
CONTINUOUS
 10
333.227631
 20
255.879898
 40
5.000000
 50
-90.000000
 51
-11.820596
  0
LINE
  8
0
  6
CONTINUOUS
 10
310.289520
 20
278.879883
 11
310.289520
 21
338.879883
  0
LINE
  8
0
  6
CONTINUOUS
 10
270.289520
 20
278.879883
 11
270.289520
 21
338.879883
  0
ARC
  8
0
  6
CONTINUOUS
 10
337.817474
 20
335.879883
 40
5.000000
 50
1.000000
 51
90.000000
  0
ARC
  8
0
  6
CONTINUOUS
 10
337.817474
 20
281.879883
 40
5.000000
 50
270.000000
 51
359.000000
  0
LINE
  8
0
  6
CONTINUOUS
 10
233.616028
 20
254.551361
 11
234.073227
 21
272.010773
  0
LINE
  8
0
  6
CONTINUOUS
 10
225.539536
 20
366.379883
 11
225.539536
 21
251.379898
  0
LINE
  8
0
  6
CONTINUOUS
 10
244.104538
 20
326.879883
 11
244.104538
 21
290.879883
  0
LINE
  8
0
  6
CONTINUOUS
 10
225.539536
 20
366.129883
 11
230.617065
 21
366.129883
  0
LINE
  8
0
  6
CONTINUOUS
 10
230.617065
 20
251.629898
 11
225.539536
 21
251.629898
  0
ARC
  8
0
  6
CONTINUOUS
 10
239.071503
 20
271.879883
 40
5.000000
 50
90.000000
 51
178.500000
  0
ARC
  8
0
  6
CONTINUOUS
 10
230.617065
 20
254.629898
 40
3.000000
 50
270.000000
 51
358.500000
  0
LINE
  8
0
  6
CONTINUOUS
 10
233.616028
 20
363.208435
 11
234.073227
 21
345.749023
  0
ARC
  8
0
  6
CONTINUOUS
 10
239.071503
 20
345.879883
 40
5.000000
 50
-178.500000
 51
-90.000000
  0
ARC
  8
0
  6
CONTINUOUS
 10
230.617065
 20
363.129883
 40
3.000000
 50
-358.500000
 51
-270.000000
  0
LINE
  8
0
  6
CONTINUOUS
 10
242.457458
 20
362.904144
 11
237.878326
 21
341.024353
  0
ARC
  8
0
  6
CONTINUOUS
 10
247.351425
 20
361.879883
 40
5.000000
 50
90.000000
 51
168.179398
  0
LINE
  8
0
  6
CONTINUOUS
 10
242.457458
 20
254.855652
 11
237.878326
 21
276.735443
  0
ARC
  8
0
  6
CONTINUOUS
 10
247.351425
 20
255.879898
 40
5.000000
 50
-168.179398
 51
-90.000000
  0
LINE
  8
0
  6
CENTER
 10
314.839935
 20
263.879883
 11
335.694092
 21
263.879883
  0
LINE
  8
0
  6
CENTER
 10
325.289520
 20
271.437195
 11
325.289520
 21
254.666351
  0
CIRCLE
  8
0
  6
CONTINUOUS
 10
325.289520
 20
263.879883
 40
5.500000
  0
LINE
  8
0
  6
CENTER
 10
265.739136
 20
263.879883
 11
244.884964
 21
263.879883
  0
LINE
  8
0
  6
CENTER
 10
255.289536
 20
271.437195
 11
255.289536
 21
254.666351
  0
CIRCLE
  8
0
  6
CONTINUOUS
 10
255.289536
 20
263.879883
 40
5.500000
  0
LINE
  8
0
  6
CENTER
 10
314.839935
 20
353.879883
 11
335.694092
 21
353.879883
  0
LINE
  8
0
  6
CENTER
 10
325.289520
 20
346.322601
 11
325.289520
 21
363.093445
  0
CIRCLE
  8
0
  6
CONTINUOUS
 10
325.289520
 20
353.879883
 40
5.500000
  0
LINE
  8
0
  6
CENTER
 10
265.739136
 20
353.879883
 11
244.884964
 21
353.879883
  0
LINE
  8
0
  6
CENTER
 10
255.289536
 20
346.322601
 11
255.289536
 21
363.093445
  0
CIRCLE
  8
0
  6
CONTINUOUS
 10
255.289536
 20
353.879883
 40
5.500000
  0
LINE
  8
0
  6
CONTINUOUS
 10
265.096680
 20
260.879883
 11
315.482361
 21
260.879883
  0
LINE
  8
0
  6
CONTINUOUS
 10
320.445770
 20
270.879883
 11
323.732635
 21
270.879883
  0
ARC
  8
0
  6
CONTINUOUS
 10
315.482361
 20
263.879883
 40
3.000000
 50
270.000000
 51
345.124329
  0
LINE
  8
0
  6
CONTINUOUS
 10
326.632080
 20
273.109741
 11
327.041229
 21
274.650055
  0
ARC
  8
0
  6
CONTINUOUS
 10
323.732635
 20
273.879883
 40
3.000000
 50
270.000000
 51
345.124329
  0
ARC
  8
0
  6
CONTINUOUS
 10
329.940674
 20
273.879883
 40
3.000000
 50
90.000000
 51
165.124313
  0
LINE
  8
0
  6
CONTINUOUS
 10
320.445770
 20
270.879883
 11
318.381836
 21
263.109741
  0
LINE
  8
0
  6
CONTINUOUS
 10
253.946976
 20
273.109741
 11
253.537827
 21
274.650055
  0
ARC
  8
0
  6
CONTINUOUS
 10
256.846436
 20
273.879883
 40
3.000000
 50
-165.124313
 51
-90.000000
  0
ARC
  8
0
  6
CONTINUOUS
 10
250.638382
 20
273.879883
 40
3.000000
 50
14.875682
 51
90.000000
  0
LINE
  8
0
  6
CONTINUOUS
 10
260.133270
 20
270.879883
 11
256.846436
 21
270.879883
  0
ARC
  8
0
  6
CONTINUOUS
 10
265.096680
 20
263.879883
 40
3.000000
 50
-165.124313
 51
-90.000000
  0
LINE
  8
0
  6
CONTINUOUS
 10
260.133270
 20
270.879883
 11
262.197235
 21
263.109741
  0
CIRCLE
  8
0
  6
CONTINUOUS
 10
325.289520
 20
353.879883
 40
5.500000
  0
LINE
  8
0
  6
CONTINUOUS
 10
265.096680
 20
356.879883
 11
315.482361
 21
356.879883
  0
LINE
  8
0
  6
CONTINUOUS
 10
320.445770
 20
346.879883
 11
323.732635
 21
346.879883
  0
ARC
  8
0
  6
CONTINUOUS
 10
315.482361
 20
353.879883
 40
3.000000
 50
-345.124329
 51
-270.000000
  0
LINE
  8
0
  6
CONTINUOUS
 10
326.632080
 20
344.650055
 11
327.041229
 21
343.109741
  0
ARC
  8
0
  6
CONTINUOUS
 10
323.732635
 20
343.879883
 40
3.000000
 50
-345.124329
 51
-270.000000
  0
ARC
  8
0
  6
CONTINUOUS
 10
329.940674
 20
343.879883
 40
3.000000
 50
-165.124313
 51
-90.000000
  0
LINE
  8
0
  6
CONTINUOUS
 10
320.445770
 20
346.879883
 11
318.381836
 21
354.650055
  0
LINE
  8
0
  6
CONTINUOUS
 10
253.946976
 20
344.650055
 11
253.537827
 21
343.109741
  0
ARC
  8
0
  6
CONTINUOUS
 10
256.846436
 20
343.879883
 40
3.000000
 50
90.000000
 51
165.124313
  0
ARC
  8
0
  6
CONTINUOUS
 10
250.638382
 20
343.879883
 40
3.000000
 50
-90.000000
 51
-14.875682
  0
LINE
  8
0
  6
CONTINUOUS
 10
260.133270
 20
346.879883
 11
256.846436
 21
346.879883
  0
ARC
  8
0
  6
CONTINUOUS
 10
265.096680
 20
353.879883
 40
3.000000
 50
90.000000
 51
165.124313
  0
LINE
  8
0
  6
CONTINUOUS
 10
260.133270
 20
346.879883
 11
262.197235
 21
354.650055
  0
LINE
  8
0
  6
CONTINUOUS
 10
279.289520
 20
218.879898
 11
303.789520
 21
218.879898
  0
LINE
  8
0
  6
CONTINUOUS
 10
301.289520
 20
258.879883
 11
301.289520
 21
253.879898
  0
LINE
  8
0
  6
CONTINUOUS
 10
279.289520
 20
258.879883
 11
279.289520
 21
218.879898
  0
LINE
  8
0
  6
CONTINUOUS
 10
302.789520
 20
260.879883
 11
302.789520
 21
258.879883
  0
LINE
  8
0
  6
CONTINUOUS
 10
277.789520
 20
260.879883
 11
277.789520
 21
258.879883
  0
LINE
  8
0
  6
CONTINUOUS
 10
277.789520
 20
258.879883
 11
302.789520
 21
258.879883
  0
LINE
  8
0
  6
CONTINUOUS
 10
303.789520
 20
250.879898
 11
333.227631
 21
250.879898
  0
LINE
  8
0
  6
CONTINUOUS
 10
303.789520
 20
253.879898
 11
303.789520
 21
218.879898
  0
LINE
  8
0
  6
CONTINUOUS
 10
300.872528
 20
218.879898
 11
300.872528
 21
253.879898
  0
LINE
  8
0
  6
CONTINUOUS
 10
300.872528
 20
253.879898
 11
303.789520
 21
253.879898
  0
LINE
  8
0
  6
CONTINUOUS
 10
290.289520
 20
366.879883
 11
247.173264
 21
366.879883
  0
LINE
  8
0
  6
CONTINUOUS
 10
225.539536
 20
356.379883
 11
230.872375
 21
356.379883
  0
ARC
  8
0
  6
CONTINUOUS
 10
230.872375
 20
353.379883
 40
3.000000
 50
1.500000
 51
90.000000
  0
LINE
  8
0
  6
CONTINUOUS
 10
233.830002
 20
340.879883
 11
225.539536
 21
340.879883
  0
LINE
  8
0
  6
CONTINUOUS
 10
233.830002
 20
276.879883
 11
225.539536
 21
276.879883
  0
LINE
  8
0
  6
CONTINUOUS
 10
225.539536
 20
261.379883
 11
230.872375
 21
261.379883
  0
ARC
  8
0
  6
CONTINUOUS
 10
230.872375
 20
264.379883
 40
3.000000
 50
-90.000000
 51
-1.500000
  0
LINE
  8
0
  6
CONTINUOUS
 10
483.855011
 20
-2.325313
 11
531.854980
 21
-2.325313
  0
LINE
  8
0
  6
CONTINUOUS
 10
532.854980
 20
-3.325313
 11
531.854980
 21
-2.325313
  0
LINE
  8
0
  6
CONTINUOUS
 10
482.855011
 20
-3.325313
 11
483.855011
 21
-2.325313
  0
LINE
  8
0
  6
CONTINUOUS
 10
532.854980
 20
-3.325313
 11
565.854980
 21
-3.325313
  0
LINE
  8
0
  6
CONTINUOUS
 10
220.039536
 20
251.379898
 11
225.539536
 21
251.379898
  0
LINE
  8
0
  6
CONTINUOUS
 10
220.039536
 20
366.379883
 11
225.539536
 21
366.379883
  0
LINE
  8
0
  6
CONTINUOUS
 10
217.539536
 20
253.879898
 11
217.539536
 21
363.879883
  0
LINE
  8
0
  6
CONTINUOUS
 10
173.539536
 20
346.879883
 11
173.539536
 21
270.879883
  0
LINE
  8
0
  6
CONTINUOUS
 10
215.126785
 20
348.332153
 11
173.539536
 21
346.879883
  0
LINE
  8
0
  6
CONTINUOUS
 10
215.126785
 20
269.427643
 11
173.539536
 21
270.879883
  0
ARC
  8
0
  6
CONTINUOUS
 10
220.039536
 20
363.879883
 40
2.500000
 50
90.000000
 51
180.000000
  0
ARC
  8
0
  6
CONTINUOUS
 10
220.039536
 20
253.879898
 40
2.500000
 50
180.000000
 51
270.000000
  0
ARC
  8
0
  6
CONTINUOUS
 10
218.539536
 20
127.674690
 40
1.000000
 50
90.000000
 51
180.000000
  0
ARC
  8
0
  6
CONTINUOUS
 10
215.039536
 20
113.743874
 40
2.500000
 50
-64.230675
 51
0.000000
  0
ARC
  8
0
  6
CONTINUOUS
 10
215.039536
 20
102.125427
 40
2.500000
 50
-88.000000
 51
0.000000
  0
ARC
  8
0
  6
CONTINUOUS
 10
189.096100
 20
101.219460
 40
2.500000
 50
272.000000
 51
295.769318
  0
LINE
  8
0
  6
CONTINUOUS
 10
173.539536
 20
346.879883
 11
173.539536
 21
270.879883
  0
LINE
  8
0
  6
CONTINUOUS
 10
59.539654
 20
346.879883
 11
173.539658
 21
346.879883
  0
LINE
  8
0
  6
CONTINUOUS
 10
59.539654
 20
270.879913
 11
173.539658
 21
270.879913
  0
LINE
  8
0
  6
CONTINUOUS
 10
165.539658
 20
344.879883
 11
165.539658
 21
331.879883
  0
ARC
  8
0
  6
CONTINUOUS
 10
167.539658
 20
344.879883
 40
2.000000
 50
90.000000
 51
180.000000
  0
ARC
  8
0
  6
CONTINUOUS
 10
167.539658
 20
272.879913
 40
2.000000
 50
180.000000
 51
270.000000
  0
LINE
  8
0
  6
CONTINUOUS
 10
100.539642
 20
331.879883
 11
165.539658
 21
331.879883
  0
LINE
  8
0
  6
CONTINUOUS
 10
100.539650
 20
285.879883
 11
165.539658
 21
285.879883
  0
LINE
  8
0
  6
CONTINUOUS
 10
165.539658
 20
285.879883
 11
165.539658
 21
272.879883
  0
ARC
  8
0
  6
CONTINUOUS
 10
204.709167
 20
308.879883
 40
15.000000
 50
130.747620
 51
229.252380
  0
LINE
  8
0
  6
CONTINUOUS
 10
216.671356
 20
338.985901
 11
194.918243
 21
320.243774
  0
LINE
  8
0
  6
CONTINUOUS
 10
216.671356
 20
278.773895
 11
194.918243
 21
297.516022
  0
ARC
  8
0
  6
CONTINUOUS
 10
215.039536
 20
340.879883
 40
2.500000
 50
-49.252373
 51
0.000000
  0
ARC
  8
0
  6
CONTINUOUS
 10
215.039536
 20
350.830627
 40
2.500000
 50
-88.000000
 51
0.000000
  0
ARC
  8
0
  6
CONTINUOUS
 10
215.039536
 20
276.879913
 40
2.500000
 50
0.000000
 51
49.252373
  0
ARC
  8
0
  6
CONTINUOUS
 10
215.039536
 20
266.929169
 40
2.500000
 50
0.000000
 51
88.000000
  0
LINE
  8
0
  6
CONTINUOUS
 10
218.664612
 20
28.020687
 11
225.539536
 21
28.020687
  0
LINE
  8
0
  6
CONTINUOUS
 10
217.539536
 20
16.174686
 11
217.539536
 21
18.223951
  0
ARC
  8
0
  6
CONTINUOUS
 10
220.039536
 20
16.174686
 40
2.500000
 50
180.000000
 51
270.000000
  0
ARC
  8
0
  6
CONTINUOUS
 10
215.039536
 20
18.223951
 40
2.500000
 50
0.000000
 51
88.000000
  0
ARC
  8
0
  6
CONTINUOUS
 10
507.855011
 20
71.174690
 40
57.500000
 50
236.002823
 51
236.184402
  0
ARC
  8
0
  6
CONTINUOUS
 10
507.855011
 20
71.174690
 40
57.500000
 50
303.815582
 51
303.997162
  0
ARC
  8
0
  6
CONTINUOUS
 10
507.855011
 20
71.174690
 40
57.500000
 50
-33.997124
 51
33.406792
  0
ARC
  8
0
  6
CONTINUOUS
 10
507.855011
 20
71.174690
 40
57.500000
 50
160.176102
 51
213.997131
  0
LINE
  8
0
  6
CONTINUOUS
 10
59.539654
 20
346.879883
 11
59.539654
 21
333.879883
  0
LINE
  8
0
  6
CONTINUOUS
 10
59.539654
 20
346.879883
 11
50.039654
 21
346.879883
  0
LINE
  8
0
  6
CONTINUOUS
 10
59.539654
 20
270.879883
 11
50.039654
 21
270.879883
  0
LINE
  8
0
  6
CONTINUOUS
 10
50.539654
 20
285.879883
 11
50.039654
 21
285.879883
  0
LINE
  8
0
  6
CONTINUOUS
 10
50.539654
 20
331.879883
 11
50.039654
 21
331.879883
  0
LINE
  8
0
  6
CONTINUOUS
 10
59.539654
 20
283.879883
 11
59.539654
 21
270.879883
  0
LINE
  8
0
  6
CONTINUOUS
 10
50.039654
 20
268.879883
 11
50.039654
 21
301.379883
  0
LINE
  8
0
  6
CONTINUOUS
 10
6.039653
 20
348.879883
 11
50.039654
 21
348.879883
  0
LINE
  8
0
  6
CONTINUOUS
 10
6.039653
 20
268.879883
 11
50.039654
 21
268.879883
  0
LINE
  8
0
  6
CONTINUOUS
 10
1.039653
 20
273.879883
 11
1.039653
 21
343.879883
  0
ARC
  8
0
  6
CONTINUOUS
 10
6.039653
 20
343.879883
 40
5.000000
 50
90.000000
 51
180.000000
  0
ARC
  8
0
  6
CONTINUOUS
 10
6.039653
 20
273.879883
 40
5.000000
 50
180.000000
 51
270.000000
  0
LINE
  8
0
  6
CONTINUOUS
 10
3.539653
 20
332.879883
 11
50.039654
 21
332.879883
  0
LINE
  8
0
  6
CONTINUOUS
 10
3.539653
 20
282.879883
 11
50.039654
 21
282.879883
  0
LINE
  8
0
  6
CONTINUOUS
 10
50.039532
 20
98.174667
 11
59.539532
 21
98.174667
  0
LINE
  8
0
  6
CONTINUOUS
 10
50.039532
 20
22.174667
 11
59.539532
 21
22.174667
  0
LINE
  8
0
  6
CONTINUOUS
 10
50.039532
 20
20.174667
 11
50.039532
 21
100.174667
  0
LINE
  8
0
  6
CONTINUOUS
 10
50.039532
 20
90.423668
 11
59.539532
 21
90.423668
  0
LINE
  8
0
  6
CONTINUOUS
 10
50.039532
 20
29.925667
 11
59.539532
 21
29.925667
  0
LINE
  8
0
  6
CONTINUOUS
 10
6.039531
 20
100.174667
 11
50.039532
 21
100.174667
  0
LINE
  8
0
  6
CONTINUOUS
 10
6.039531
 20
20.174667
 11
50.039532
 21
20.174667
  0
LINE
  8
0
  6
CONTINUOUS
 10
1.039531
 20
25.174667
 11
1.039531
 21
95.174667
  0
ARC
  8
0
  6
CONTINUOUS
 10
6.039531
 20
95.174667
 40
5.000000
 50
90.000000
 51
180.000000
  0
ARC
  8
0
  6
CONTINUOUS
 10
6.039531
 20
25.174667
 40
5.000000
 50
180.000000
 51
270.000000
  0
LINE
  8
0
  6
CONTINUOUS
 10
3.539531
 20
86.174667
 11
50.039532
 21
86.174667
  0
LINE
  8
0
  6
CONTINUOUS
 10
3.539531
 20
36.174667
 11
50.039532
 21
36.174667
  0
LINE
  8
0
  6
CONTINUOUS
 10
59.539532
 20
22.174686
 11
59.539532
 21
98.174667
  0
LINE
  8
0
  6
CONTINUOUS
 10
49.539654
 20
316.379883
 11
50.539654
 21
316.379883
  0
ARC
  8
0
  6
CONTINUOUS
 10
49.539673
 20
315.379883
 40
1.000000
 50
90.000000
 51
180.000000
  0
LINE
  8
0
  6
CONTINUOUS
 10
45.039669
 20
312.879883
 11
45.039669
 21
304.879883
  0
LINE
  8
0
  6
CONTINUOUS
 10
45.039669
 20
312.879883
 11
48.539669
 21
314.379883
  0
LINE
  8
0
  6
CONTINUOUS
 10
45.039654
 20
304.879883
 11
48.539654
 21
303.379883
  0
LINE
  8
0
  6
CONTINUOUS
 10
48.539669
 20
315.379883
 11
48.539669
 21
302.379883
  0
LINE
  8
0
  6
CONTINUOUS
 10
49.539654
 20
301.379883
 11
50.539654
 21
301.379883
  0
ARC
  8
0
  6
CONTINUOUS
 10
49.539673
 20
302.379883
 40
1.000000
 50
-180.000000
 51
-90.000000
  0
LINE
  8
0
  6
CONTINUOUS
 10
50.539654
 20
285.879883
 11
50.539654
 21
331.879883
  0
LINE
  8
0
  6
CONTINUOUS
 10
52.539654
 20
333.879883
 11
50.539654
 21
331.879883
  0
LINE
  8
0
  6
CONTINUOUS
 10
52.539654
 20
333.879883
 11
98.539642
 21
333.879883
  0
LINE
  8
0
  6
CONTINUOUS
 10
93.039650
 20
329.379883
 11
93.039650
 21
333.879883
  0
ARC
  8
0
  6
CONTINUOUS
 10
96.039650
 20
329.379883
 40
3.000000
 50
180.000000
 51
270.000000
  0
LINE
  8
0
  6
CONTINUOUS
 10
96.039650
 20
326.379883
 11
100.539642
 21
326.379883
  0
CIRCLE
  8
0
  6
CONTINUOUS
 10
97.039650
 20
330.379883
 40
2.250000
  0
LINE
  8
0
  6
CONTINUOUS
 10
100.539650
 20
285.879883
 11
100.539642
 21
331.879883
  0
LINE
  8
0
  6
CONTINUOUS
 10
98.539642
 20
333.879883
 11
100.539642
 21
331.879883
  0
LINE
  8
0
  6
CONTINUOUS
 10
98.539650
 20
283.879883
 11
100.539650
 21
285.879883
  0
LINE
  8
0
  6
CONTINUOUS
 10
98.539650
 20
283.879883
 11
52.539654
 21
283.879883
  0
LINE
  8
0
  6
CONTINUOUS
 10
50.539654
 20
285.879883
 11
52.539654
 21
283.879883
  0
LINE
  8
0
  6
CONTINUOUS
 10
55.039654
 20
291.379883
 11
50.539661
 21
291.379883
  0
CIRCLE
  8
0
  6
CONTINUOUS
 10
54.039654
 20
287.379883
 40
2.250000
  0
ARC
  8
0
  6
CONTINUOUS
 10
55.039654
 20
288.379883
 40
3.000000
 50
0.000000
 51
90.000000
  0
LINE
  8
0
  6
CONTINUOUS
 10
58.039654
 20
288.379883
 11
58.039654
 21
283.879883
  0
LINE
  8
0
  6
CENTER
 10
75.539650
 20
276.414093
 11
75.539650
 21
340.546112
  0
LINE
  8
0
  6
CONTINUOUS
 10
52.953873
 20
332.879883
 11
51.539658
 21
331.465668
  0
LINE
  8
0
  6
CONTINUOUS
 10
51.539658
 20
291.379883
 11
51.539658
 21
331.465668
  0
LINE
  8
0
  6
CONTINUOUS
 10
93.039650
 20
332.879883
 11
52.953873
 21
332.879883
  0
LINE
  8
0
  6
CONTINUOUS
 10
99.539650
 20
326.379883
 11
99.539650
 21
286.294098
  0
LINE
  8
0
  6
CONTINUOUS
 10
58.039654
 20
284.879883
 11
98.125435
 21
284.879883
  0
LINE
  8
0
  6
CONTINUOUS
 10
98.125435
 20
284.879883
 11
99.539650
 21
286.294098
  0
LINE
  8
0
  6
CONTINUOUS
 10
50.039654
 20
316.379883
 11
50.039654
 21
348.879883
  0
LINE
  8
0
  6
CONTINUOUS
 10
52.039532
 20
99.674690
 11
98.539528
 21
99.674690
  0
LINE
  8
0
  6
CONTINUOUS
 10
100.539520
 20
129.674683
 11
100.539528
 21
101.674690
  0
LINE
  8
0
  6
CONTINUOUS
 10
50.539532
 20
129.674683
 11
50.539532
 21
101.674690
  0
LINE
  8
0
  6
CONTINUOUS
 10
48.539532
 20
111.674690
 11
100.539528
 21
111.674690
  0
LINE
  8
0
  6
CONTINUOUS
 10
98.539528
 20
99.674690
 11
100.539528
 21
101.674690
  0
LINE
  8
0
  6
CONTINUOUS
 10
50.539532
 20
101.674690
 11
52.539532
 21
99.674690
  0
LINE
  8
0
  6
CONTINUOUS
 10
50.539532
 20
101.674690
 11
100.539528
 21
101.674690
  0
LINE
  8
0
  6
CONTINUOUS
 10
51.539532
 20
130.674683
 11
99.539520
 21
130.674683
  0
LINE
  8
0
  6
CONTINUOUS
 10
99.539520
 20
130.674683
 11
100.539520
 21
129.674683
  0
LINE
  8
0
  6
CONTINUOUS
 10
51.539532
 20
130.674683
 11
50.539532
 21
129.674683
  0
LINE
  8
0
  6
CONTINUOUS
 10
50.539532
 20
129.674683
 11
100.539520
 21
129.674683
  0
LINE
  8
0
  6
CENTER
 10
42.595776
 20
121.174690
 11
54.670780
 21
121.174690
  0
LINE
  8
0
  6
CONTINUOUS
 10
48.539547
 20
127.674690
 11
48.539532
 21
111.674690
  0
LINE
  8
0
  6
CONTINUOUS
 10
49.539532
 20
128.674683
 11
50.539532
 21
128.674683
  0
ARC
  8
0
  6
CONTINUOUS
 10
49.539551
 20
127.674690
 40
1.000000
 50
90.000000
 51
180.000000
  0
LINE
  8
0
  6
CONTINUOUS
 10
45.039547
 20
125.174690
 11
45.039547
 21
117.174690
  0
LINE
  8
0
  6
CONTINUOUS
 10
45.039547
 20
125.174690
 11
48.539547
 21
126.674690
  0
LINE
  8
0
  6
CONTINUOUS
 10
45.039532
 20
117.174690
 11
48.539532
 21
115.674690
  0
LINE
  8
0
  6
CENTER
 10
75.539528
 20
94.980942
 11
75.539528
 21
136.062195
  0
LINE
  8
0
  6
CONTINUOUS
 10
52.039532
 20
99.674690
 11
52.039532
 21
98.174690
  0
LINE
  8
0
  6
CONTINUOUS
 10
98.039528
 20
99.674690
 11
98.039528
 21
98.174690
  0
LINE
  8
0
  6
CONTINUOUS
 10
173.539536
 20
50.774689
 11
217.539536
 21
50.774689
  0
LINE
  8
0
  6
CONTINUOUS
 10
173.539536
 20
40.574688
 11
217.539536
 21
40.574688
  0
TEXT
  8
0
 10
-10.000000
 20
-18.000000
 40
4.000000
 41
1.000000
  1
HLM-22R-300~450-S40T
 50
0.000000
  0
ENDSEC
  0
EOF
