  0
SECTION
  2
HEADER
  9
$CLAYER
  8
1
  9
$LTSCALE
 40
3.0
  0
ENDSEC
  0
SECTION
  2
TABLES
  0
TABLE
  2
LTYPE
 70
     4
  0
LTYPE
  2
CONTINUOUS
  3
solid line
 70
    64
 72
    65
 73
     0
 40
0.0
  0
LTYPE
  2
DASHED
  3
__ __ __ __ __ __ __ __ __ __ __ __ __ __ __
 70
    64
 72
    65
 73
     2
 40
0.75
 49
0.5
 49
-0.25
  0
LTYPE
  2
CENTER
  3
____ _ ____ _ ____ _ ____ _ ____ _ ____ _ ____
 70
    64
 72
    65
 73
     4
 40
2.0
 49
1.25
 49
-0.25
 49
0.25
 49
-0.25
  0
LTYPE
  2
PHANTOM
  3
_____ _ _ _____ _ _ _____ _ _ _____ _ _ ____
 70
    64
 72
    65
 73
     6
 40
2.5
 49
1.25
 49
-0.25
 49
0.25
 49
-0.25
 49
0.25
 49
-0.25
  0
ENDTAB
  0
TABLE
  2
LAYER
 70
     1
  0
LAYER
  2
0
 70
    64
 62
     7
  6
CONTINUOUS
  0
ENDTAB
  0
TABLE
  2
STYLE
 70
     1
  0
STYLE
  2
STANDARD
 70
     0
 40
0.000000
 41
1.000000
 50
0.000000
 71
     0
 42
3.000000
  3
txt
  4
BIGFONT
  0
ENDTAB
  0
ENDSEC
  0
SECTION
  2
BLOCKS
  0
ENDSEC
  0
SECTION
  2
ENTITIES
  0
LINE
  8
0
  6
CENTER
 10
100.449997
 20
80.084686
 11
219.544525
 21
80.084686
  0
LINE
  8
0
  6
CENTER
 10
251.544525
 20
162.834686
 11
251.544525
 21
-0.665313
  0
LINE
  8
0
  6
CENTER
 10
204.974136
 20
110.584686
 11
296.282501
 21
110.584686
  0
LINE
  8
0
  6
CONTINUOUS
 10
198.544525
 20
5.584687
 11
304.544525
 21
5.584687
  0
LINE
  8
0
  6
CONTINUOUS
 10
233.115128
 20
155.584686
 11
269.973938
 21
155.584686
  0
LINE
  8
0
  6
CONTINUOUS
 10
304.544525
 20
129.974930
 11
304.544525
 21
5.584708
  0
LINE
  8
0
  6
CONTINUOUS
 10
198.544525
 20
30.584686
 11
198.544525
 21
5.584687
  0
LINE
  8
0
  6
CONTINUOUS
 10
186.794525
 20
137.334686
 11
204.417526
 21
137.334686
  0
LINE
  8
0
  6
CONTINUOUS
 10
186.794525
 20
22.834686
 11
193.544556
 21
22.834686
  0
LINE
  8
0
  6
CONTINUOUS
 10
194.794525
 20
34.584686
 11
194.794525
 21
125.584686
  0
LINE
  8
0
  6
CONTINUOUS
 10
302.403534
 20
134.076920
 11
272.832916
 21
154.686661
  0
LINE
  8
0
  6
CONTINUOUS
 10
200.685532
 20
134.076920
 11
230.256134
 21
154.686661
  0
LINE
  8
0
  6
CONTINUOUS
 10
232.482925
 20
17.584686
 11
198.544525
 21
17.584686
  0
LINE
  8
0
  6
CONTINUOUS
 10
238.106125
 20
27.584686
 11
264.982941
 21
27.584686
  0
LINE
  8
0
  6
CONTINUOUS
 10
266.544525
 20
26.147186
 11
266.544525
 21
18.584686
  0
LINE
  8
0
  6
CONTINUOUS
 10
236.544525
 20
25.959686
 11
236.544525
 21
18.584686
  0
LINE
  8
0
  6
CONTINUOUS
 10
234.423325
 20
19.099607
 11
236.165726
 21
26.069769
  0
LINE
  8
0
  6
CONTINUOUS
 10
268.665741
 20
19.099607
 11
266.923340
 21
26.069748
  0
LINE
  8
0
  6
CONTINUOUS
 10
204.544525
 20
16.522186
 11
204.544525
 21
5.584687
  0
LINE
  8
0
  6
CONTINUOUS
 10
298.544525
 20
16.522186
 11
298.544525
 21
5.584687
  0
LINE
  8
0
  6
CENTER
 10
216.544525
 20
21.334686
 11
216.544525
 21
1.334687
  0
LINE
  8
0
  6
CENTER
 10
286.544525
 20
22.334686
 11
286.544525
 21
1.834687
  0
LINE
  8
0
  6
DASHED
 10
211.044525
 20
17.584686
 11
211.044525
 21
5.584687
  0
LINE
  8
0
  6
DASHED
 10
222.044525
 20
17.584686
 11
222.044525
 21
5.584687
  0
LINE
  8
0
  6
DASHED
 10
281.044525
 20
17.584686
 11
281.044525
 21
5.584687
  0
LINE
  8
0
  6
DASHED
 10
292.044525
 20
17.584686
 11
292.044525
 21
5.584687
  0
ARC
  8
0
  6
CONTINUOUS
 10
269.973938
 20
150.584686
 40
5.000000
 50
55.124809
 51
90.000000
  0
ARC
  8
0
  6
CONTINUOUS
 10
233.115128
 20
150.584686
 40
5.000000
 50
90.000000
 51
124.875603
  0
ARC
  8
0
  6
CONTINUOUS
 10
299.544525
 20
129.974930
 40
5.000000
 50
0.000000
 51
55.124851
  0
ARC
  8
0
  6
CONTINUOUS
 10
203.544525
 20
129.974945
 40
5.000000
 50
124.875702
 51
180.000000
  0
LINE
  8
0
  6
CONTINUOUS
 10
186.794525
 20
127.584686
 11
196.544525
 21
127.584686
  0
LINE
  8
0
  6
CONTINUOUS
 10
192.794525
 20
32.584686
 11
186.794525
 21
32.584686
  0
LINE
  8
0
  6
CONTINUOUS
 10
186.794525
 20
112.044685
 11
193.669525
 21
112.044685
  0
LINE
  8
0
  6
CONTINUOUS
 10
186.794525
 20
48.124687
 11
193.794525
 21
48.124687
  0
ARC
  8
0
  6
CONTINUOUS
 10
204.417328
 20
140.334686
 40
3.000000
 50
270.000000
 51
304.875397
  0
ARC
  8
0
  6
CONTINUOUS
 10
192.794556
 20
125.584686
 40
2.000000
 50
0.000000
 51
90.000000
  0
ARC
  8
0
  6
CONTINUOUS
 10
196.544525
 20
129.584686
 40
2.000000
 50
-90.000000
 51
0.000000
  0
LINE
  8
0
  6
CONTINUOUS
 10
198.544556
 20
129.974945
 11
198.544525
 21
129.584686
  0
ARC
  8
0
  6
CONTINUOUS
 10
196.544525
 20
30.584686
 40
2.000000
 50
0.000000
 51
90.000000
  0
LINE
  8
0
  6
CONTINUOUS
 10
192.794525
 20
32.584686
 11
196.544525
 21
32.584686
  0
ARC
  8
0
  6
CONTINUOUS
 10
192.794525
 20
34.584686
 40
2.000000
 50
-90.000000
 51
0.000000
  0
ARC
  8
0
  6
CONTINUOUS
 10
193.544556
 20
17.834667
 40
5.000000
 50
0.000000
 51
90.000000
  0
ARC
  8
0
  6
CONTINUOUS
 10
264.982941
 20
25.584686
 40
2.000000
 50
14.036440
 51
90.000000
  0
ARC
  8
0
  6
CONTINUOUS
 10
238.106125
 20
25.584686
 40
2.000000
 50
90.000000
 51
165.963898
  0
LINE
  8
0
  6
CONTINUOUS
 10
270.606140
 20
17.584686
 11
304.544525
 21
17.584686
  0
ARC
  8
0
  6
CONTINUOUS
 10
232.482925
 20
19.584686
 40
2.000000
 50
270.000000
 51
345.963715
  0
LINE
  8
0
  6
CONTINUOUS
 10
270.606140
 20
17.584686
 11
232.482925
 21
17.584686
  0
ARC
  8
0
  6
CONTINUOUS
 10
270.606140
 20
19.584686
 40
2.000000
 50
194.036194
 51
270.000000
  0
ARC
  8
0
  6
CONTINUOUS
 10
235.544525
 20
18.584686
 40
1.000000
 50
-90.000000
 51
0.000000
  0
ARC
  8
0
  6
CONTINUOUS
 10
267.544525
 20
18.584686
 40
1.000000
 50
180.000000
 51
270.000000
  0
CIRCLE
  8
0
  6
CONTINUOUS
 10
251.544525
 20
110.584686
 40
27.500000
  0
ARC
  8
0
  6
CONTINUOUS
 10
251.544525
 20
110.584686
 40
31.750000
 50
7.552697
 51
172.447403
  0
ARC
  8
0
  6
CONTINUOUS
 10
234.794525
 20
69.084686
 40
20.600000
 50
172.447403
 51
270.000000
  0
ARC
  8
0
  6
CONTINUOUS
 10
268.294525
 20
69.084686
 40
20.600000
 50
-90.000000
 51
7.552700
  0
LINE
  8
0
  6
CONTINUOUS
 10
283.019135
 20
114.757851
 11
288.715729
 21
71.792313
  0
LINE
  8
0
  6
CONTINUOUS
 10
214.373337
 20
71.792274
 11
220.069931
 21
114.757790
  0
LINE
  8
0
  6
CONTINUOUS
 10
234.794525
 20
48.484688
 11
268.294525
 21
48.484688
  0
ARC
  8
0
  6
CONTINUOUS
 10
234.794525
 20
69.084686
 40
19.000000
 50
172.447601
 51
270.000000
  0
ARC
  8
0
  6
CONTINUOUS
 10
268.294525
 20
69.084686
 40
19.000000
 50
-90.000000
 51
7.552700
  0
ARC
  8
0
  6
CONTINUOUS
 10
251.544525
 20
110.584686
 40
30.150000
 50
-187.552597
 51
7.552697
  0
LINE
  8
0
  6
CONTINUOUS
 10
215.959335
 20
71.581978
 11
221.656128
 21
114.547508
  0
LINE
  8
0
  6
CONTINUOUS
 10
281.432922
 20
114.547546
 11
287.129730
 21
71.582016
  0
LINE
  8
0
  6
CONTINUOUS
 10
234.794525
 20
50.084686
 11
268.294525
 21
50.084686
  0
LINE
  8
0
  6
CONTINUOUS
 10
241.248138
 20
57.584686
 11
237.087738
 21
57.584686
  0
LINE
  8
0
  6
CONTINUOUS
 10
243.544525
 20
64.553436
 11
243.544525
 21
57.584686
  0
LINE
  8
0
  6
CONTINUOUS
 10
247.544525
 20
67.084686
 11
247.544525
 21
69.584686
  0
LINE
  8
0
  6
CONTINUOUS
 10
255.544525
 20
67.084686
 11
255.544525
 21
69.584686
  0
LINE
  8
0
  6
CONTINUOUS
 10
250.763336
 20
68.115936
 11
250.763336
 21
58.897186
  0
LINE
  8
0
  6
CONTINUOUS
 10
252.263336
 20
68.115936
 11
252.263336
 21
58.897186
  0
LINE
  8
0
  6
CONTINUOUS
 10
260.138336
 20
68.115936
 11
260.138336
 21
58.834686
  0
LINE
  8
0
  6
CONTINUOUS
 10
261.513336
 20
63.194061
 11
261.513336
 21
58.834686
  0
LINE
  8
0
  6
CONTINUOUS
 10
241.646530
 20
67.990936
 11
237.791534
 21
67.990936
  0
LINE
  8
0
  6
CONTINUOUS
 10
237.791534
 20
67.990936
 11
236.888336
 21
66.870934
  0
LINE
  8
0
  6
CONTINUOUS
 10
236.996933
 20
69.584686
 11
235.544525
 21
67.724930
  0
LINE
  8
0
  6
CONTINUOUS
 10
236.888336
 20
59.957607
 11
237.805923
 21
58.990929
  0
LINE
  8
0
  6
CONTINUOUS
 10
235.544525
 20
59.141850
 11
237.087738
 21
57.584686
  0
LINE
  8
0
  6
CONTINUOUS
 10
235.544525
 20
67.724930
 11
235.544525
 21
59.141850
  0
LINE
  8
0
  6
CONTINUOUS
 10
236.888336
 20
66.870934
 11
236.888336
 21
59.957607
  0
LINE
  8
0
  6
CONTINUOUS
 10
242.388336
 20
67.273834
 11
241.631332
 21
67.990936
  0
LINE
  8
0
  6
CONTINUOUS
 10
242.376328
 20
69.584686
 11
243.544525
 21
68.288200
  0
LINE
  8
0
  6
CONTINUOUS
 10
242.388336
 20
67.084686
 11
243.544525
 21
67.084686
  0
LINE
  8
0
  6
CONTINUOUS
 10
236.996933
 20
69.584686
 11
242.376328
 21
69.584686
  0
LINE
  8
0
  6
CONTINUOUS
 10
240.294525
 20
64.553436
 11
243.544525
 21
64.553436
  0
LINE
  8
0
  6
CONTINUOUS
 10
242.388336
 20
63.240936
 11
240.294525
 21
63.240936
  0
LINE
  8
0
  6
CONTINUOUS
 10
239.888336
 20
58.990929
 11
237.805923
 21
58.990929
  0
LINE
  8
0
  6
CONTINUOUS
 10
242.388336
 20
61.990936
 11
242.388336
 21
62.990936
  0
ARC
  8
0
  6
CONTINUOUS
 10
239.888336
 20
61.490932
 40
2.500000
 50
-89.999786
 51
0.000109
  0
LINE
  8
0
  6
CONTINUOUS
 10
242.388336
 20
58.541248
 11
242.388336
 21
57.584686
  0
LINE
  8
0
  6
CONTINUOUS
 10
243.544525
 20
68.288200
 11
243.544525
 21
67.084686
  0
LINE
  8
0
  6
CONTINUOUS
 10
242.388336
 20
63.240936
 11
242.388336
 21
61.490932
  0
LINE
  8
0
  6
CONTINUOUS
 10
240.294525
 20
64.553436
 11
240.294525
 21
63.240936
  0
LINE
  8
0
  6
CONTINUOUS
 10
242.388336
 20
57.584686
 11
243.544525
 21
57.584686
  0
LINE
  8
0
  6
CONTINUOUS
 10
242.388336
 20
58.541248
 11
241.248138
 21
57.584686
  0
LINE
  8
0
  6
CONTINUOUS
 10
252.263336
 20
58.897186
 11
252.763336
 21
58.897186
  0
LINE
  8
0
  6
CONTINUOUS
 10
250.169525
 20
58.897186
 11
250.169525
 21
57.584686
  0
LINE
  8
0
  6
CONTINUOUS
 10
252.763336
 20
58.897186
 11
252.763336
 21
57.584686
  0
LINE
  8
0
  6
CONTINUOUS
 10
254.710129
 20
67.084686
 11
255.544525
 21
67.084686
  0
LINE
  8
0
  6
CONTINUOUS
 10
247.544525
 20
67.084686
 11
248.432526
 21
67.084686
  0
LINE
  8
0
  6
CONTINUOUS
 10
247.544525
 20
69.584686
 11
255.544525
 21
69.584686
  0
LINE
  8
0
  6
CONTINUOUS
 10
250.169525
 20
57.584686
 11
252.763336
 21
57.584686
  0
LINE
  8
0
  6
CONTINUOUS
 10
250.169525
 20
58.897186
 11
250.763336
 21
58.897186
  0
ARC
  8
0
  6
CONTINUOUS
 10
264.341522
 20
66.381561
 40
3.203126
 50
-73.981873
 51
90.003510
  0
ARC
  8
0
  6
CONTINUOUS
 10
264.341522
 20
66.381561
 40
1.954125
 50
-82.585274
 51
62.411850
  0
LINE
  8
0
  6
CONTINUOUS
 10
259.544525
 20
69.584686
 11
264.341522
 21
69.584686
  0
LINE
  8
0
  6
CONTINUOUS
 10
264.593536
 20
64.443779
 11
261.513336
 21
64.443779
  0
LINE
  8
0
  6
CONTINUOUS
 10
259.544525
 20
69.584686
 11
259.544525
 21
68.115936
  0
LINE
  8
0
  6
CONTINUOUS
 10
261.513336
 20
68.115936
 11
261.513336
 21
64.443779
  0
LINE
  8
0
  6
CONTINUOUS
 10
265.225342
 20
63.302799
 11
267.207733
 21
58.834686
  0
LINE
  8
0
  6
CONTINUOUS
 10
264.073730
 20
63.194061
 11
265.949921
 21
58.834686
  0
LINE
  8
0
  6
CONTINUOUS
 10
259.544525
 20
58.834686
 11
260.138336
 21
58.834686
  0
LINE
  8
0
  6
CONTINUOUS
 10
261.513336
 20
58.834686
 11
262.060120
 21
58.834686
  0
LINE
  8
0
  6
CONTINUOUS
 10
262.060120
 20
57.584686
 11
259.544525
 21
57.584686
  0
LINE
  8
0
  6
CONTINUOUS
 10
265.700745
 20
58.834686
 11
265.949921
 21
58.834686
  0
LINE
  8
0
  6
CONTINUOUS
 10
267.207733
 20
58.834686
 11
267.544525
 21
58.834686
  0
LINE
  8
0
  6
CONTINUOUS
 10
265.700745
 20
57.584686
 11
267.544525
 21
57.584686
  0
LINE
  8
0
  6
CONTINUOUS
 10
267.544525
 20
58.834686
 11
267.544525
 21
57.584686
  0
LINE
  8
0
  6
CONTINUOUS
 10
265.700745
 20
58.834686
 11
265.700745
 21
57.584686
  0
LINE
  8
0
  6
CONTINUOUS
 10
262.060120
 20
58.834686
 11
262.060120
 21
57.584686
  0
LINE
  8
0
  6
CONTINUOUS
 10
259.544525
 20
58.834686
 11
259.544525
 21
57.584686
  0
LINE
  8
0
  6
CONTINUOUS
 10
248.862335
 20
68.115936
 11
248.432526
 21
67.084686
  0
LINE
  8
0
  6
CONTINUOUS
 10
254.347733
 20
68.115936
 11
254.710129
 21
67.084686
  0
LINE
  8
0
  6
CONTINUOUS
 10
252.263336
 20
68.115936
 11
254.347733
 21
68.115936
  0
LINE
  8
0
  6
CONTINUOUS
 10
250.763336
 20
68.115936
 11
248.862335
 21
68.115936
  0
LINE
  8
0
  6
CONTINUOUS
 10
261.513336
 20
63.194061
 11
264.073730
 21
63.194061
  0
LINE
  8
0
  6
CONTINUOUS
 10
259.544525
 20
68.115936
 11
260.138336
 21
68.115936
  0
LINE
  8
0
  6
CONTINUOUS
 10
261.513336
 20
68.115936
 11
265.246338
 21
68.113510
  0
LINE
  8
0
  6
CONTINUOUS
 10
242.388336
 20
67.273834
 11
242.388336
 21
67.084686
  0
LINE
  8
0
  6
CONTINUOUS
 10
186.794556
 20
137.584686
 11
186.794525
 21
22.584686
  0
LINE
  8
0
  6
CONTINUOUS
 10
20.794531
 20
31.084707
 11
20.794531
 21
107.084686
  0
LINE
  8
0
  6
CONTINUOUS
 10
20.794531
 20
107.084663
 11
134.794525
 21
107.084663
  0
LINE
  8
0
  6
CONTINUOUS
 10
20.794531
 20
31.084707
 11
134.794525
 21
31.084707
  0
LINE
  8
0
  6
CONTINUOUS
 10
20.794531
 20
99.333672
 11
126.794533
 21
99.333672
  0
LINE
  8
0
  6
CONTINUOUS
 10
20.794531
 20
38.835709
 11
126.794533
 21
38.835709
  0
LINE
  8
0
  6
CONTINUOUS
 10
126.794533
 20
105.084663
 11
126.794533
 21
33.084686
  0
ARC
  8
0
  6
CONTINUOUS
 10
128.794525
 20
105.084686
 40
2.000000
 50
90.000000
 51
180.000000
  0
ARC
  8
0
  6
CONTINUOUS
 10
128.794525
 20
33.084709
 40
2.000000
 50
180.000000
 51
270.000000
  0
LINE
  8
0
  6
CONTINUOUS
 10
0.294531
 20
37.084686
 11
0.294531
 21
101.084686
  0
LINE
  8
0
  6
CONTINUOUS
 10
4.258611
 20
107.084686
 11
20.794531
 21
107.084686
  0
LINE
  8
0
  6
CONTINUOUS
 10
4.258627
 20
31.084686
 11
20.794531
 21
31.084686
  0
LINE
  8
0
  6
CONTINUOUS
 10
0.794531
 20
34.084686
 11
0.794531
 21
104.084686
  0
LINE
  8
0
  6
CONTINUOUS
 10
0.294531
 20
101.084686
 11
0.794531
 21
101.584686
  0
LINE
  8
0
  6
CONTINUOUS
 10
0.294531
 20
37.084686
 11
0.794531
 21
36.584686
  0
LINE
  8
0
  6
CONTINUOUS
 10
1.660544
 20
105.584663
 11
0.794531
 21
104.084686
  0
ARC
  8
0
  6
CONTINUOUS
 10
4.258627
 20
104.084709
 40
3.000000
 50
90.000000
 51
150.000397
  0
LINE
  8
0
  6
CONTINUOUS
 10
1.660544
 20
32.584709
 11
0.794531
 21
34.084686
  0
ARC
  8
0
  6
CONTINUOUS
 10
4.258627
 20
34.084686
 40
3.000000
 50
-150.000397
 51
-90.000000
  0
LINE
  8
0
  6
CONTINUOUS
 10
2.376165
 20
99.333694
 11
20.794531
 21
99.333694
  0
LINE
  8
0
  6
CONTINUOUS
 10
20.794531
 20
38.835690
 11
2.376165
 21
38.835690
  0
LINE
  8
0
  6
CENTER
 10
469.109985
 20
-10.040333
 11
469.109985
 21
169.509689
  0
LINE
  8
0
  6
CENTER
 10
398.885010
 20
80.084686
 11
538.010010
 21
80.084686
  0
LINE
  8
0
  6
CENTER
 10
367.359985
 20
110.584686
 11
530.982971
 21
110.584686
  0
LINE
  8
0
  6
CONTINUOUS
 10
411.109985
 20
5.584687
 11
444.109985
 21
5.584687
  0
LINE
  8
0
  6
CONTINUOUS
 10
411.109985
 20
16.211086
 11
411.109985
 21
5.584687
  0
LINE
  8
0
  6
CONTINUOUS
 10
527.109985
 20
16.211086
 11
527.109985
 21
5.584687
  0
LINE
  8
0
  6
CONTINUOUS
 10
413.109985
 20
17.584686
 11
434.109985
 21
17.584686
  0
LINE
  8
0
  6
CONTINUOUS
 10
525.109985
 20
17.584686
 11
504.109985
 21
17.584686
  0
LINE
  8
0
  6
CONTINUOUS
 10
437.109985
 20
28.958288
 11
437.109985
 21
153.060608
  0
LINE
  8
0
  6
CONTINUOUS
 10
501.109985
 20
28.958288
 11
501.109985
 21
153.060974
  0
LINE
  8
0
  6
CONTINUOUS
 10
499.144806
 20
155.060669
 11
469.109985
 21
155.584686
  0
LINE
  8
0
  6
CONTINUOUS
 10
439.075012
 20
155.060333
 11
469.109985
 21
155.584686
  0
ARC
  8
0
  6
CONTINUOUS
 10
439.109985
 20
153.060623
 40
2.000000
 50
91.000580
 51
180.000000
  0
ARC
  8
0
  6
CONTINUOUS
 10
499.109985
 20
153.060974
 40
2.000000
 50
0.000000
 51
89.000519
  0
LINE
  8
0
  6
CONTINUOUS
 10
501.109985
 20
20.584686
 11
501.109985
 21
5.584687
  0
ARC
  8
0
  6
CONTINUOUS
 10
504.109985
 20
20.584686
 40
3.000000
 50
180.000000
 51
270.000000
  0
LINE
  8
0
  6
CONTINUOUS
 10
437.109985
 20
20.584686
 11
437.109985
 21
5.584687
  0
ARC
  8
0
  6
CONTINUOUS
 10
434.109985
 20
20.584667
 40
3.000000
 50
-90.000000
 51
0.000000
  0
ARC
  8
0
  6
CONTINUOUS
 10
413.109985
 20
15.584687
 40
2.000000
 50
90.000000
 51
180.000000
  0
ARC
  8
0
  6
CONTINUOUS
 10
525.109985
 20
15.584687
 40
2.000000
 50
0.000000
 51
90.000000
  0
LINE
  8
0
  6
CENTER
 10
424.109985
 20
21.874687
 11
424.109985
 21
1.474688
  0
LINE
  8
0
  6
CENTER
 10
514.109985
 20
22.894688
 11
514.109985
 21
0.964687
  0
LINE
  8
0
  6
CONTINUOUS
 10
435.828003
 20
27.091608
 11
412.391998
 21
18.077787
  0
ARC
  8
0
  6
CONTINUOUS
 10
413.109985
 20
16.211107
 40
2.000000
 50
111.037903
 51
180.000000
  0
LINE
  8
0
  6
CONTINUOUS
 10
437.109985
 20
28.958288
 11
437.109985
 21
20.584686
  0
ARC
  8
0
  6
CONTINUOUS
 10
435.109985
 20
28.958288
 40
2.000000
 50
-68.962189
 51
0.000000
  0
LINE
  8
0
  6
CONTINUOUS
 10
502.391998
 20
27.091587
 11
525.828003
 21
18.077787
  0
ARC
  8
0
  6
CONTINUOUS
 10
525.109985
 20
16.211086
 40
2.000000
 50
0.000000
 51
68.962646
  0
LINE
  8
0
  6
CONTINUOUS
 10
501.109985
 20
28.958288
 11
501.109985
 21
20.584686
  0
ARC
  8
0
  6
CONTINUOUS
 10
503.109985
 20
28.958307
 40
2.000000
 50
180.000000
 51
248.962799
  0
LINE
  8
0
  6
CONTINUOUS
 10
421.109985
 20
85.391838
 11
421.109985
 21
135.777527
  0
LINE
  8
0
  6
CONTINUOUS
 10
517.109985
 20
85.391838
 11
517.109985
 21
135.777527
  0
LINE
  8
0
  6
CONTINUOUS
 10
507.109985
 20
52.389526
 11
507.109985
 21
112.654686
  0
LINE
  8
0
  6
CONTINUOUS
 10
431.109985
 20
52.389526
 11
431.109985
 21
112.654686
  0
LINE
  8
0
  6
CONTINUOUS
 10
514.880188
 20
138.676987
 11
503.339813
 21
141.742386
  0
LINE
  8
0
  6
CONTINUOUS
 10
514.880188
 20
82.492386
 11
509.339813
 21
81.020737
  0
LINE
  8
0
  6
CONTINUOUS
 10
504.882996
 20
49.490826
 11
503.337006
 21
49.078548
  0
LINE
  8
0
  6
CONTINUOUS
 10
433.337006
 20
49.490807
 11
434.882996
 21
49.078548
  0
LINE
  8
0
  6
CONTINUOUS
 10
423.339813
 20
82.492378
 11
428.880188
 21
81.020737
  0
LINE
  8
0
  6
CONTINUOUS
 10
423.339813
 20
138.676987
 11
434.880188
 21
141.742386
  0
ARC
  8
0
  6
CONTINUOUS
 10
424.109985
 20
135.777542
 40
3.000000
 50
104.876099
 51
180.000000
  0
ARC
  8
0
  6
CONTINUOUS
 10
424.109985
 20
85.391853
 40
3.000000
 50
180.000000
 51
255.124603
  0
ARC
  8
0
  6
CONTINUOUS
 10
514.109985
 20
135.777527
 40
3.000000
 50
0.000000
 51
75.124413
  0
ARC
  8
0
  6
CONTINUOUS
 10
514.109985
 20
85.391838
 40
3.000000
 50
-75.124207
 51
0.000000
  0
ARC
  8
0
  6
CONTINUOUS
 10
434.109985
 20
52.389549
 40
3.000000
 50
180.000000
 51
255.069000
  0
ARC
  8
0
  6
CONTINUOUS
 10
504.109985
 20
52.389526
 40
3.000000
 50
-75.068420
 51
0.000000
  0
ARC
  8
0
  6
CONTINUOUS
 10
504.109985
 20
144.641861
 40
3.000000
 50
180.000000
 51
255.124603
  0
ARC
  8
0
  6
CONTINUOUS
 10
510.109985
 20
78.121300
 40
3.000000
 50
104.876099
 51
180.000000
  0
ARC
  8
0
  6
CONTINUOUS
 10
504.109985
 20
46.179867
 40
3.000000
 50
104.931801
 51
180.000000
  0
ARC
  8
0
  6
CONTINUOUS
 10
434.109985
 20
46.179848
 40
3.000000
 50
0.000000
 51
75.068779
  0
ARC
  8
0
  6
CONTINUOUS
 10
428.109985
 20
78.121269
 40
3.000000
 50
0.000000
 51
75.124496
  0
ARC
  8
0
  6
CONTINUOUS
 10
434.109985
 20
144.641830
 40
3.000000
 50
-75.124153
 51
0.000000
  0
LINE
  8
0
  6
DASHED
 10
418.609985
 20
17.584686
 11
418.609985
 21
5.584687
  0
LINE
  8
0
  6
DASHED
 10
429.609985
 20
17.584686
 11
429.609985
 21
5.584687
  0
LINE
  8
0
  6
DASHED
 10
508.609985
 20
17.584686
 11
508.609985
 21
5.584687
  0
LINE
  8
0
  6
DASHED
 10
519.609985
 20
17.584686
 11
519.609985
 21
5.584687
  0
LINE
  8
0
  6
CONTINUOUS
 10
439.339996
 20
132.584686
 11
499.010010
 21
132.584686
  0
LINE
  8
0
  6
CONTINUOUS
 10
421.609985
 20
37.584686
 11
421.609985
 21
46.636028
  0
LINE
  8
0
  6
CONTINUOUS
 10
516.609985
 20
37.584686
 11
516.609985
 21
46.636028
  0
LINE
  8
0
  6
CONTINUOUS
 10
426.609985
 20
32.584686
 11
435.641205
 21
32.584686
  0
LINE
  8
0
  6
CONTINUOUS
 10
511.609985
 20
32.584686
 11
502.558594
 21
32.584686
  0
ARC
  8
0
  6
CONTINUOUS
 10
469.109985
 20
80.084686
 40
57.250000
 50
-32.501888
 51
33.025517
  0
ARC
  8
0
  6
CONTINUOUS
 10
469.109985
 20
80.084686
 40
57.250000
 50
160.085907
 51
212.501907
  0
ARC
  8
0
  6
CONTINUOUS
 10
426.609985
 20
37.584686
 40
5.000000
 50
180.000000
 51
270.000000
  0
ARC
  8
0
  6
CONTINUOUS
 10
511.609985
 20
37.584686
 40
5.000000
 50
-90.000000
 51
0.000000
  0
ARC
  8
0
  6
CONTINUOUS
 10
435.661407
 20
27.584686
 40
5.000000
 50
73.928284
 51
90.230461
  0
ARC
  8
0
  6
CONTINUOUS
 10
502.558594
 20
27.584686
 40
5.000000
 50
90.000000
 51
106.071800
  0
ARC
  8
0
  6
CONTINUOUS
 10
416.609985
 20
46.636028
 40
5.000000
 50
0.000000
 51
32.499691
  0
ARC
  8
0
  6
CONTINUOUS
 10
521.609985
 20
46.636028
 40
5.000000
 50
147.498306
 51
180.000000
  0
LINE
  8
0
  6
CONTINUOUS
 10
503.109985
 20
31.084686
 11
501.109985
 21
31.084686
  0
LINE
  8
0
  6
CONTINUOUS
 10
435.109985
 20
31.084686
 11
437.109985
 21
31.084686
  0
ARC
  8
0
  6
CONTINUOUS
 10
503.109985
 20
35.084686
 40
4.000000
 50
270.000000
 51
322.311005
  0
ARC
  8
0
  6
CONTINUOUS
 10
435.109985
 20
35.084686
 40
4.000000
 50
218.645996
 51
270.000000
  0
LINE
  8
0
  6
CONTINUOUS
 10
259.044525
 20
107.584709
 11
259.044525
 21
113.584709
  0
LINE
  8
0
  6
CONTINUOUS
 10
265.044525
 20
107.584724
 11
265.044525
 21
113.584724
  0
LINE
  8
0
  6
CONTINUOUS
 10
265.044525
 20
107.584724
 11
259.044525
 21
107.584709
  0
LINE
  8
0
  6
CONTINUOUS
 10
265.044525
 20
113.584724
 11
259.044525
 21
113.584709
  0
ARC
  8
0
  6
CONTINUOUS
 10
251.544525
 20
110.584686
 40
11.000000
 50
15.826600
 51
344.173401
  0
LINE
  8
0
  6
CONTINUOUS
 10
379.109985
 20
99.584686
 11
379.109985
 21
121.584686
  0
LINE
  8
0
  6
CONTINUOUS
 10
419.109985
 20
121.584686
 11
379.109985
 21
121.584686
  0
LINE
  8
0
  6
CONTINUOUS
 10
419.109985
 20
99.584686
 11
379.109985
 21
99.584686
  0
LINE
  8
0
  6
CONTINUOUS
 10
419.109985
 20
123.084686
 11
419.109985
 21
98.084686
  0
LINE
  8
0
  6
CONTINUOUS
 10
421.109985
 20
123.084686
 11
419.109985
 21
123.084686
  0
LINE
  8
0
  6
CONTINUOUS
 10
421.109985
 20
98.084686
 11
419.109985
 21
98.084686
  0
ARC
  8
0
  6
CONTINUOUS
 10
411.109985
 20
110.584686
 40
3.000000
 50
-90.000000
 51
90.000000
  0
LINE
  8
0
  6
CONTINUOUS
 10
411.109985
 20
113.584686
 11
379.109985
 21
113.584686
  0
LINE
  8
0
  6
CONTINUOUS
 10
411.109985
 20
107.584686
 11
379.109985
 21
107.584686
  0
LINE
  8
0
  6
CENTER
 10
-11.780469
 20
69.084686
 11
219.544525
 21
69.084686
  0
LINE
  8
0
  6
CONTINUOUS
 10
176.381775
 20
108.536949
 11
134.794525
 21
107.084686
  0
LINE
  8
0
  6
CONTINUOUS
 10
186.794525
 20
29.268808
 11
134.794525
 21
31.084686
  0
LINE
  8
0
  6
CONTINUOUS
 10
178.794525
 20
136.584686
 11
178.794525
 21
109.584686
  0
LINE
  8
0
  6
CONTINUOUS
 10
179.794525
 20
137.584686
 11
186.794556
 21
137.584686
  0
LINE
  8
0
  6
CONTINUOUS
 10
181.294525
 20
22.584686
 11
186.794525
 21
22.584686
  0
LINE
  8
0
  6
CONTINUOUS
 10
178.794525
 20
110.084686
 11
178.794525
 21
39.172031
  0
LINE
  8
0
  6
CONTINUOUS
 10
134.794525
 20
107.084686
 11
134.794525
 21
31.084686
  0
LINE
  8
0
  6
CONTINUOUS
 10
177.381409
 20
120.402489
 11
151.437973
 21
107.878082
  0
LINE
  8
0
  6
CENTER
 10
251.544525
 20
368.522491
 11
251.544525
 21
198.338440
  0
LINE
  8
0
  6
CENTER
 10
-11.152110
 20
298.562408
 11
320.884003
 21
298.562408
  0
LINE
  8
0
  6
CONTINUOUS
 10
200.326508
 20
330.562408
 11
299.072479
 21
330.562408
  0
LINE
  8
0
  6
CONTINUOUS
 10
200.326508
 20
266.562408
 11
299.072479
 21
266.562408
  0
LINE
  8
0
  6
CONTINUOUS
 10
294.482635
 20
356.562408
 11
251.544525
 21
356.562408
  0
LINE
  8
0
  6
CONTINUOUS
 10
208.606430
 20
240.562393
 11
240.544525
 21
240.562393
  0
LINE
  8
0
  6
CONTINUOUS
 10
304.544525
 20
298.562408
 11
303.985962
 21
330.562408
  0
LINE
  8
0
  6
CONTINUOUS
 10
299.376587
 20
352.586639
 11
303.985962
 21
330.562408
  0
ARC
  8
0
  6
CONTINUOUS
 10
294.482635
 20
351.562408
 40
5.000000
 50
11.820596
 51
90.000000
  0
LINE
  8
0
  6
CONTINUOUS
 10
304.544525
 20
298.562408
 11
303.985962
 21
266.562408
  0
LINE
  8
0
  6
CONTINUOUS
 10
299.376587
 20
244.538162
 11
303.985962
 21
266.562408
  0
ARC
  8
0
  6
CONTINUOUS
 10
294.482635
 20
245.562393
 40
5.000000
 50
-90.000000
 51
-11.820596
  0
LINE
  8
0
  6
CONTINUOUS
 10
271.544525
 20
268.562408
 11
271.544525
 21
328.562408
  0
LINE
  8
0
  6
CONTINUOUS
 10
231.544525
 20
268.562408
 11
231.544525
 21
328.562408
  0
ARC
  8
0
  6
CONTINUOUS
 10
299.072479
 20
325.562408
 40
5.000000
 50
1.000000
 51
90.000000
  0
ARC
  8
0
  6
CONTINUOUS
 10
299.072479
 20
271.562408
 40
5.000000
 50
270.000000
 51
359.000000
  0
LINE
  8
0
  6
CONTINUOUS
 10
194.871033
 20
244.233871
 11
195.328217
 21
261.693268
  0
LINE
  8
0
  6
CONTINUOUS
 10
186.794525
 20
356.062408
 11
186.794525
 21
241.062393
  0
LINE
  8
0
  6
CONTINUOUS
 10
205.359528
 20
316.562408
 11
205.359528
 21
280.562408
  0
LINE
  8
0
  6
CONTINUOUS
 10
186.794525
 20
355.812408
 11
191.872055
 21
355.812408
  0
LINE
  8
0
  6
CONTINUOUS
 10
191.872055
 20
241.312393
 11
186.794525
 21
241.312393
  0
ARC
  8
0
  6
CONTINUOUS
 10
200.326508
 20
261.562408
 40
5.000000
 50
90.000000
 51
178.500000
  0
ARC
  8
0
  6
CONTINUOUS
 10
191.872055
 20
244.312393
 40
3.000000
 50
270.000000
 51
358.500000
  0
LINE
  8
0
  6
CONTINUOUS
 10
194.871033
 20
352.890930
 11
195.328217
 21
335.431519
  0
ARC
  8
0
  6
CONTINUOUS
 10
200.326508
 20
335.562408
 40
5.000000
 50
-178.500000
 51
-90.000000
  0
ARC
  8
0
  6
CONTINUOUS
 10
191.872055
 20
352.812408
 40
3.000000
 50
-358.500000
 51
-270.000000
  0
LINE
  8
0
  6
CONTINUOUS
 10
203.712463
 20
352.586639
 11
199.133331
 21
330.706848
  0
ARC
  8
0
  6
CONTINUOUS
 10
208.606430
 20
351.562408
 40
5.000000
 50
90.000000
 51
168.179398
  0
LINE
  8
0
  6
CONTINUOUS
 10
203.712463
 20
244.538162
 11
199.133331
 21
266.417938
  0
ARC
  8
0
  6
CONTINUOUS
 10
208.606430
 20
245.562393
 40
5.000000
 50
-168.179398
 51
-90.000000
  0
LINE
  8
0
  6
CENTER
 10
276.094940
 20
253.562393
 11
296.949097
 21
253.562393
  0
LINE
  8
0
  6
CENTER
 10
286.544525
 20
261.119690
 11
286.544525
 21
244.348846
  0
CIRCLE
  8
0
  6
CONTINUOUS
 10
286.544525
 20
253.562393
 40
5.500000
  0
LINE
  8
0
  6
CENTER
 10
226.994141
 20
253.562393
 11
206.139969
 21
253.562393
  0
LINE
  8
0
  6
CENTER
 10
216.544525
 20
261.119690
 11
216.544525
 21
244.348846
  0
CIRCLE
  8
0
  6
CONTINUOUS
 10
216.544525
 20
253.562393
 40
5.500000
  0
LINE
  8
0
  6
CENTER
 10
276.094940
 20
343.562408
 11
296.949097
 21
343.562408
  0
LINE
  8
0
  6
CENTER
 10
286.544525
 20
336.005096
 11
286.544525
 21
352.775940
  0
CIRCLE
  8
0
  6
CONTINUOUS
 10
286.544525
 20
343.562408
 40
5.500000
  0
LINE
  8
0
  6
CENTER
 10
226.994141
 20
343.562408
 11
206.139969
 21
343.562408
  0
LINE
  8
0
  6
CENTER
 10
216.544525
 20
336.005096
 11
216.544525
 21
352.775940
  0
CIRCLE
  8
0
  6
CONTINUOUS
 10
216.544525
 20
343.562408
 40
5.500000
  0
LINE
  8
0
  6
CONTINUOUS
 10
226.351685
 20
250.562393
 11
276.737366
 21
250.562393
  0
LINE
  8
0
  6
CONTINUOUS
 10
281.700775
 20
260.562408
 11
284.987610
 21
260.562408
  0
ARC
  8
0
  6
CONTINUOUS
 10
276.737366
 20
253.562393
 40
3.000000
 50
270.000000
 51
345.124329
  0
LINE
  8
0
  6
CONTINUOUS
 10
287.887085
 20
262.792236
 11
288.296234
 21
264.332550
  0
ARC
  8
0
  6
CONTINUOUS
 10
284.987610
 20
263.562408
 40
3.000000
 50
270.000000
 51
345.124329
  0
ARC
  8
0
  6
CONTINUOUS
 10
291.195679
 20
263.562408
 40
3.000000
 50
90.000000
 51
165.124313
  0
LINE
  8
0
  6
CONTINUOUS
 10
281.700775
 20
260.562408
 11
279.636841
 21
252.792221
  0
LINE
  8
0
  6
CONTINUOUS
 10
215.201981
 20
262.792236
 11
214.792831
 21
264.332550
  0
ARC
  8
0
  6
CONTINUOUS
 10
218.101440
 20
263.562408
 40
3.000000
 50
-165.124313
 51
-90.000000
  0
ARC
  8
0
  6
CONTINUOUS
 10
211.893372
 20
263.562408
 40
3.000000
 50
14.875682
 51
90.000000
  0
LINE
  8
0
  6
CONTINUOUS
 10
221.388275
 20
260.562408
 11
218.101440
 21
260.562408
  0
ARC
  8
0
  6
CONTINUOUS
 10
226.351685
 20
253.562393
 40
3.000000
 50
-165.124313
 51
-90.000000
  0
LINE
  8
0
  6
CONTINUOUS
 10
221.388275
 20
260.562408
 11
223.452225
 21
252.792221
  0
CIRCLE
  8
0
  6
CONTINUOUS
 10
286.544525
 20
343.562408
 40
5.500000
  0
LINE
  8
0
  6
CONTINUOUS
 10
226.351685
 20
346.562408
 11
276.737366
 21
346.562408
  0
LINE
  8
0
  6
CONTINUOUS
 10
281.700775
 20
336.562408
 11
284.987610
 21
336.562408
  0
ARC
  8
0
  6
CONTINUOUS
 10
276.737366
 20
343.562408
 40
3.000000
 50
-345.124329
 51
-270.000000
  0
LINE
  8
0
  6
CONTINUOUS
 10
287.887085
 20
334.332550
 11
288.296234
 21
332.792236
  0
ARC
  8
0
  6
CONTINUOUS
 10
284.987610
 20
333.562408
 40
3.000000
 50
-345.124329
 51
-270.000000
  0
ARC
  8
0
  6
CONTINUOUS
 10
291.195679
 20
333.562408
 40
3.000000
 50
-165.124313
 51
-90.000000
  0
LINE
  8
0
  6
CONTINUOUS
 10
281.700775
 20
336.562408
 11
279.636841
 21
344.332550
  0
LINE
  8
0
  6
CONTINUOUS
 10
215.201981
 20
334.332550
 11
214.792831
 21
332.792236
  0
ARC
  8
0
  6
CONTINUOUS
 10
218.101440
 20
333.562408
 40
3.000000
 50
90.000000
 51
165.124313
  0
ARC
  8
0
  6
CONTINUOUS
 10
211.893372
 20
333.562408
 40
3.000000
 50
-90.000000
 51
-14.875682
  0
LINE
  8
0
  6
CONTINUOUS
 10
221.388275
 20
336.562408
 11
218.101440
 21
336.562408
  0
ARC
  8
0
  6
CONTINUOUS
 10
226.351685
 20
343.562408
 40
3.000000
 50
90.000000
 51
165.124313
  0
LINE
  8
0
  6
CONTINUOUS
 10
221.388275
 20
336.562408
 11
223.452225
 21
344.332550
  0
LINE
  8
0
  6
CONTINUOUS
 10
240.544525
 20
208.562393
 11
265.044525
 21
208.562393
  0
LINE
  8
0
  6
CONTINUOUS
 10
262.544525
 20
248.562393
 11
262.544525
 21
243.562393
  0
LINE
  8
0
  6
CONTINUOUS
 10
240.544525
 20
248.562393
 11
240.544525
 21
208.562393
  0
LINE
  8
0
  6
CONTINUOUS
 10
264.044525
 20
250.562393
 11
264.044525
 21
248.562393
  0
LINE
  8
0
  6
CONTINUOUS
 10
239.044525
 20
250.562393
 11
239.044525
 21
248.562393
  0
LINE
  8
0
  6
CONTINUOUS
 10
239.044525
 20
248.562393
 11
264.044525
 21
248.562393
  0
LINE
  8
0
  6
CONTINUOUS
 10
265.044525
 20
240.562393
 11
294.482635
 21
240.562393
  0
LINE
  8
0
  6
CONTINUOUS
 10
265.044525
 20
243.562393
 11
265.044525
 21
208.562393
  0
LINE
  8
0
  6
CONTINUOUS
 10
262.127533
 20
208.562393
 11
262.127533
 21
243.562393
  0
LINE
  8
0
  6
CONTINUOUS
 10
262.127533
 20
243.562393
 11
265.044525
 21
243.562393
  0
LINE
  8
0
  6
CONTINUOUS
 10
251.544525
 20
356.562408
 11
208.428268
 21
356.562408
  0
LINE
  8
0
  6
CONTINUOUS
 10
186.794525
 20
346.062408
 11
192.127380
 21
346.062408
  0
ARC
  8
0
  6
CONTINUOUS
 10
192.127380
 20
343.062408
 40
3.000000
 50
1.500000
 51
90.000000
  0
LINE
  8
0
  6
CONTINUOUS
 10
195.085007
 20
330.562408
 11
186.794525
 21
330.562408
  0
LINE
  8
0
  6
CONTINUOUS
 10
195.085007
 20
266.562408
 11
186.794525
 21
266.562408
  0
LINE
  8
0
  6
CONTINUOUS
 10
186.794525
 20
251.062393
 11
192.127380
 21
251.062393
  0
ARC
  8
0
  6
CONTINUOUS
 10
192.127380
 20
254.062393
 40
3.000000
 50
-90.000000
 51
-1.500000
  0
LINE
  8
0
  6
CONTINUOUS
 10
445.109985
 20
6.584687
 11
493.109985
 21
6.584687
  0
LINE
  8
0
  6
CONTINUOUS
 10
494.109985
 20
5.584687
 11
493.109985
 21
6.584687
  0
LINE
  8
0
  6
CONTINUOUS
 10
444.109985
 20
5.584687
 11
445.109985
 21
6.584687
  0
LINE
  8
0
  6
CONTINUOUS
 10
494.109985
 20
5.584687
 11
527.109985
 21
5.584687
  0
LINE
  8
0
  6
CONTINUOUS
 10
181.294525
 20
241.062393
 11
186.794525
 21
241.062393
  0
LINE
  8
0
  6
CONTINUOUS
 10
181.294525
 20
356.062408
 11
186.794525
 21
356.062408
  0
LINE
  8
0
  6
CONTINUOUS
 10
178.794525
 20
243.562393
 11
178.794525
 21
353.562408
  0
LINE
  8
0
  6
CONTINUOUS
 10
134.794525
 20
336.562408
 11
134.794525
 21
260.562408
  0
LINE
  8
0
  6
CONTINUOUS
 10
176.381775
 20
338.014648
 11
134.794525
 21
336.562408
  0
LINE
  8
0
  6
CONTINUOUS
 10
176.381775
 20
259.110138
 11
134.794525
 21
260.562408
  0
ARC
  8
0
  6
CONTINUOUS
 10
181.294525
 20
353.562408
 40
2.500000
 50
90.000000
 51
180.000000
  0
ARC
  8
0
  6
CONTINUOUS
 10
181.294525
 20
243.562393
 40
2.500000
 50
180.000000
 51
270.000000
  0
ARC
  8
0
  6
CONTINUOUS
 10
179.794525
 20
136.584686
 40
1.000000
 50
90.000000
 51
180.000000
  0
ARC
  8
0
  6
CONTINUOUS
 10
176.294525
 20
122.653870
 40
2.500000
 50
-64.230675
 51
0.000000
  0
ARC
  8
0
  6
CONTINUOUS
 10
176.294525
 20
111.035423
 40
2.500000
 50
-88.000000
 51
0.000000
  0
ARC
  8
0
  6
CONTINUOUS
 10
150.351105
 20
110.129456
 40
2.500000
 50
272.000000
 51
295.769318
  0
LINE
  8
0
  6
CONTINUOUS
 10
134.794525
 20
336.562408
 11
134.794525
 21
260.562408
  0
LINE
  8
0
  6
CONTINUOUS
 10
20.794653
 20
260.562408
 11
20.794653
 21
273.562378
  0
LINE
  8
0
  6
CONTINUOUS
 10
20.794653
 20
336.562378
 11
134.794647
 21
336.562378
  0
LINE
  8
0
  6
CONTINUOUS
 10
20.794653
 20
260.562408
 11
134.794647
 21
260.562408
  0
LINE
  8
0
  6
CONTINUOUS
 10
126.794655
 20
334.562378
 11
126.794655
 21
321.562408
  0
ARC
  8
0
  6
CONTINUOUS
 10
128.794647
 20
334.562408
 40
2.000000
 50
90.000000
 51
180.000000
  0
ARC
  8
0
  6
CONTINUOUS
 10
128.794647
 20
262.562408
 40
2.000000
 50
180.000000
 51
270.000000
  0
LINE
  8
0
  6
CONTINUOUS
 10
0.294653
 20
266.562408
 11
0.294653
 21
330.562408
  0
LINE
  8
0
  6
CONTINUOUS
 10
4.258733
 20
336.562408
 11
20.794653
 21
336.562408
  0
LINE
  8
0
  6
CONTINUOUS
 10
4.258753
 20
260.562408
 11
20.794653
 21
260.562408
  0
LINE
  8
0
  6
CONTINUOUS
 10
0.794653
 20
263.562408
 11
0.794653
 21
333.562408
  0
LINE
  8
0
  6
CONTINUOUS
 10
0.294653
 20
330.562408
 11
0.794653
 21
331.062408
  0
LINE
  8
0
  6
CONTINUOUS
 10
0.294653
 20
266.562408
 11
0.794653
 21
266.062408
  0
LINE
  8
0
  6
CONTINUOUS
 10
1.660673
 20
335.062378
 11
0.794653
 21
333.562408
  0
ARC
  8
0
  6
CONTINUOUS
 10
4.258753
 20
333.562408
 40
3.000000
 50
90.000000
 51
150.000397
  0
LINE
  8
0
  6
CONTINUOUS
 10
1.660673
 20
262.062408
 11
0.794653
 21
263.562408
  0
ARC
  8
0
  6
CONTINUOUS
 10
4.258753
 20
263.562408
 40
3.000000
 50
-150.000397
 51
-90.000000
  0
LINE
  8
0
  6
CONTINUOUS
 10
61.794643
 20
321.562408
 11
126.794655
 21
321.562408
  0
LINE
  8
0
  6
CONTINUOUS
 10
11.794653
 20
321.562408
 11
2.376283
 21
321.562408
  0
LINE
  8
0
  6
CONTINUOUS
 10
61.794647
 20
275.562408
 11
126.794655
 21
275.562408
  0
LINE
  8
0
  6
CONTINUOUS
 10
11.794653
 20
275.562408
 11
2.376283
 21
275.562408
  0
LINE
  8
0
  6
CONTINUOUS
 10
126.794655
 20
275.562408
 11
126.794655
 21
262.562408
  0
LINE
  8
0
  6
CONTINUOUS
 10
20.794653
 20
323.562378
 11
20.794653
 21
336.562408
  0
ARC
  8
0
  6
CONTINUOUS
 10
165.964157
 20
298.562408
 40
15.000000
 50
130.747620
 51
229.252380
  0
LINE
  8
0
  6
CONTINUOUS
 10
177.926346
 20
328.668396
 11
156.173233
 21
309.926270
  0
LINE
  8
0
  6
CONTINUOUS
 10
177.926346
 20
268.456390
 11
156.173233
 21
287.198517
  0
ARC
  8
0
  6
CONTINUOUS
 10
176.294525
 20
330.562378
 40
2.500000
 50
-49.252373
 51
0.000000
  0
ARC
  8
0
  6
CONTINUOUS
 10
176.294525
 20
340.513123
 40
2.500000
 50
-88.000000
 51
0.000000
  0
ARC
  8
0
  6
CONTINUOUS
 10
176.294525
 20
266.562439
 40
2.500000
 50
0.000000
 51
49.252373
  0
ARC
  8
0
  6
CONTINUOUS
 10
176.294525
 20
256.611664
 40
2.500000
 50
0.000000
 51
88.000000
  0
LINE
  8
0
  6
CONTINUOUS
 10
179.919601
 20
36.930687
 11
186.794525
 21
36.930687
  0
LINE
  8
0
  6
CONTINUOUS
 10
178.794525
 20
25.084686
 11
178.794525
 21
27.133951
  0
ARC
  8
0
  6
CONTINUOUS
 10
181.294525
 20
25.084686
 40
2.500000
 50
180.000000
 51
270.000000
  0
ARC
  8
0
  6
CONTINUOUS
 10
176.294525
 20
27.133951
 40
2.500000
 50
0.000000
 51
88.000000
  0
ARC
  8
0
  6
CONTINUOUS
 10
469.109985
 20
80.084686
 40
57.500000
 50
236.002823
 51
236.184402
  0
ARC
  8
0
  6
CONTINUOUS
 10
469.109985
 20
80.084686
 40
57.500000
 50
303.815582
 51
303.997162
  0
ARC
  8
0
  6
CONTINUOUS
 10
469.109985
 20
80.084686
 40
57.500000
 50
-33.997124
 51
33.406792
  0
ARC
  8
0
  6
CONTINUOUS
 10
469.109985
 20
80.084686
 40
57.500000
 50
160.176102
 51
213.997131
  0
LINE
  8
0
  6
CONTINUOUS
 10
11.794653
 20
275.562378
 11
11.794653
 21
321.562378
  0
LINE
  8
0
  6
CONTINUOUS
 10
13.794653
 20
323.562378
 11
11.794653
 21
321.562378
  0
LINE
  8
0
  6
CONTINUOUS
 10
13.794653
 20
323.562378
 11
59.794643
 21
323.562378
  0
LINE
  8
0
  6
CONTINUOUS
 10
54.294655
 20
319.062378
 11
54.294655
 21
323.562378
  0
ARC
  8
0
  6
CONTINUOUS
 10
57.294655
 20
319.062378
 40
3.000000
 50
180.000000
 51
270.000000
  0
LINE
  8
0
  6
CONTINUOUS
 10
57.294655
 20
316.062378
 11
61.794643
 21
316.062378
  0
CIRCLE
  8
0
  6
CONTINUOUS
 10
58.294655
 20
320.062378
 40
2.250000
  0
LINE
  8
0
  6
CONTINUOUS
 10
61.794647
 20
275.562378
 11
61.794643
 21
321.562378
  0
LINE
  8
0
  6
CONTINUOUS
 10
59.794643
 20
323.562378
 11
61.794643
 21
321.562378
  0
LINE
  8
0
  6
CONTINUOUS
 10
59.794647
 20
273.562378
 11
61.794647
 21
275.562378
  0
LINE
  8
0
  6
CONTINUOUS
 10
59.794647
 20
273.562378
 11
13.794653
 21
273.562378
  0
LINE
  8
0
  6
CONTINUOUS
 10
11.794653
 20
275.562378
 11
13.794653
 21
273.562378
  0
LINE
  8
0
  6
CONTINUOUS
 10
16.294653
 20
281.062378
 11
11.794663
 21
281.062378
  0
CIRCLE
  8
0
  6
CONTINUOUS
 10
15.294653
 20
277.062378
 40
2.250000
  0
ARC
  8
0
  6
CONTINUOUS
 10
16.294653
 20
278.062378
 40
3.000000
 50
0.000000
 51
90.000000
  0
LINE
  8
0
  6
CONTINUOUS
 10
19.294653
 20
278.062378
 11
19.294653
 21
273.562378
  0
LINE
  8
0
  6
CENTER
 10
36.794655
 20
266.096588
 11
36.794655
 21
330.228638
  0
LINE
  8
0
  6
CONTINUOUS
 10
12.794659
 20
281.062378
 11
12.794659
 21
316.062378
  0
LINE
  8
0
  6
CONTINUOUS
 10
54.294655
 20
322.562378
 11
19.294653
 21
322.562378
  0
LINE
  8
0
  6
CONTINUOUS
 10
60.794647
 20
316.062378
 11
60.794647
 21
281.062378
  0
LINE
  8
0
  6
CONTINUOUS
 10
19.294653
 20
274.562378
 11
54.294655
 21
274.562378
  0
LINE
  8
0
  6
CONTINUOUS
 10
16.294653
 20
316.062378
 11
11.794653
 21
316.062378
  0
ARC
  8
0
  6
CONTINUOUS
 10
16.294653
 20
319.062378
 40
3.000000
 50
-90.000000
 51
0.000000
  0
LINE
  8
0
  6
CONTINUOUS
 10
19.294653
 20
319.062378
 11
19.294653
 21
323.562378
  0
CIRCLE
  8
0
  6
CONTINUOUS
 10
15.294653
 20
320.062378
 40
2.250000
  0
ARC
  8
0
  6
CONTINUOUS
 10
57.294655
 20
278.062378
 40
3.000000
 50
90.000000
 51
180.000000
  0
LINE
  8
0
  6
CONTINUOUS
 10
54.294655
 20
278.062378
 11
54.294655
 21
273.562378
  0
LINE
  8
0
  6
CONTINUOUS
 10
57.294655
 20
281.062378
 11
61.794655
 21
281.062378
  0
CIRCLE
  8
0
  6
CONTINUOUS
 10
58.294655
 20
277.062378
 40
2.250000
  0
LINE
  8
0
  6
CONTINUOUS
 10
13.294531
 20
108.584686
 11
59.794533
 21
108.584686
  0
LINE
  8
0
  6
CONTINUOUS
 10
61.794510
 20
152.584686
 11
61.794533
 21
110.584686
  0
LINE
  8
0
  6
CONTINUOUS
 10
11.794531
 20
152.584686
 11
11.794531
 21
110.584686
  0
LINE
  8
0
  6
CONTINUOUS
 10
11.794531
 20
120.584686
 11
61.794533
 21
120.584686
  0
LINE
  8
0
  6
CONTINUOUS
 10
59.794533
 20
108.584686
 11
61.794533
 21
110.584686
  0
LINE
  8
0
  6
CONTINUOUS
 10
11.794531
 20
110.584686
 11
13.794531
 21
108.584686
  0
LINE
  8
0
  6
CONTINUOUS
 10
11.794531
 20
110.584686
 11
61.794533
 21
110.584686
  0
LINE
  8
0
  6
CONTINUOUS
 10
11.794531
 20
121.584686
 11
61.794510
 21
121.584686
  0
LINE
  8
0
  6
CONTINUOUS
 10
12.794531
 20
153.584686
 11
60.794510
 21
153.584686
  0
LINE
  8
0
  6
CONTINUOUS
 10
60.794510
 20
153.584686
 11
61.794510
 21
152.584686
  0
LINE
  8
0
  6
CONTINUOUS
 10
12.794531
 20
153.584686
 11
11.794531
 21
152.584686
  0
LINE
  8
0
  6
CONTINUOUS
 10
11.794531
 20
152.584686
 11
61.794510
 21
152.584686
  0
LINE
  8
0
  6
CENTER
 10
36.794533
 20
102.195175
 11
36.794533
 21
159.887192
  0
LINE
  8
0
  6
CENTER
 10
9.419531
 20
136.584686
 11
14.044531
 21
136.584686
  0
LINE
  8
0
  6
CONTINUOUS
 10
13.294531
 20
108.584686
 11
13.294531
 21
107.084686
  0
LINE
  8
0
  6
CONTINUOUS
 10
59.294533
 20
108.584686
 11
59.294533
 21
107.084686
  0
LINE
  8
0
  6
CONTINUOUS
 10
10.919531
 20
147.084686
 11
12.919531
 21
147.084686
  0
LINE
  8
0
  6
CONTINUOUS
 10
10.919531
 20
126.084686
 11
12.919531
 21
126.084686
  0
LINE
  8
0
  6
CONTINUOUS
 10
134.794525
 20
59.684689
 11
178.794525
 21
59.684689
  0
LINE
  8
0
  6
CONTINUOUS
 10
134.794525
 20
49.484688
 11
178.794525
 21
49.484688
  0
TEXT
  8
0
 10
-11.000000
 20
-10.000000
 40
4.000000
 41
1.000000
  1
HLM-22R-300~1800-T15WK
 50
0.000000
  0
ENDSEC
  0
EOF
