  0
SECTION
  2
HEADER
  9
$CLAYER
  8
1
  9
$LTSCALE
 40
3.0
  0
ENDSEC
  0
SECTION
  2
TABLES
  0
TABLE
  2
LTYPE
 70
     4
  0
LTYPE
  2
CONTINUOUS
  3
solid line
 70
    64
 72
    65
 73
     0
 40
0.0
  0
LTYPE
  2
DASHED
  3
__ __ __ __ __ __ __ __ __ __ __ __ __ __ __
 70
    64
 72
    65
 73
     2
 40
0.75
 49
0.5
 49
-0.25
  0
LTYPE
  2
CENTER
  3
____ _ ____ _ ____ _ ____ _ ____ _ ____ _ ____
 70
    64
 72
    65
 73
     4
 40
2.0
 49
1.25
 49
-0.25
 49
0.25
 49
-0.25
  0
LTYPE
  2
PHANTOM
  3
_____ _ _ _____ _ _ _____ _ _ _____ _ _ ____
 70
    64
 72
    65
 73
     6
 40
2.5
 49
1.25
 49
-0.25
 49
0.25
 49
-0.25
 49
0.25
 49
-0.25
  0
ENDTAB
  0
TABLE
  2
LAYER
 70
     1
  0
LAYER
  2
0
 70
    64
 62
     7
  6
CONTINUOUS
  0
ENDTAB
  0
TABLE
  2
STYLE
 70
     1
  0
STYLE
  2
STANDARD
 70
     0
 40
0.000000
 41
1.000000
 50
0.000000
 71
     0
 42
3.000000
  3
txt
  4
BIGFONT
  0
ENDTAB
  0
ENDSEC
  0
SECTION
  2
BLOCKS
  0
ENDSEC
  0
SECTION
  2
ENTITIES
  0
LINE
  8
0
  6
CENTER
 10
106.907501
 20
77.214691
 11
219.544525
 21
77.214691
  0
LINE
  8
0
  6
CENTER
 10
251.544525
 20
159.964691
 11
251.544525
 21
-3.535313
  0
LINE
  8
0
  6
CENTER
 10
204.974136
 20
107.714691
 11
296.282501
 21
107.714691
  0
LINE
  8
0
  6
CONTINUOUS
 10
198.544525
 20
2.714687
 11
304.544525
 21
2.714687
  0
LINE
  8
0
  6
CONTINUOUS
 10
233.115128
 20
152.714691
 11
269.973938
 21
152.714691
  0
LINE
  8
0
  6
CONTINUOUS
 10
304.544525
 20
127.104927
 11
304.544525
 21
2.714708
  0
LINE
  8
0
  6
CONTINUOUS
 10
198.544525
 20
27.714687
 11
198.544525
 21
2.714687
  0
LINE
  8
0
  6
CONTINUOUS
 10
186.794525
 20
134.464691
 11
204.417526
 21
134.464691
  0
LINE
  8
0
  6
CONTINUOUS
 10
186.794525
 20
19.964687
 11
193.544556
 21
19.964687
  0
LINE
  8
0
  6
CONTINUOUS
 10
194.794525
 20
31.714687
 11
194.794525
 21
122.714691
  0
LINE
  8
0
  6
CONTINUOUS
 10
302.403534
 20
131.206924
 11
272.832916
 21
151.816666
  0
LINE
  8
0
  6
CONTINUOUS
 10
200.685532
 20
131.206924
 11
230.256134
 21
151.816666
  0
LINE
  8
0
  6
CONTINUOUS
 10
232.482925
 20
14.714687
 11
198.544525
 21
14.714687
  0
LINE
  8
0
  6
CONTINUOUS
 10
238.106125
 20
24.714687
 11
264.982941
 21
24.714687
  0
LINE
  8
0
  6
CONTINUOUS
 10
266.544525
 20
23.277187
 11
266.544525
 21
15.714687
  0
LINE
  8
0
  6
CONTINUOUS
 10
236.544525
 20
23.089687
 11
236.544525
 21
15.714687
  0
LINE
  8
0
  6
CONTINUOUS
 10
234.423325
 20
16.229607
 11
236.165726
 21
23.199768
  0
LINE
  8
0
  6
CONTINUOUS
 10
268.665741
 20
16.229607
 11
266.923340
 21
23.199747
  0
LINE
  8
0
  6
CONTINUOUS
 10
204.544525
 20
13.652187
 11
204.544525
 21
2.714687
  0
LINE
  8
0
  6
CONTINUOUS
 10
298.544525
 20
13.652187
 11
298.544525
 21
2.714687
  0
LINE
  8
0
  6
CENTER
 10
216.544525
 20
18.464687
 11
216.544525
 21
-1.535313
  0
LINE
  8
0
  6
CENTER
 10
286.544525
 20
19.464687
 11
286.544525
 21
-1.035313
  0
LINE
  8
0
  6
DASHED
 10
211.044525
 20
14.714687
 11
211.044525
 21
2.714687
  0
LINE
  8
0
  6
DASHED
 10
222.044525
 20
14.714687
 11
222.044525
 21
2.714687
  0
LINE
  8
0
  6
DASHED
 10
281.044525
 20
14.714687
 11
281.044525
 21
2.714687
  0
LINE
  8
0
  6
DASHED
 10
292.044525
 20
14.714687
 11
292.044525
 21
2.714687
  0
ARC
  8
0
  6
CONTINUOUS
 10
269.973938
 20
147.714691
 40
5.000000
 50
55.124809
 51
90.000000
  0
ARC
  8
0
  6
CONTINUOUS
 10
233.115128
 20
147.714691
 40
5.000000
 50
90.000000
 51
124.875603
  0
ARC
  8
0
  6
CONTINUOUS
 10
299.544525
 20
127.104927
 40
5.000000
 50
0.000000
 51
55.124851
  0
ARC
  8
0
  6
CONTINUOUS
 10
203.544525
 20
127.104950
 40
5.000000
 50
124.875702
 51
180.000000
  0
LINE
  8
0
  6
CONTINUOUS
 10
186.794525
 20
124.714691
 11
196.544525
 21
124.714691
  0
LINE
  8
0
  6
CONTINUOUS
 10
192.794525
 20
29.714687
 11
186.794525
 21
29.714687
  0
LINE
  8
0
  6
CONTINUOUS
 10
186.794525
 20
109.174690
 11
193.669525
 21
109.174690
  0
LINE
  8
0
  6
CONTINUOUS
 10
186.794525
 20
45.254688
 11
193.794525
 21
45.254688
  0
ARC
  8
0
  6
CONTINUOUS
 10
204.417328
 20
137.464691
 40
3.000000
 50
270.000000
 51
304.875397
  0
ARC
  8
0
  6
CONTINUOUS
 10
192.794556
 20
122.714691
 40
2.000000
 50
0.000000
 51
90.000000
  0
ARC
  8
0
  6
CONTINUOUS
 10
196.544525
 20
126.714691
 40
2.000000
 50
-90.000000
 51
0.000000
  0
LINE
  8
0
  6
CONTINUOUS
 10
198.544556
 20
127.104950
 11
198.544525
 21
126.714691
  0
ARC
  8
0
  6
CONTINUOUS
 10
196.544525
 20
27.714687
 40
2.000000
 50
0.000000
 51
90.000000
  0
LINE
  8
0
  6
CONTINUOUS
 10
192.794525
 20
29.714687
 11
196.544525
 21
29.714687
  0
ARC
  8
0
  6
CONTINUOUS
 10
192.794525
 20
31.714687
 40
2.000000
 50
-90.000000
 51
0.000000
  0
ARC
  8
0
  6
CONTINUOUS
 10
193.544556
 20
14.964667
 40
5.000000
 50
0.000000
 51
90.000000
  0
ARC
  8
0
  6
CONTINUOUS
 10
264.982941
 20
22.714687
 40
2.000000
 50
14.036440
 51
90.000000
  0
ARC
  8
0
  6
CONTINUOUS
 10
238.106125
 20
22.714687
 40
2.000000
 50
90.000000
 51
165.963898
  0
LINE
  8
0
  6
CONTINUOUS
 10
270.606140
 20
14.714687
 11
304.544525
 21
14.714687
  0
ARC
  8
0
  6
CONTINUOUS
 10
232.482925
 20
16.714687
 40
2.000000
 50
270.000000
 51
345.963715
  0
LINE
  8
0
  6
CONTINUOUS
 10
270.606140
 20
14.714687
 11
232.482925
 21
14.714687
  0
ARC
  8
0
  6
CONTINUOUS
 10
270.606140
 20
16.714687
 40
2.000000
 50
194.036194
 51
270.000000
  0
ARC
  8
0
  6
CONTINUOUS
 10
235.544525
 20
15.714687
 40
1.000000
 50
-90.000000
 51
0.000000
  0
ARC
  8
0
  6
CONTINUOUS
 10
267.544525
 20
15.714687
 40
1.000000
 50
180.000000
 51
270.000000
  0
CIRCLE
  8
0
  6
CONTINUOUS
 10
251.544525
 20
107.714691
 40
27.500000
  0
ARC
  8
0
  6
CONTINUOUS
 10
251.544525
 20
107.714691
 40
31.750000
 50
7.552697
 51
172.447403
  0
ARC
  8
0
  6
CONTINUOUS
 10
234.794525
 20
66.214691
 40
20.600000
 50
172.447403
 51
270.000000
  0
ARC
  8
0
  6
CONTINUOUS
 10
268.294525
 20
66.214691
 40
20.600000
 50
-90.000000
 51
7.552700
  0
LINE
  8
0
  6
CONTINUOUS
 10
283.019135
 20
111.887848
 11
288.715729
 21
68.922318
  0
LINE
  8
0
  6
CONTINUOUS
 10
214.373337
 20
68.922279
 11
220.069931
 21
111.887787
  0
LINE
  8
0
  6
CONTINUOUS
 10
234.794525
 20
45.614689
 11
268.294525
 21
45.614689
  0
ARC
  8
0
  6
CONTINUOUS
 10
234.794525
 20
66.214691
 40
19.000000
 50
172.447601
 51
270.000000
  0
ARC
  8
0
  6
CONTINUOUS
 10
268.294525
 20
66.214691
 40
19.000000
 50
-90.000000
 51
7.552700
  0
ARC
  8
0
  6
CONTINUOUS
 10
251.544525
 20
107.714691
 40
30.150000
 50
-187.552597
 51
7.552697
  0
LINE
  8
0
  6
CONTINUOUS
 10
215.959335
 20
68.711975
 11
221.656128
 21
111.677505
  0
LINE
  8
0
  6
CONTINUOUS
 10
281.432922
 20
111.677544
 11
287.129730
 21
68.712013
  0
LINE
  8
0
  6
CONTINUOUS
 10
234.794525
 20
47.214687
 11
268.294525
 21
47.214687
  0
LINE
  8
0
  6
CONTINUOUS
 10
241.248138
 20
54.714687
 11
237.087738
 21
54.714687
  0
LINE
  8
0
  6
CONTINUOUS
 10
243.544525
 20
61.683437
 11
243.544525
 21
54.714687
  0
LINE
  8
0
  6
CONTINUOUS
 10
247.544525
 20
64.214691
 11
247.544525
 21
66.714691
  0
LINE
  8
0
  6
CONTINUOUS
 10
255.544525
 20
64.214691
 11
255.544525
 21
66.714691
  0
LINE
  8
0
  6
CONTINUOUS
 10
250.763336
 20
65.245941
 11
250.763336
 21
56.027187
  0
LINE
  8
0
  6
CONTINUOUS
 10
252.263336
 20
65.245941
 11
252.263336
 21
56.027187
  0
LINE
  8
0
  6
CONTINUOUS
 10
260.138336
 20
65.245941
 11
260.138336
 21
55.964687
  0
LINE
  8
0
  6
CONTINUOUS
 10
261.513336
 20
60.324062
 11
261.513336
 21
55.964687
  0
LINE
  8
0
  6
CONTINUOUS
 10
241.646530
 20
65.120941
 11
237.791534
 21
65.120941
  0
LINE
  8
0
  6
CONTINUOUS
 10
237.791534
 20
65.120941
 11
236.888336
 21
64.000938
  0
LINE
  8
0
  6
CONTINUOUS
 10
236.996933
 20
66.714691
 11
235.544525
 21
64.854927
  0
LINE
  8
0
  6
CONTINUOUS
 10
236.888336
 20
57.087608
 11
237.805923
 21
56.120930
  0
LINE
  8
0
  6
CONTINUOUS
 10
235.544525
 20
56.271847
 11
237.087738
 21
54.714687
  0
LINE
  8
0
  6
CONTINUOUS
 10
235.544525
 20
64.854927
 11
235.544525
 21
56.271847
  0
LINE
  8
0
  6
CONTINUOUS
 10
236.888336
 20
64.000938
 11
236.888336
 21
57.087608
  0
LINE
  8
0
  6
CONTINUOUS
 10
242.388336
 20
64.403831
 11
241.631332
 21
65.120941
  0
LINE
  8
0
  6
CONTINUOUS
 10
242.376328
 20
66.714691
 11
243.544525
 21
65.418198
  0
LINE
  8
0
  6
CONTINUOUS
 10
242.388336
 20
64.214691
 11
243.544525
 21
64.214691
  0
LINE
  8
0
  6
CONTINUOUS
 10
236.996933
 20
66.714691
 11
242.376328
 21
66.714691
  0
LINE
  8
0
  6
CONTINUOUS
 10
240.294525
 20
61.683437
 11
243.544525
 21
61.683437
  0
LINE
  8
0
  6
CONTINUOUS
 10
242.388336
 20
60.370937
 11
240.294525
 21
60.370937
  0
LINE
  8
0
  6
CONTINUOUS
 10
239.888336
 20
56.120930
 11
237.805923
 21
56.120930
  0
LINE
  8
0
  6
CONTINUOUS
 10
242.388336
 20
59.120937
 11
242.388336
 21
60.120937
  0
ARC
  8
0
  6
CONTINUOUS
 10
239.888336
 20
58.620934
 40
2.500000
 50
-89.999786
 51
0.000109
  0
LINE
  8
0
  6
CONTINUOUS
 10
242.388336
 20
55.671246
 11
242.388336
 21
54.714687
  0
LINE
  8
0
  6
CONTINUOUS
 10
243.544525
 20
65.418198
 11
243.544525
 21
64.214691
  0
LINE
  8
0
  6
CONTINUOUS
 10
242.388336
 20
60.370937
 11
242.388336
 21
58.620934
  0
LINE
  8
0
  6
CONTINUOUS
 10
240.294525
 20
61.683437
 11
240.294525
 21
60.370937
  0
LINE
  8
0
  6
CONTINUOUS
 10
242.388336
 20
54.714687
 11
243.544525
 21
54.714687
  0
LINE
  8
0
  6
CONTINUOUS
 10
242.388336
 20
55.671246
 11
241.248138
 21
54.714687
  0
LINE
  8
0
  6
CONTINUOUS
 10
252.263336
 20
56.027187
 11
252.763336
 21
56.027187
  0
LINE
  8
0
  6
CONTINUOUS
 10
250.169525
 20
56.027187
 11
250.169525
 21
54.714687
  0
LINE
  8
0
  6
CONTINUOUS
 10
252.763336
 20
56.027187
 11
252.763336
 21
54.714687
  0
LINE
  8
0
  6
CONTINUOUS
 10
254.710129
 20
64.214691
 11
255.544525
 21
64.214691
  0
LINE
  8
0
  6
CONTINUOUS
 10
247.544525
 20
64.214691
 11
248.432526
 21
64.214691
  0
LINE
  8
0
  6
CONTINUOUS
 10
247.544525
 20
66.714691
 11
255.544525
 21
66.714691
  0
LINE
  8
0
  6
CONTINUOUS
 10
250.169525
 20
54.714687
 11
252.763336
 21
54.714687
  0
LINE
  8
0
  6
CONTINUOUS
 10
250.169525
 20
56.027187
 11
250.763336
 21
56.027187
  0
ARC
  8
0
  6
CONTINUOUS
 10
264.341522
 20
63.511562
 40
3.203126
 50
-73.981873
 51
90.003510
  0
ARC
  8
0
  6
CONTINUOUS
 10
264.341522
 20
63.511562
 40
1.954125
 50
-82.585274
 51
62.411850
  0
LINE
  8
0
  6
CONTINUOUS
 10
259.544525
 20
66.714691
 11
264.341522
 21
66.714691
  0
LINE
  8
0
  6
CONTINUOUS
 10
264.593536
 20
61.573776
 11
261.513336
 21
61.573776
  0
LINE
  8
0
  6
CONTINUOUS
 10
259.544525
 20
66.714691
 11
259.544525
 21
65.245941
  0
LINE
  8
0
  6
CONTINUOUS
 10
261.513336
 20
65.245941
 11
261.513336
 21
61.573776
  0
LINE
  8
0
  6
CONTINUOUS
 10
265.225342
 20
60.432800
 11
267.207733
 21
55.964687
  0
LINE
  8
0
  6
CONTINUOUS
 10
264.073730
 20
60.324062
 11
265.949921
 21
55.964687
  0
LINE
  8
0
  6
CONTINUOUS
 10
259.544525
 20
55.964687
 11
260.138336
 21
55.964687
  0
LINE
  8
0
  6
CONTINUOUS
 10
261.513336
 20
55.964687
 11
262.060120
 21
55.964687
  0
LINE
  8
0
  6
CONTINUOUS
 10
262.060120
 20
54.714687
 11
259.544525
 21
54.714687
  0
LINE
  8
0
  6
CONTINUOUS
 10
265.700745
 20
55.964687
 11
265.949921
 21
55.964687
  0
LINE
  8
0
  6
CONTINUOUS
 10
267.207733
 20
55.964687
 11
267.544525
 21
55.964687
  0
LINE
  8
0
  6
CONTINUOUS
 10
265.700745
 20
54.714687
 11
267.544525
 21
54.714687
  0
LINE
  8
0
  6
CONTINUOUS
 10
267.544525
 20
55.964687
 11
267.544525
 21
54.714687
  0
LINE
  8
0
  6
CONTINUOUS
 10
265.700745
 20
55.964687
 11
265.700745
 21
54.714687
  0
LINE
  8
0
  6
CONTINUOUS
 10
262.060120
 20
55.964687
 11
262.060120
 21
54.714687
  0
LINE
  8
0
  6
CONTINUOUS
 10
259.544525
 20
55.964687
 11
259.544525
 21
54.714687
  0
LINE
  8
0
  6
CONTINUOUS
 10
248.862335
 20
65.245941
 11
248.432526
 21
64.214691
  0
LINE
  8
0
  6
CONTINUOUS
 10
254.347733
 20
65.245941
 11
254.710129
 21
64.214691
  0
LINE
  8
0
  6
CONTINUOUS
 10
252.263336
 20
65.245941
 11
254.347733
 21
65.245941
  0
LINE
  8
0
  6
CONTINUOUS
 10
250.763336
 20
65.245941
 11
248.862335
 21
65.245941
  0
LINE
  8
0
  6
CONTINUOUS
 10
261.513336
 20
60.324062
 11
264.073730
 21
60.324062
  0
LINE
  8
0
  6
CONTINUOUS
 10
259.544525
 20
65.245941
 11
260.138336
 21
65.245941
  0
LINE
  8
0
  6
CONTINUOUS
 10
261.513336
 20
65.245941
 11
265.246338
 21
65.243507
  0
LINE
  8
0
  6
CONTINUOUS
 10
242.388336
 20
64.403831
 11
242.388336
 21
64.214691
  0
LINE
  8
0
  6
CONTINUOUS
 10
186.794556
 20
134.714691
 11
186.794525
 21
19.714687
  0
LINE
  8
0
  6
CONTINUOUS
 10
20.794531
 20
28.214708
 11
20.794531
 21
104.214691
  0
LINE
  8
0
  6
CONTINUOUS
 10
20.794531
 20
104.214668
 11
134.794525
 21
104.214668
  0
LINE
  8
0
  6
CONTINUOUS
 10
20.794531
 20
28.214708
 11
134.794525
 21
28.214708
  0
LINE
  8
0
  6
CONTINUOUS
 10
20.794531
 20
96.463669
 11
126.794533
 21
96.463669
  0
LINE
  8
0
  6
CONTINUOUS
 10
20.794531
 20
35.965710
 11
126.794533
 21
35.965710
  0
LINE
  8
0
  6
CONTINUOUS
 10
126.794533
 20
102.214668
 11
126.794533
 21
30.214687
  0
ARC
  8
0
  6
CONTINUOUS
 10
128.794525
 20
102.214691
 40
2.000000
 50
90.000000
 51
180.000000
  0
ARC
  8
0
  6
CONTINUOUS
 10
128.794525
 20
30.214708
 40
2.000000
 50
180.000000
 51
270.000000
  0
LINE
  8
0
  6
CONTINUOUS
 10
0.294531
 20
34.214687
 11
0.294531
 21
98.214691
  0
LINE
  8
0
  6
CONTINUOUS
 10
4.258611
 20
104.214691
 11
20.794531
 21
104.214691
  0
LINE
  8
0
  6
CONTINUOUS
 10
4.258627
 20
28.214687
 11
20.794531
 21
28.214687
  0
LINE
  8
0
  6
CONTINUOUS
 10
0.794531
 20
31.214687
 11
0.794531
 21
101.214691
  0
LINE
  8
0
  6
CONTINUOUS
 10
0.294531
 20
98.214691
 11
0.794531
 21
98.714691
  0
LINE
  8
0
  6
CONTINUOUS
 10
0.294531
 20
34.214687
 11
0.794531
 21
33.714687
  0
LINE
  8
0
  6
CONTINUOUS
 10
1.660544
 20
102.714668
 11
0.794531
 21
101.214691
  0
ARC
  8
0
  6
CONTINUOUS
 10
4.258627
 20
101.214706
 40
3.000000
 50
90.000000
 51
150.000397
  0
LINE
  8
0
  6
CONTINUOUS
 10
1.660544
 20
29.714708
 11
0.794531
 21
31.214687
  0
ARC
  8
0
  6
CONTINUOUS
 10
4.258627
 20
31.214687
 40
3.000000
 50
-150.000397
 51
-90.000000
  0
LINE
  8
0
  6
CONTINUOUS
 10
2.376165
 20
96.463699
 11
20.794531
 21
96.463699
  0
LINE
  8
0
  6
CONTINUOUS
 10
20.794531
 20
35.965687
 11
2.376165
 21
35.965687
  0
LINE
  8
0
  6
CENTER
 10
466.239990
 20
-12.910333
 11
466.239990
 21
166.639694
  0
LINE
  8
0
  6
CENTER
 10
396.015015
 20
77.214691
 11
535.140015
 21
77.214691
  0
LINE
  8
0
  6
CENTER
 10
364.489990
 20
107.714691
 11
528.112976
 21
107.714691
  0
LINE
  8
0
  6
CONTINUOUS
 10
408.239990
 20
2.714687
 11
441.239990
 21
2.714687
  0
LINE
  8
0
  6
CONTINUOUS
 10
408.239990
 20
13.341087
 11
408.239990
 21
2.714687
  0
LINE
  8
0
  6
CONTINUOUS
 10
524.239990
 20
13.341087
 11
524.239990
 21
2.714687
  0
LINE
  8
0
  6
CONTINUOUS
 10
410.239990
 20
14.714687
 11
431.239990
 21
14.714687
  0
LINE
  8
0
  6
CONTINUOUS
 10
522.239990
 20
14.714687
 11
501.239990
 21
14.714687
  0
LINE
  8
0
  6
CONTINUOUS
 10
434.239990
 20
26.088287
 11
434.239990
 21
150.190613
  0
LINE
  8
0
  6
CONTINUOUS
 10
498.239990
 20
26.088287
 11
498.239990
 21
150.190964
  0
LINE
  8
0
  6
CONTINUOUS
 10
496.274811
 20
152.190674
 11
466.239990
 21
152.714691
  0
LINE
  8
0
  6
CONTINUOUS
 10
436.204987
 20
152.190323
 11
466.239990
 21
152.714691
  0
ARC
  8
0
  6
CONTINUOUS
 10
436.239990
 20
150.190628
 40
2.000000
 50
91.000580
 51
180.000000
  0
ARC
  8
0
  6
CONTINUOUS
 10
496.239990
 20
150.190964
 40
2.000000
 50
0.000000
 51
89.000519
  0
LINE
  8
0
  6
CONTINUOUS
 10
498.239990
 20
17.714687
 11
498.239990
 21
2.714687
  0
ARC
  8
0
  6
CONTINUOUS
 10
501.239990
 20
17.714687
 40
3.000000
 50
180.000000
 51
270.000000
  0
LINE
  8
0
  6
CONTINUOUS
 10
434.239990
 20
17.714687
 11
434.239990
 21
2.714687
  0
ARC
  8
0
  6
CONTINUOUS
 10
431.239990
 20
17.714666
 40
3.000000
 50
-90.000000
 51
0.000000
  0
ARC
  8
0
  6
CONTINUOUS
 10
410.239990
 20
12.714687
 40
2.000000
 50
90.000000
 51
180.000000
  0
ARC
  8
0
  6
CONTINUOUS
 10
522.239990
 20
12.714687
 40
2.000000
 50
0.000000
 51
90.000000
  0
LINE
  8
0
  6
CENTER
 10
421.239990
 20
19.004688
 11
421.239990
 21
-1.395312
  0
LINE
  8
0
  6
CENTER
 10
511.239990
 20
20.024689
 11
511.239990
 21
-1.905313
  0
LINE
  8
0
  6
CONTINUOUS
 10
432.958008
 20
24.221607
 11
409.522003
 21
15.207788
  0
ARC
  8
0
  6
CONTINUOUS
 10
410.239990
 20
13.341107
 40
2.000000
 50
111.037903
 51
180.000000
  0
LINE
  8
0
  6
CONTINUOUS
 10
434.239990
 20
26.088287
 11
434.239990
 21
17.714687
  0
ARC
  8
0
  6
CONTINUOUS
 10
432.239990
 20
26.088287
 40
2.000000
 50
-68.962189
 51
0.000000
  0
LINE
  8
0
  6
CONTINUOUS
 10
499.522003
 20
24.221588
 11
522.958008
 21
15.207788
  0
ARC
  8
0
  6
CONTINUOUS
 10
522.239990
 20
13.341087
 40
2.000000
 50
0.000000
 51
68.962646
  0
LINE
  8
0
  6
CONTINUOUS
 10
498.239990
 20
26.088287
 11
498.239990
 21
17.714687
  0
ARC
  8
0
  6
CONTINUOUS
 10
500.239990
 20
26.088308
 40
2.000000
 50
180.000000
 51
248.962799
  0
LINE
  8
0
  6
CONTINUOUS
 10
418.239990
 20
82.521835
 11
418.239990
 21
132.907532
  0
LINE
  8
0
  6
CONTINUOUS
 10
514.239990
 20
82.521843
 11
514.239990
 21
132.907532
  0
LINE
  8
0
  6
CONTINUOUS
 10
504.239990
 20
49.519527
 11
504.239990
 21
109.784691
  0
LINE
  8
0
  6
CONTINUOUS
 10
428.239990
 20
49.519527
 11
428.239990
 21
109.784691
  0
LINE
  8
0
  6
CONTINUOUS
 10
512.010193
 20
135.806992
 11
500.469788
 21
138.872391
  0
LINE
  8
0
  6
CONTINUOUS
 10
512.010193
 20
79.622383
 11
506.469788
 21
78.150734
  0
LINE
  8
0
  6
CONTINUOUS
 10
502.013000
 20
46.620827
 11
500.467010
 21
46.208546
  0
LINE
  8
0
  6
CONTINUOUS
 10
430.467010
 20
46.620808
 11
432.013000
 21
46.208546
  0
LINE
  8
0
  6
CONTINUOUS
 10
420.469788
 20
79.622383
 11
426.010193
 21
78.150734
  0
LINE
  8
0
  6
CONTINUOUS
 10
420.469788
 20
135.806992
 11
432.010193
 21
138.872391
  0
ARC
  8
0
  6
CONTINUOUS
 10
421.239990
 20
132.907547
 40
3.000000
 50
104.876099
 51
180.000000
  0
ARC
  8
0
  6
CONTINUOUS
 10
421.239990
 20
82.521858
 40
3.000000
 50
180.000000
 51
255.124603
  0
ARC
  8
0
  6
CONTINUOUS
 10
511.239990
 20
132.907532
 40
3.000000
 50
0.000000
 51
75.124413
  0
ARC
  8
0
  6
CONTINUOUS
 10
511.239990
 20
82.521835
 40
3.000000
 50
-75.124207
 51
0.000000
  0
ARC
  8
0
  6
CONTINUOUS
 10
431.239990
 20
49.519547
 40
3.000000
 50
180.000000
 51
255.069000
  0
ARC
  8
0
  6
CONTINUOUS
 10
501.239990
 20
49.519527
 40
3.000000
 50
-75.068420
 51
0.000000
  0
ARC
  8
0
  6
CONTINUOUS
 10
501.239990
 20
141.771866
 40
3.000000
 50
180.000000
 51
255.124603
  0
ARC
  8
0
  6
CONTINUOUS
 10
507.239990
 20
75.251297
 40
3.000000
 50
104.876099
 51
180.000000
  0
ARC
  8
0
  6
CONTINUOUS
 10
501.239990
 20
43.309868
 40
3.000000
 50
104.931801
 51
180.000000
  0
ARC
  8
0
  6
CONTINUOUS
 10
431.239990
 20
43.309849
 40
3.000000
 50
0.000000
 51
75.068779
  0
ARC
  8
0
  6
CONTINUOUS
 10
425.239990
 20
75.251266
 40
3.000000
 50
0.000000
 51
75.124496
  0
ARC
  8
0
  6
CONTINUOUS
 10
431.239990
 20
141.771835
 40
3.000000
 50
-75.124153
 51
0.000000
  0
LINE
  8
0
  6
DASHED
 10
415.739990
 20
14.714687
 11
415.739990
 21
2.714687
  0
LINE
  8
0
  6
DASHED
 10
426.739990
 20
14.714687
 11
426.739990
 21
2.714687
  0
LINE
  8
0
  6
DASHED
 10
505.739990
 20
14.714687
 11
505.739990
 21
2.714687
  0
LINE
  8
0
  6
DASHED
 10
516.739990
 20
14.714687
 11
516.739990
 21
2.714687
  0
LINE
  8
0
  6
CONTINUOUS
 10
436.470001
 20
129.714691
 11
496.140015
 21
129.714691
  0
LINE
  8
0
  6
CONTINUOUS
 10
418.739990
 20
34.714687
 11
418.739990
 21
43.766029
  0
LINE
  8
0
  6
CONTINUOUS
 10
513.739990
 20
34.714687
 11
513.739990
 21
43.766029
  0
LINE
  8
0
  6
CONTINUOUS
 10
423.739990
 20
29.714687
 11
432.771210
 21
29.714687
  0
LINE
  8
0
  6
CONTINUOUS
 10
508.739990
 20
29.714687
 11
499.688599
 21
29.714687
  0
ARC
  8
0
  6
CONTINUOUS
 10
466.239990
 20
77.214691
 40
57.250000
 50
-32.501888
 51
33.025517
  0
ARC
  8
0
  6
CONTINUOUS
 10
466.239990
 20
77.214691
 40
57.250000
 50
160.085907
 51
212.501907
  0
ARC
  8
0
  6
CONTINUOUS
 10
423.739990
 20
34.714687
 40
5.000000
 50
180.000000
 51
270.000000
  0
ARC
  8
0
  6
CONTINUOUS
 10
508.739990
 20
34.714687
 40
5.000000
 50
-90.000000
 51
0.000000
  0
ARC
  8
0
  6
CONTINUOUS
 10
432.791412
 20
24.714687
 40
5.000000
 50
73.928284
 51
90.230461
  0
ARC
  8
0
  6
CONTINUOUS
 10
499.688599
 20
24.714687
 40
5.000000
 50
90.000000
 51
106.071800
  0
ARC
  8
0
  6
CONTINUOUS
 10
413.739990
 20
43.766029
 40
5.000000
 50
0.000000
 51
32.499691
  0
ARC
  8
0
  6
CONTINUOUS
 10
518.739990
 20
43.766029
 40
5.000000
 50
147.498306
 51
180.000000
  0
LINE
  8
0
  6
CONTINUOUS
 10
500.239990
 20
28.214687
 11
498.239990
 21
28.214687
  0
LINE
  8
0
  6
CONTINUOUS
 10
432.239990
 20
28.214687
 11
434.239990
 21
28.214687
  0
ARC
  8
0
  6
CONTINUOUS
 10
500.239990
 20
32.214687
 40
4.000000
 50
270.000000
 51
322.311005
  0
ARC
  8
0
  6
CONTINUOUS
 10
432.239990
 20
32.214687
 40
4.000000
 50
218.645996
 51
270.000000
  0
LINE
  8
0
  6
CONTINUOUS
 10
259.044525
 20
104.714706
 11
259.044525
 21
110.714706
  0
LINE
  8
0
  6
CONTINUOUS
 10
265.044525
 20
104.714729
 11
265.044525
 21
110.714729
  0
LINE
  8
0
  6
CONTINUOUS
 10
265.044525
 20
104.714729
 11
259.044525
 21
104.714706
  0
LINE
  8
0
  6
CONTINUOUS
 10
265.044525
 20
110.714729
 11
259.044525
 21
110.714706
  0
ARC
  8
0
  6
CONTINUOUS
 10
251.544525
 20
107.714691
 40
11.000000
 50
15.826600
 51
344.173401
  0
LINE
  8
0
  6
CONTINUOUS
 10
376.239990
 20
96.714691
 11
376.239990
 21
118.714691
  0
LINE
  8
0
  6
CONTINUOUS
 10
416.239990
 20
118.714691
 11
376.239990
 21
118.714691
  0
LINE
  8
0
  6
CONTINUOUS
 10
416.239990
 20
96.714691
 11
376.239990
 21
96.714691
  0
LINE
  8
0
  6
CONTINUOUS
 10
416.239990
 20
120.214691
 11
416.239990
 21
95.214691
  0
LINE
  8
0
  6
CONTINUOUS
 10
418.239990
 20
120.214691
 11
416.239990
 21
120.214691
  0
LINE
  8
0
  6
CONTINUOUS
 10
418.239990
 20
95.214691
 11
416.239990
 21
95.214691
  0
ARC
  8
0
  6
CONTINUOUS
 10
408.239990
 20
107.714691
 40
3.000000
 50
-90.000000
 51
90.000000
  0
LINE
  8
0
  6
CONTINUOUS
 10
408.239990
 20
110.714691
 11
376.239990
 21
110.714691
  0
LINE
  8
0
  6
CONTINUOUS
 10
408.239990
 20
104.714691
 11
376.239990
 21
104.714691
  0
LINE
  8
0
  6
CENTER
 10
-11.780469
 20
66.214691
 11
219.544525
 21
66.214691
  0
LINE
  8
0
  6
CONTINUOUS
 10
176.381775
 20
105.666946
 11
134.794525
 21
104.214691
  0
LINE
  8
0
  6
CONTINUOUS
 10
186.794525
 20
26.398808
 11
134.794525
 21
28.214687
  0
LINE
  8
0
  6
CONTINUOUS
 10
178.794525
 20
133.714691
 11
178.794525
 21
106.714691
  0
LINE
  8
0
  6
CONTINUOUS
 10
179.794525
 20
134.714691
 11
186.794556
 21
134.714691
  0
LINE
  8
0
  6
CONTINUOUS
 10
181.294525
 20
19.714687
 11
186.794525
 21
19.714687
  0
LINE
  8
0
  6
CONTINUOUS
 10
178.794525
 20
107.214691
 11
178.794525
 21
36.302032
  0
LINE
  8
0
  6
CONTINUOUS
 10
134.794525
 20
104.214691
 11
134.794525
 21
28.214687
  0
LINE
  8
0
  6
CONTINUOUS
 10
177.381409
 20
117.532494
 11
151.437973
 21
105.008080
  0
LINE
  8
0
  6
CENTER
 10
251.544525
 20
387.450012
 11
251.544525
 21
217.265945
  0
LINE
  8
0
  6
CENTER
 10
-11.152110
 20
317.489899
 11
320.884003
 21
317.489899
  0
LINE
  8
0
  6
CONTINUOUS
 10
200.326508
 20
349.489899
 11
299.072479
 21
349.489899
  0
LINE
  8
0
  6
CONTINUOUS
 10
200.326508
 20
285.489899
 11
299.072479
 21
285.489899
  0
LINE
  8
0
  6
CONTINUOUS
 10
294.482635
 20
375.489899
 11
251.544525
 21
375.489899
  0
LINE
  8
0
  6
CONTINUOUS
 10
208.606430
 20
259.489899
 11
240.544525
 21
259.489899
  0
LINE
  8
0
  6
CONTINUOUS
 10
304.544525
 20
317.489899
 11
303.985962
 21
349.489899
  0
LINE
  8
0
  6
CONTINUOUS
 10
299.376587
 20
371.514130
 11
303.985962
 21
349.489899
  0
ARC
  8
0
  6
CONTINUOUS
 10
294.482635
 20
370.489899
 40
5.000000
 50
11.820596
 51
90.000000
  0
LINE
  8
0
  6
CONTINUOUS
 10
304.544525
 20
317.489899
 11
303.985962
 21
285.489899
  0
LINE
  8
0
  6
CONTINUOUS
 10
299.376587
 20
263.465668
 11
303.985962
 21
285.489899
  0
ARC
  8
0
  6
CONTINUOUS
 10
294.482635
 20
264.489899
 40
5.000000
 50
-90.000000
 51
-11.820596
  0
LINE
  8
0
  6
CONTINUOUS
 10
271.544525
 20
287.489899
 11
271.544525
 21
347.489899
  0
LINE
  8
0
  6
CONTINUOUS
 10
231.544525
 20
287.489899
 11
231.544525
 21
347.489899
  0
ARC
  8
0
  6
CONTINUOUS
 10
299.072479
 20
344.489899
 40
5.000000
 50
1.000000
 51
90.000000
  0
ARC
  8
0
  6
CONTINUOUS
 10
299.072479
 20
290.489899
 40
5.000000
 50
270.000000
 51
359.000000
  0
LINE
  8
0
  6
CONTINUOUS
 10
194.871033
 20
263.161377
 11
195.328217
 21
280.620789
  0
LINE
  8
0
  6
CONTINUOUS
 10
186.794525
 20
374.989899
 11
186.794525
 21
259.989899
  0
LINE
  8
0
  6
CONTINUOUS
 10
205.359528
 20
335.489899
 11
205.359528
 21
299.489899
  0
LINE
  8
0
  6
CONTINUOUS
 10
186.794525
 20
374.739899
 11
191.872055
 21
374.739899
  0
LINE
  8
0
  6
CONTINUOUS
 10
191.872055
 20
260.239899
 11
186.794525
 21
260.239899
  0
ARC
  8
0
  6
CONTINUOUS
 10
200.326508
 20
280.489899
 40
5.000000
 50
90.000000
 51
178.500000
  0
ARC
  8
0
  6
CONTINUOUS
 10
191.872055
 20
263.239899
 40
3.000000
 50
270.000000
 51
358.500000
  0
LINE
  8
0
  6
CONTINUOUS
 10
194.871033
 20
371.818420
 11
195.328217
 21
354.359009
  0
ARC
  8
0
  6
CONTINUOUS
 10
200.326508
 20
354.489899
 40
5.000000
 50
-178.500000
 51
-90.000000
  0
ARC
  8
0
  6
CONTINUOUS
 10
191.872055
 20
371.739899
 40
3.000000
 50
-358.500000
 51
-270.000000
  0
LINE
  8
0
  6
CONTINUOUS
 10
203.712463
 20
371.514130
 11
199.133331
 21
349.634338
  0
ARC
  8
0
  6
CONTINUOUS
 10
208.606430
 20
370.489899
 40
5.000000
 50
90.000000
 51
168.179398
  0
LINE
  8
0
  6
CONTINUOUS
 10
203.712463
 20
263.465668
 11
199.133331
 21
285.345428
  0
ARC
  8
0
  6
CONTINUOUS
 10
208.606430
 20
264.489899
 40
5.000000
 50
-168.179398
 51
-90.000000
  0
LINE
  8
0
  6
CENTER
 10
276.094940
 20
272.489899
 11
296.949097
 21
272.489899
  0
LINE
  8
0
  6
CENTER
 10
286.544525
 20
280.047180
 11
286.544525
 21
263.276367
  0
CIRCLE
  8
0
  6
CONTINUOUS
 10
286.544525
 20
272.489899
 40
5.500000
  0
LINE
  8
0
  6
CENTER
 10
226.994141
 20
272.489899
 11
206.139969
 21
272.489899
  0
LINE
  8
0
  6
CENTER
 10
216.544525
 20
280.047180
 11
216.544525
 21
263.276367
  0
CIRCLE
  8
0
  6
CONTINUOUS
 10
216.544525
 20
272.489899
 40
5.500000
  0
LINE
  8
0
  6
CENTER
 10
276.094940
 20
362.489899
 11
296.949097
 21
362.489899
  0
LINE
  8
0
  6
CENTER
 10
286.544525
 20
354.932617
 11
286.544525
 21
371.703430
  0
CIRCLE
  8
0
  6
CONTINUOUS
 10
286.544525
 20
362.489899
 40
5.500000
  0
LINE
  8
0
  6
CENTER
 10
226.994141
 20
362.489899
 11
206.139969
 21
362.489899
  0
LINE
  8
0
  6
CENTER
 10
216.544525
 20
354.932617
 11
216.544525
 21
371.703430
  0
CIRCLE
  8
0
  6
CONTINUOUS
 10
216.544525
 20
362.489899
 40
5.500000
  0
LINE
  8
0
  6
CONTINUOUS
 10
226.351685
 20
269.489899
 11
276.737366
 21
269.489899
  0
LINE
  8
0
  6
CONTINUOUS
 10
281.700775
 20
279.489899
 11
284.987610
 21
279.489899
  0
ARC
  8
0
  6
CONTINUOUS
 10
276.737366
 20
272.489899
 40
3.000000
 50
270.000000
 51
345.124329
  0
LINE
  8
0
  6
CONTINUOUS
 10
287.887085
 20
281.719727
 11
288.296234
 21
283.260071
  0
ARC
  8
0
  6
CONTINUOUS
 10
284.987610
 20
282.489899
 40
3.000000
 50
270.000000
 51
345.124329
  0
ARC
  8
0
  6
CONTINUOUS
 10
291.195679
 20
282.489899
 40
3.000000
 50
90.000000
 51
165.124313
  0
LINE
  8
0
  6
CONTINUOUS
 10
281.700775
 20
279.489899
 11
279.636841
 21
271.719727
  0
LINE
  8
0
  6
CONTINUOUS
 10
215.201981
 20
281.719727
 11
214.792831
 21
283.260071
  0
ARC
  8
0
  6
CONTINUOUS
 10
218.101440
 20
282.489899
 40
3.000000
 50
-165.124313
 51
-90.000000
  0
ARC
  8
0
  6
CONTINUOUS
 10
211.893372
 20
282.489899
 40
3.000000
 50
14.875682
 51
90.000000
  0
LINE
  8
0
  6
CONTINUOUS
 10
221.388275
 20
279.489899
 11
218.101440
 21
279.489899
  0
ARC
  8
0
  6
CONTINUOUS
 10
226.351685
 20
272.489899
 40
3.000000
 50
-165.124313
 51
-90.000000
  0
LINE
  8
0
  6
CONTINUOUS
 10
221.388275
 20
279.489899
 11
223.452225
 21
271.719727
  0
CIRCLE
  8
0
  6
CONTINUOUS
 10
286.544525
 20
362.489899
 40
5.500000
  0
LINE
  8
0
  6
CONTINUOUS
 10
226.351685
 20
365.489899
 11
276.737366
 21
365.489899
  0
LINE
  8
0
  6
CONTINUOUS
 10
281.700775
 20
355.489899
 11
284.987610
 21
355.489899
  0
ARC
  8
0
  6
CONTINUOUS
 10
276.737366
 20
362.489899
 40
3.000000
 50
-345.124329
 51
-270.000000
  0
LINE
  8
0
  6
CONTINUOUS
 10
287.887085
 20
353.260071
 11
288.296234
 21
351.719727
  0
ARC
  8
0
  6
CONTINUOUS
 10
284.987610
 20
352.489899
 40
3.000000
 50
-345.124329
 51
-270.000000
  0
ARC
  8
0
  6
CONTINUOUS
 10
291.195679
 20
352.489899
 40
3.000000
 50
-165.124313
 51
-90.000000
  0
LINE
  8
0
  6
CONTINUOUS
 10
281.700775
 20
355.489899
 11
279.636841
 21
363.260071
  0
LINE
  8
0
  6
CONTINUOUS
 10
215.201981
 20
353.260071
 11
214.792831
 21
351.719727
  0
ARC
  8
0
  6
CONTINUOUS
 10
218.101440
 20
352.489899
 40
3.000000
 50
90.000000
 51
165.124313
  0
ARC
  8
0
  6
CONTINUOUS
 10
211.893372
 20
352.489899
 40
3.000000
 50
-90.000000
 51
-14.875682
  0
LINE
  8
0
  6
CONTINUOUS
 10
221.388275
 20
355.489899
 11
218.101440
 21
355.489899
  0
ARC
  8
0
  6
CONTINUOUS
 10
226.351685
 20
362.489899
 40
3.000000
 50
90.000000
 51
165.124313
  0
LINE
  8
0
  6
CONTINUOUS
 10
221.388275
 20
355.489899
 11
223.452225
 21
363.260071
  0
LINE
  8
0
  6
CONTINUOUS
 10
240.544525
 20
227.489899
 11
265.044525
 21
227.489899
  0
LINE
  8
0
  6
CONTINUOUS
 10
262.544525
 20
267.489899
 11
262.544525
 21
262.489899
  0
LINE
  8
0
  6
CONTINUOUS
 10
240.544525
 20
267.489899
 11
240.544525
 21
227.489899
  0
LINE
  8
0
  6
CONTINUOUS
 10
264.044525
 20
269.489899
 11
264.044525
 21
267.489899
  0
LINE
  8
0
  6
CONTINUOUS
 10
239.044525
 20
269.489899
 11
239.044525
 21
267.489899
  0
LINE
  8
0
  6
CONTINUOUS
 10
239.044525
 20
267.489899
 11
264.044525
 21
267.489899
  0
LINE
  8
0
  6
CONTINUOUS
 10
265.044525
 20
259.489899
 11
294.482635
 21
259.489899
  0
LINE
  8
0
  6
CONTINUOUS
 10
265.044525
 20
262.489899
 11
265.044525
 21
227.489899
  0
LINE
  8
0
  6
CONTINUOUS
 10
262.127533
 20
227.489899
 11
262.127533
 21
262.489899
  0
LINE
  8
0
  6
CONTINUOUS
 10
262.127533
 20
262.489899
 11
265.044525
 21
262.489899
  0
LINE
  8
0
  6
CONTINUOUS
 10
251.544525
 20
375.489899
 11
208.428268
 21
375.489899
  0
LINE
  8
0
  6
CONTINUOUS
 10
186.794525
 20
364.989899
 11
192.127380
 21
364.989899
  0
ARC
  8
0
  6
CONTINUOUS
 10
192.127380
 20
361.989899
 40
3.000000
 50
1.500000
 51
90.000000
  0
LINE
  8
0
  6
CONTINUOUS
 10
195.085007
 20
349.489899
 11
186.794525
 21
349.489899
  0
LINE
  8
0
  6
CONTINUOUS
 10
195.085007
 20
285.489899
 11
186.794525
 21
285.489899
  0
LINE
  8
0
  6
CONTINUOUS
 10
186.794525
 20
269.989899
 11
192.127380
 21
269.989899
  0
ARC
  8
0
  6
CONTINUOUS
 10
192.127380
 20
272.989899
 40
3.000000
 50
-90.000000
 51
-1.500000
  0
LINE
  8
0
  6
CONTINUOUS
 10
442.239990
 20
3.714687
 11
490.239990
 21
3.714687
  0
LINE
  8
0
  6
CONTINUOUS
 10
491.239990
 20
2.714687
 11
490.239990
 21
3.714687
  0
LINE
  8
0
  6
CONTINUOUS
 10
441.239990
 20
2.714687
 11
442.239990
 21
3.714687
  0
LINE
  8
0
  6
CONTINUOUS
 10
491.239990
 20
2.714687
 11
524.239990
 21
2.714687
  0
LINE
  8
0
  6
CONTINUOUS
 10
181.294525
 20
259.989899
 11
186.794525
 21
259.989899
  0
LINE
  8
0
  6
CONTINUOUS
 10
181.294525
 20
374.989899
 11
186.794525
 21
374.989899
  0
LINE
  8
0
  6
CONTINUOUS
 10
178.794525
 20
262.489899
 11
178.794525
 21
372.489899
  0
LINE
  8
0
  6
CONTINUOUS
 10
134.794525
 20
355.489899
 11
134.794525
 21
279.489899
  0
LINE
  8
0
  6
CONTINUOUS
 10
176.381775
 20
356.942169
 11
134.794525
 21
355.489899
  0
LINE
  8
0
  6
CONTINUOUS
 10
176.381775
 20
278.037628
 11
134.794525
 21
279.489899
  0
ARC
  8
0
  6
CONTINUOUS
 10
181.294525
 20
372.489899
 40
2.500000
 50
90.000000
 51
180.000000
  0
ARC
  8
0
  6
CONTINUOUS
 10
181.294525
 20
262.489899
 40
2.500000
 50
180.000000
 51
270.000000
  0
ARC
  8
0
  6
CONTINUOUS
 10
179.794525
 20
133.714691
 40
1.000000
 50
90.000000
 51
180.000000
  0
ARC
  8
0
  6
CONTINUOUS
 10
176.294525
 20
119.783867
 40
2.500000
 50
-64.230675
 51
0.000000
  0
ARC
  8
0
  6
CONTINUOUS
 10
176.294525
 20
108.165421
 40
2.500000
 50
-88.000000
 51
0.000000
  0
ARC
  8
0
  6
CONTINUOUS
 10
150.351105
 20
107.259460
 40
2.500000
 50
272.000000
 51
295.769318
  0
LINE
  8
0
  6
CONTINUOUS
 10
134.794525
 20
355.489899
 11
134.794525
 21
279.489899
  0
LINE
  8
0
  6
CONTINUOUS
 10
20.794653
 20
279.489929
 11
20.794653
 21
292.489868
  0
LINE
  8
0
  6
CONTINUOUS
 10
20.794653
 20
355.489868
 11
134.794647
 21
355.489868
  0
LINE
  8
0
  6
CONTINUOUS
 10
20.794653
 20
279.489929
 11
134.794647
 21
279.489929
  0
LINE
  8
0
  6
CONTINUOUS
 10
126.794655
 20
353.489868
 11
126.794655
 21
340.489899
  0
ARC
  8
0
  6
CONTINUOUS
 10
128.794647
 20
353.489899
 40
2.000000
 50
90.000000
 51
180.000000
  0
ARC
  8
0
  6
CONTINUOUS
 10
128.794647
 20
281.489929
 40
2.000000
 50
180.000000
 51
270.000000
  0
LINE
  8
0
  6
CONTINUOUS
 10
0.294653
 20
285.489899
 11
0.294653
 21
349.489899
  0
LINE
  8
0
  6
CONTINUOUS
 10
4.258733
 20
355.489899
 11
20.794653
 21
355.489899
  0
LINE
  8
0
  6
CONTINUOUS
 10
4.258753
 20
279.489899
 11
20.794653
 21
279.489899
  0
LINE
  8
0
  6
CONTINUOUS
 10
0.794653
 20
282.489899
 11
0.794653
 21
352.489899
  0
LINE
  8
0
  6
CONTINUOUS
 10
0.294653
 20
349.489899
 11
0.794653
 21
349.989899
  0
LINE
  8
0
  6
CONTINUOUS
 10
0.294653
 20
285.489899
 11
0.794653
 21
284.989899
  0
LINE
  8
0
  6
CONTINUOUS
 10
1.660673
 20
353.989868
 11
0.794653
 21
352.489899
  0
ARC
  8
0
  6
CONTINUOUS
 10
4.258753
 20
352.489929
 40
3.000000
 50
90.000000
 51
150.000397
  0
LINE
  8
0
  6
CONTINUOUS
 10
1.660673
 20
280.989929
 11
0.794653
 21
282.489899
  0
ARC
  8
0
  6
CONTINUOUS
 10
4.258753
 20
282.489899
 40
3.000000
 50
-150.000397
 51
-90.000000
  0
LINE
  8
0
  6
CONTINUOUS
 10
61.794643
 20
340.489899
 11
126.794655
 21
340.489899
  0
LINE
  8
0
  6
CONTINUOUS
 10
11.794653
 20
340.489899
 11
2.376283
 21
340.489899
  0
LINE
  8
0
  6
CONTINUOUS
 10
61.794647
 20
294.489899
 11
126.794655
 21
294.489899
  0
LINE
  8
0
  6
CONTINUOUS
 10
11.794653
 20
294.489899
 11
2.376283
 21
294.489899
  0
LINE
  8
0
  6
CONTINUOUS
 10
126.794655
 20
294.489899
 11
126.794655
 21
281.489899
  0
LINE
  8
0
  6
CONTINUOUS
 10
20.794653
 20
342.489868
 11
20.794653
 21
355.489899
  0
ARC
  8
0
  6
CONTINUOUS
 10
165.964157
 20
317.489899
 40
15.000000
 50
130.747620
 51
229.252380
  0
LINE
  8
0
  6
CONTINUOUS
 10
177.926346
 20
347.595886
 11
156.173233
 21
328.853790
  0
LINE
  8
0
  6
CONTINUOUS
 10
177.926346
 20
287.383911
 11
156.173233
 21
306.126007
  0
ARC
  8
0
  6
CONTINUOUS
 10
176.294525
 20
349.489868
 40
2.500000
 50
-49.252373
 51
0.000000
  0
ARC
  8
0
  6
CONTINUOUS
 10
176.294525
 20
359.440643
 40
2.500000
 50
-88.000000
 51
0.000000
  0
ARC
  8
0
  6
CONTINUOUS
 10
176.294525
 20
285.489929
 40
2.500000
 50
0.000000
 51
49.252373
  0
ARC
  8
0
  6
CONTINUOUS
 10
176.294525
 20
275.539154
 40
2.500000
 50
0.000000
 51
88.000000
  0
LINE
  8
0
  6
CONTINUOUS
 10
179.919601
 20
34.060688
 11
186.794525
 21
34.060688
  0
LINE
  8
0
  6
CONTINUOUS
 10
178.794525
 20
22.214687
 11
178.794525
 21
24.263952
  0
ARC
  8
0
  6
CONTINUOUS
 10
181.294525
 20
22.214687
 40
2.500000
 50
180.000000
 51
270.000000
  0
ARC
  8
0
  6
CONTINUOUS
 10
176.294525
 20
24.263952
 40
2.500000
 50
0.000000
 51
88.000000
  0
ARC
  8
0
  6
CONTINUOUS
 10
466.239990
 20
77.214691
 40
57.500000
 50
236.002823
 51
236.184402
  0
ARC
  8
0
  6
CONTINUOUS
 10
466.239990
 20
77.214691
 40
57.500000
 50
303.815582
 51
303.997162
  0
ARC
  8
0
  6
CONTINUOUS
 10
466.239990
 20
77.214691
 40
57.500000
 50
-33.997124
 51
33.406792
  0
ARC
  8
0
  6
CONTINUOUS
 10
466.239990
 20
77.214691
 40
57.500000
 50
160.176102
 51
213.997131
  0
LINE
  8
0
  6
CONTINUOUS
 10
10.794653
 20
324.989868
 11
11.794653
 21
324.989868
  0
ARC
  8
0
  6
CONTINUOUS
 10
10.794673
 20
323.989868
 40
1.000000
 50
90.000000
 51
180.000000
  0
LINE
  8
0
  6
CONTINUOUS
 10
6.294668
 20
321.489868
 11
6.294668
 21
313.489868
  0
LINE
  8
0
  6
CONTINUOUS
 10
6.294668
 20
321.489868
 11
9.794668
 21
322.989868
  0
LINE
  8
0
  6
CONTINUOUS
 10
6.294653
 20
313.489868
 11
9.794653
 21
311.989868
  0
LINE
  8
0
  6
CONTINUOUS
 10
9.794668
 20
323.989868
 11
9.794668
 21
310.989868
  0
LINE
  8
0
  6
CONTINUOUS
 10
10.794653
 20
309.989868
 11
11.794653
 21
309.989868
  0
ARC
  8
0
  6
CONTINUOUS
 10
10.794673
 20
310.989868
 40
1.000000
 50
-180.000000
 51
-90.000000
  0
LINE
  8
0
  6
CONTINUOUS
 10
11.794653
 20
294.489868
 11
11.794653
 21
340.489868
  0
LINE
  8
0
  6
CONTINUOUS
 10
13.794653
 20
342.489868
 11
11.794653
 21
340.489868
  0
LINE
  8
0
  6
CONTINUOUS
 10
13.794653
 20
342.489868
 11
59.794643
 21
342.489868
  0
LINE
  8
0
  6
CONTINUOUS
 10
54.294655
 20
337.989868
 11
54.294655
 21
342.489868
  0
ARC
  8
0
  6
CONTINUOUS
 10
57.294655
 20
337.989868
 40
3.000000
 50
180.000000
 51
270.000000
  0
LINE
  8
0
  6
CONTINUOUS
 10
57.294655
 20
334.989868
 11
61.794643
 21
334.989868
  0
CIRCLE
  8
0
  6
CONTINUOUS
 10
58.294655
 20
338.989868
 40
2.250000
  0
LINE
  8
0
  6
CONTINUOUS
 10
61.794647
 20
294.489868
 11
61.794643
 21
340.489868
  0
LINE
  8
0
  6
CONTINUOUS
 10
59.794643
 20
342.489868
 11
61.794643
 21
340.489868
  0
LINE
  8
0
  6
CONTINUOUS
 10
59.794647
 20
292.489868
 11
61.794647
 21
294.489868
  0
LINE
  8
0
  6
CONTINUOUS
 10
59.794647
 20
292.489868
 11
13.794653
 21
292.489868
  0
LINE
  8
0
  6
CONTINUOUS
 10
11.794653
 20
294.489868
 11
13.794653
 21
292.489868
  0
LINE
  8
0
  6
CONTINUOUS
 10
16.294653
 20
299.989868
 11
11.794663
 21
299.989868
  0
CIRCLE
  8
0
  6
CONTINUOUS
 10
15.294653
 20
295.989868
 40
2.250000
  0
ARC
  8
0
  6
CONTINUOUS
 10
16.294653
 20
296.989868
 40
3.000000
 50
0.000000
 51
90.000000
  0
LINE
  8
0
  6
CONTINUOUS
 10
19.294653
 20
296.989868
 11
19.294653
 21
292.489868
  0
LINE
  8
0
  6
CENTER
 10
36.794655
 20
285.024109
 11
36.794655
 21
349.156128
  0
LINE
  8
0
  6
CONTINUOUS
 10
14.208872
 20
341.489868
 11
12.794659
 21
340.075653
  0
LINE
  8
0
  6
CONTINUOUS
 10
12.794659
 20
299.989868
 11
12.794659
 21
340.075653
  0
LINE
  8
0
  6
CONTINUOUS
 10
54.294655
 20
341.489868
 11
14.208872
 21
341.489868
  0
LINE
  8
0
  6
CONTINUOUS
 10
60.794647
 20
334.989868
 11
60.794647
 21
294.904083
  0
LINE
  8
0
  6
CONTINUOUS
 10
19.294653
 20
293.489868
 11
59.380432
 21
293.489868
  0
LINE
  8
0
  6
CONTINUOUS
 10
59.380432
 20
293.489868
 11
60.794647
 21
294.904083
  0
LINE
  8
0
  6
CONTINUOUS
 10
13.294531
 20
105.714691
 11
59.794533
 21
105.714691
  0
LINE
  8
0
  6
CONTINUOUS
 10
61.794521
 20
135.714691
 11
61.794533
 21
107.714691
  0
LINE
  8
0
  6
CONTINUOUS
 10
11.794531
 20
135.714691
 11
11.794531
 21
107.714691
  0
LINE
  8
0
  6
CONTINUOUS
 10
9.794531
 20
117.714691
 11
61.794533
 21
117.714691
  0
LINE
  8
0
  6
CONTINUOUS
 10
59.794533
 20
105.714691
 11
61.794533
 21
107.714691
  0
LINE
  8
0
  6
CONTINUOUS
 10
11.794531
 20
107.714691
 11
13.794531
 21
105.714691
  0
LINE
  8
0
  6
CONTINUOUS
 10
11.794531
 20
107.714691
 11
61.794533
 21
107.714691
  0
LINE
  8
0
  6
CONTINUOUS
 10
12.794531
 20
136.714691
 11
60.794521
 21
136.714691
  0
LINE
  8
0
  6
CONTINUOUS
 10
60.794521
 20
136.714691
 11
61.794521
 21
135.714691
  0
LINE
  8
0
  6
CONTINUOUS
 10
12.794531
 20
136.714691
 11
11.794531
 21
135.714691
  0
LINE
  8
0
  6
CONTINUOUS
 10
11.794531
 20
135.714691
 11
61.794521
 21
135.714691
  0
LINE
  8
0
  6
CENTER
 10
3.850775
 20
127.214691
 11
15.925781
 21
127.214691
  0
LINE
  8
0
  6
CONTINUOUS
 10
9.794546
 20
133.714691
 11
9.794531
 21
117.714691
  0
LINE
  8
0
  6
CONTINUOUS
 10
10.794531
 20
134.714691
 11
11.794531
 21
134.714691
  0
ARC
  8
0
  6
CONTINUOUS
 10
10.794551
 20
133.714691
 40
1.000000
 50
90.000000
 51
180.000000
  0
LINE
  8
0
  6
CONTINUOUS
 10
6.294546
 20
131.214691
 11
6.294546
 21
123.214691
  0
LINE
  8
0
  6
CONTINUOUS
 10
6.294546
 20
131.214691
 11
9.794546
 21
132.714691
  0
LINE
  8
0
  6
CONTINUOUS
 10
6.294531
 20
123.214691
 11
9.794531
 21
121.714691
  0
LINE
  8
0
  6
CENTER
 10
36.794533
 20
101.020935
 11
36.794533
 21
142.102188
  0
LINE
  8
0
  6
CONTINUOUS
 10
13.294531
 20
105.714691
 11
13.294531
 21
104.214691
  0
LINE
  8
0
  6
CONTINUOUS
 10
59.294533
 20
105.714691
 11
59.294533
 21
104.214691
  0
LINE
  8
0
  6
CONTINUOUS
 10
134.794525
 20
56.814690
 11
178.794525
 21
56.814690
  0
LINE
  8
0
  6
CONTINUOUS
 10
134.794525
 20
46.614689
 11
178.794525
 21
46.614689
  0
TEXT
  8
0
 10
-11.000000
 20
-12.000000
 40
4.000000
 41
1.000000
  1
HLM-22R-300~900-T25T
 50
0.000000
  0
ENDSEC
  0
EOF
