  0
SECTION
  2
HEADER
  9
$CLAYER
  8
1
  9
$LTSCALE
 40
3.0
  0
ENDSEC
  0
SECTION
  2
TABLES
  0
TABLE
  2
LTYPE
 70
     4
  0
LTYPE
  2
CONTINUOUS
  3
solid line
 70
    64
 72
    65
 73
     0
 40
0.0
  0
LTYPE
  2
DASHED
  3
__ __ __ __ __ __ __ __ __ __ __ __ __ __ __
 70
    64
 72
    65
 73
     2
 40
0.75
 49
0.5
 49
-0.25
  0
LTYPE
  2
CENTER
  3
____ _ ____ _ ____ _ ____ _ ____ _ ____ _ ____
 70
    64
 72
    65
 73
     4
 40
2.0
 49
1.25
 49
-0.25
 49
0.25
 49
-0.25
  0
LTYPE
  2
PHANTOM
  3
_____ _ _ _____ _ _ _____ _ _ _____ _ _ ____
 70
    64
 72
    65
 73
     6
 40
2.5
 49
1.25
 49
-0.25
 49
0.25
 49
-0.25
 49
0.25
 49
-0.25
  0
ENDTAB
  0
TABLE
  2
LAYER
 70
     1
  0
LAYER
  2
0
 70
    64
 62
     7
  6
CONTINUOUS
  0
ENDTAB
  0
TABLE
  2
STYLE
 70
     1
  0
STYLE
  2
STANDARD
 70
     0
 40
0.000000
 41
1.000000
 50
0.000000
 71
     0
 42
3.000000
  3
txt
  4
BIGFONT
  0
ENDTAB
  0
ENDSEC
  0
SECTION
  2
BLOCKS
  0
ENDSEC
  0
SECTION
  2
ENTITIES
  0
LINE
  8
0
  6
CENTER
 10
138.477493
 20
76.914688
 11
258.289520
 21
76.914688
  0
LINE
  8
0
  6
CENTER
 10
290.289520
 20
159.664688
 11
290.289520
 21
-3.835313
  0
LINE
  8
0
  6
CENTER
 10
243.719131
 20
107.414688
 11
335.027496
 21
107.414688
  0
LINE
  8
0
  6
CONTINUOUS
 10
237.289536
 20
2.414687
 11
343.289520
 21
2.414687
  0
LINE
  8
0
  6
CONTINUOUS
 10
271.860138
 20
152.414688
 11
308.718933
 21
152.414688
  0
LINE
  8
0
  6
CONTINUOUS
 10
343.289520
 20
126.804932
 11
343.289520
 21
2.414708
  0
LINE
  8
0
  6
CONTINUOUS
 10
237.289536
 20
27.414686
 11
237.289536
 21
2.414687
  0
LINE
  8
0
  6
CONTINUOUS
 10
225.539536
 20
134.164688
 11
243.162537
 21
134.164688
  0
LINE
  8
0
  6
CONTINUOUS
 10
225.539536
 20
19.664686
 11
232.289551
 21
19.664686
  0
LINE
  8
0
  6
CONTINUOUS
 10
233.539536
 20
31.414688
 11
233.539536
 21
122.414688
  0
LINE
  8
0
  6
CONTINUOUS
 10
341.148529
 20
130.906921
 11
311.577942
 21
151.516663
  0
LINE
  8
0
  6
CONTINUOUS
 10
239.430527
 20
130.906921
 11
269.001129
 21
151.516663
  0
LINE
  8
0
  6
CONTINUOUS
 10
271.227936
 20
14.414687
 11
237.289536
 21
14.414687
  0
LINE
  8
0
  6
CONTINUOUS
 10
276.851135
 20
24.414686
 11
303.727936
 21
24.414686
  0
LINE
  8
0
  6
CONTINUOUS
 10
305.289520
 20
22.977186
 11
305.289520
 21
15.414687
  0
LINE
  8
0
  6
CONTINUOUS
 10
275.289520
 20
22.789686
 11
275.289520
 21
15.414687
  0
LINE
  8
0
  6
CONTINUOUS
 10
273.168335
 20
15.929607
 11
274.910736
 21
22.899769
  0
LINE
  8
0
  6
CONTINUOUS
 10
307.410736
 20
15.929607
 11
305.668335
 21
22.899748
  0
LINE
  8
0
  6
CONTINUOUS
 10
243.289536
 20
13.352187
 11
243.289536
 21
2.414687
  0
LINE
  8
0
  6
CONTINUOUS
 10
337.289520
 20
13.352187
 11
337.289520
 21
2.414687
  0
LINE
  8
0
  6
CENTER
 10
255.289536
 20
18.164686
 11
255.289536
 21
-1.835313
  0
LINE
  8
0
  6
CENTER
 10
325.289520
 20
19.164686
 11
325.289520
 21
-1.335313
  0
LINE
  8
0
  6
DASHED
 10
249.789536
 20
14.414687
 11
249.789536
 21
2.414687
  0
LINE
  8
0
  6
DASHED
 10
260.789520
 20
14.414687
 11
260.789520
 21
2.414687
  0
LINE
  8
0
  6
DASHED
 10
319.789520
 20
14.414687
 11
319.789520
 21
2.414687
  0
LINE
  8
0
  6
DASHED
 10
330.789520
 20
14.414687
 11
330.789520
 21
2.414687
  0
ARC
  8
0
  6
CONTINUOUS
 10
308.718933
 20
147.414688
 40
5.000000
 50
55.124809
 51
90.000000
  0
ARC
  8
0
  6
CONTINUOUS
 10
271.860138
 20
147.414688
 40
5.000000
 50
90.000000
 51
124.875603
  0
ARC
  8
0
  6
CONTINUOUS
 10
338.289520
 20
126.804932
 40
5.000000
 50
0.000000
 51
55.124851
  0
ARC
  8
0
  6
CONTINUOUS
 10
242.289536
 20
126.804947
 40
5.000000
 50
124.875702
 51
180.000000
  0
LINE
  8
0
  6
CONTINUOUS
 10
225.539536
 20
124.414688
 11
235.289536
 21
124.414688
  0
LINE
  8
0
  6
CONTINUOUS
 10
231.539536
 20
29.414686
 11
225.539536
 21
29.414686
  0
LINE
  8
0
  6
CONTINUOUS
 10
225.539536
 20
108.874687
 11
232.414536
 21
108.874687
  0
LINE
  8
0
  6
CONTINUOUS
 10
225.539536
 20
44.954689
 11
232.539536
 21
44.954689
  0
ARC
  8
0
  6
CONTINUOUS
 10
243.162338
 20
137.164688
 40
3.000000
 50
270.000000
 51
304.875397
  0
ARC
  8
0
  6
CONTINUOUS
 10
231.539551
 20
122.414688
 40
2.000000
 50
0.000000
 51
90.000000
  0
ARC
  8
0
  6
CONTINUOUS
 10
235.289536
 20
126.414688
 40
2.000000
 50
-90.000000
 51
0.000000
  0
LINE
  8
0
  6
CONTINUOUS
 10
237.289551
 20
126.804947
 11
237.289536
 21
126.414688
  0
ARC
  8
0
  6
CONTINUOUS
 10
235.289536
 20
27.414686
 40
2.000000
 50
0.000000
 51
90.000000
  0
LINE
  8
0
  6
CONTINUOUS
 10
231.539536
 20
29.414686
 11
235.289536
 21
29.414686
  0
ARC
  8
0
  6
CONTINUOUS
 10
231.539536
 20
31.414688
 40
2.000000
 50
-90.000000
 51
0.000000
  0
ARC
  8
0
  6
CONTINUOUS
 10
232.289551
 20
14.664667
 40
5.000000
 50
0.000000
 51
90.000000
  0
ARC
  8
0
  6
CONTINUOUS
 10
303.727936
 20
22.414686
 40
2.000000
 50
14.036440
 51
90.000000
  0
ARC
  8
0
  6
CONTINUOUS
 10
276.851135
 20
22.414686
 40
2.000000
 50
90.000000
 51
165.963898
  0
LINE
  8
0
  6
CONTINUOUS
 10
309.351135
 20
14.414687
 11
343.289520
 21
14.414687
  0
ARC
  8
0
  6
CONTINUOUS
 10
271.227936
 20
16.414686
 40
2.000000
 50
270.000000
 51
345.963715
  0
LINE
  8
0
  6
CONTINUOUS
 10
309.351135
 20
14.414687
 11
271.227936
 21
14.414687
  0
ARC
  8
0
  6
CONTINUOUS
 10
309.351135
 20
16.414686
 40
2.000000
 50
194.036194
 51
270.000000
  0
ARC
  8
0
  6
CONTINUOUS
 10
274.289520
 20
15.414687
 40
1.000000
 50
-90.000000
 51
0.000000
  0
ARC
  8
0
  6
CONTINUOUS
 10
306.289520
 20
15.414687
 40
1.000000
 50
180.000000
 51
270.000000
  0
CIRCLE
  8
0
  6
CONTINUOUS
 10
290.289520
 20
107.414688
 40
27.500000
  0
ARC
  8
0
  6
CONTINUOUS
 10
290.289520
 20
107.414688
 40
31.750000
 50
7.552697
 51
172.447403
  0
ARC
  8
0
  6
CONTINUOUS
 10
273.539520
 20
65.914688
 40
20.600000
 50
172.447403
 51
270.000000
  0
ARC
  8
0
  6
CONTINUOUS
 10
307.039520
 20
65.914688
 40
20.600000
 50
-90.000000
 51
7.552700
  0
LINE
  8
0
  6
CONTINUOUS
 10
321.764130
 20
111.587845
 11
327.460724
 21
68.622314
  0
LINE
  8
0
  6
CONTINUOUS
 10
253.118332
 20
68.622276
 11
258.814941
 21
111.587791
  0
LINE
  8
0
  6
CONTINUOUS
 10
273.539520
 20
45.314686
 11
307.039520
 21
45.314686
  0
ARC
  8
0
  6
CONTINUOUS
 10
273.539520
 20
65.914688
 40
19.000000
 50
172.447601
 51
270.000000
  0
ARC
  8
0
  6
CONTINUOUS
 10
307.039520
 20
65.914688
 40
19.000000
 50
-90.000000
 51
7.552700
  0
ARC
  8
0
  6
CONTINUOUS
 10
290.289520
 20
107.414688
 40
30.150000
 50
-187.552597
 51
7.552697
  0
LINE
  8
0
  6
CONTINUOUS
 10
254.704330
 20
68.411980
 11
260.401123
 21
111.377510
  0
LINE
  8
0
  6
CONTINUOUS
 10
320.177917
 20
111.377548
 11
325.874725
 21
68.412010
  0
LINE
  8
0
  6
CONTINUOUS
 10
273.539520
 20
46.914688
 11
307.039520
 21
46.914688
  0
LINE
  8
0
  6
CONTINUOUS
 10
279.993134
 20
54.414688
 11
275.832733
 21
54.414688
  0
LINE
  8
0
  6
CONTINUOUS
 10
282.289520
 20
61.383438
 11
282.289520
 21
54.414688
  0
LINE
  8
0
  6
CONTINUOUS
 10
286.289520
 20
63.914688
 11
286.289520
 21
66.414688
  0
LINE
  8
0
  6
CONTINUOUS
 10
294.289520
 20
63.914688
 11
294.289520
 21
66.414688
  0
LINE
  8
0
  6
CONTINUOUS
 10
289.508331
 20
64.945938
 11
289.508331
 21
55.727188
  0
LINE
  8
0
  6
CONTINUOUS
 10
291.008331
 20
64.945938
 11
291.008331
 21
55.727188
  0
LINE
  8
0
  6
CONTINUOUS
 10
298.883331
 20
64.945938
 11
298.883331
 21
55.664688
  0
LINE
  8
0
  6
CONTINUOUS
 10
300.258331
 20
60.024059
 11
300.258331
 21
55.664688
  0
LINE
  8
0
  6
CONTINUOUS
 10
280.391541
 20
64.820938
 11
276.536530
 21
64.820938
  0
LINE
  8
0
  6
CONTINUOUS
 10
276.536530
 20
64.820938
 11
275.633331
 21
63.700935
  0
LINE
  8
0
  6
CONTINUOUS
 10
275.741943
 20
66.414688
 11
274.289520
 21
64.554932
  0
LINE
  8
0
  6
CONTINUOUS
 10
275.633331
 20
56.787609
 11
276.550934
 21
55.820927
  0
LINE
  8
0
  6
CONTINUOUS
 10
274.289520
 20
55.971848
 11
275.832733
 21
54.414688
  0
LINE
  8
0
  6
CONTINUOUS
 10
274.289520
 20
64.554932
 11
274.289520
 21
55.971848
  0
LINE
  8
0
  6
CONTINUOUS
 10
275.633331
 20
63.700935
 11
275.633331
 21
56.787609
  0
LINE
  8
0
  6
CONTINUOUS
 10
281.133331
 20
64.103828
 11
280.376343
 21
64.820938
  0
LINE
  8
0
  6
CONTINUOUS
 10
281.121338
 20
66.414688
 11
282.289520
 21
65.118195
  0
LINE
  8
0
  6
CONTINUOUS
 10
281.133331
 20
63.914688
 11
282.289520
 21
63.914688
  0
LINE
  8
0
  6
CONTINUOUS
 10
275.741943
 20
66.414688
 11
281.121338
 21
66.414688
  0
LINE
  8
0
  6
CONTINUOUS
 10
279.039520
 20
61.383438
 11
282.289520
 21
61.383438
  0
LINE
  8
0
  6
CONTINUOUS
 10
281.133331
 20
60.070938
 11
279.039520
 21
60.070938
  0
LINE
  8
0
  6
CONTINUOUS
 10
278.633331
 20
55.820927
 11
276.550934
 21
55.820927
  0
LINE
  8
0
  6
CONTINUOUS
 10
281.133331
 20
58.820938
 11
281.133331
 21
59.820938
  0
ARC
  8
0
  6
CONTINUOUS
 10
278.633331
 20
58.320930
 40
2.500000
 50
-89.999786
 51
0.000109
  0
LINE
  8
0
  6
CONTINUOUS
 10
281.133331
 20
55.371246
 11
281.133331
 21
54.414688
  0
LINE
  8
0
  6
CONTINUOUS
 10
282.289520
 20
65.118195
 11
282.289520
 21
63.914688
  0
LINE
  8
0
  6
CONTINUOUS
 10
281.133331
 20
60.070938
 11
281.133331
 21
58.320934
  0
LINE
  8
0
  6
CONTINUOUS
 10
279.039520
 20
61.383438
 11
279.039520
 21
60.070938
  0
LINE
  8
0
  6
CONTINUOUS
 10
281.133331
 20
54.414688
 11
282.289520
 21
54.414688
  0
LINE
  8
0
  6
CONTINUOUS
 10
281.133331
 20
55.371246
 11
279.993134
 21
54.414688
  0
LINE
  8
0
  6
CONTINUOUS
 10
291.008331
 20
55.727188
 11
291.508331
 21
55.727188
  0
LINE
  8
0
  6
CONTINUOUS
 10
288.914520
 20
55.727188
 11
288.914520
 21
54.414688
  0
LINE
  8
0
  6
CONTINUOUS
 10
291.508331
 20
55.727188
 11
291.508331
 21
54.414688
  0
LINE
  8
0
  6
CONTINUOUS
 10
293.455139
 20
63.914688
 11
294.289520
 21
63.914688
  0
LINE
  8
0
  6
CONTINUOUS
 10
286.289520
 20
63.914688
 11
287.177521
 21
63.914688
  0
LINE
  8
0
  6
CONTINUOUS
 10
286.289520
 20
66.414688
 11
294.289520
 21
66.414688
  0
LINE
  8
0
  6
CONTINUOUS
 10
288.914520
 20
54.414688
 11
291.508331
 21
54.414688
  0
LINE
  8
0
  6
CONTINUOUS
 10
288.914520
 20
55.727188
 11
289.508331
 21
55.727188
  0
ARC
  8
0
  6
CONTINUOUS
 10
303.086517
 20
63.211563
 40
3.203126
 50
-73.981873
 51
90.003510
  0
ARC
  8
0
  6
CONTINUOUS
 10
303.086517
 20
63.211563
 40
1.954125
 50
-82.585274
 51
62.411850
  0
LINE
  8
0
  6
CONTINUOUS
 10
298.289520
 20
66.414688
 11
303.086517
 21
66.414688
  0
LINE
  8
0
  6
CONTINUOUS
 10
303.338531
 20
61.273777
 11
300.258331
 21
61.273777
  0
LINE
  8
0
  6
CONTINUOUS
 10
298.289520
 20
66.414688
 11
298.289520
 21
64.945938
  0
LINE
  8
0
  6
CONTINUOUS
 10
300.258331
 20
64.945938
 11
300.258331
 21
61.273777
  0
LINE
  8
0
  6
CONTINUOUS
 10
303.970337
 20
60.132797
 11
305.952728
 21
55.664688
  0
LINE
  8
0
  6
CONTINUOUS
 10
302.818726
 20
60.024059
 11
304.694916
 21
55.664688
  0
LINE
  8
0
  6
CONTINUOUS
 10
298.289520
 20
55.664688
 11
298.883331
 21
55.664688
  0
LINE
  8
0
  6
CONTINUOUS
 10
300.258331
 20
55.664688
 11
300.805145
 21
55.664688
  0
LINE
  8
0
  6
CONTINUOUS
 10
300.805145
 20
54.414688
 11
298.289520
 21
54.414688
  0
LINE
  8
0
  6
CONTINUOUS
 10
304.445740
 20
55.664688
 11
304.694916
 21
55.664688
  0
LINE
  8
0
  6
CONTINUOUS
 10
305.952728
 20
55.664688
 11
306.289520
 21
55.664688
  0
LINE
  8
0
  6
CONTINUOUS
 10
304.445740
 20
54.414688
 11
306.289520
 21
54.414688
  0
LINE
  8
0
  6
CONTINUOUS
 10
306.289520
 20
55.664688
 11
306.289520
 21
54.414688
  0
LINE
  8
0
  6
CONTINUOUS
 10
304.445740
 20
55.664688
 11
304.445740
 21
54.414688
  0
LINE
  8
0
  6
CONTINUOUS
 10
300.805145
 20
55.664688
 11
300.805145
 21
54.414688
  0
LINE
  8
0
  6
CONTINUOUS
 10
298.289520
 20
55.664688
 11
298.289520
 21
54.414688
  0
LINE
  8
0
  6
CONTINUOUS
 10
287.607330
 20
64.945938
 11
287.177521
 21
63.914688
  0
LINE
  8
0
  6
CONTINUOUS
 10
293.092743
 20
64.945938
 11
293.455139
 21
63.914688
  0
LINE
  8
0
  6
CONTINUOUS
 10
291.008331
 20
64.945938
 11
293.092743
 21
64.945938
  0
LINE
  8
0
  6
CONTINUOUS
 10
289.508331
 20
64.945938
 11
287.607330
 21
64.945938
  0
LINE
  8
0
  6
CONTINUOUS
 10
300.258331
 20
60.024059
 11
302.818726
 21
60.024059
  0
LINE
  8
0
  6
CONTINUOUS
 10
298.289520
 20
64.945938
 11
298.883331
 21
64.945938
  0
LINE
  8
0
  6
CONTINUOUS
 10
300.258331
 20
64.945938
 11
303.991333
 21
64.943504
  0
LINE
  8
0
  6
CONTINUOUS
 10
281.133331
 20
64.103828
 11
281.133331
 21
63.914688
  0
LINE
  8
0
  6
CONTINUOUS
 10
225.539551
 20
134.414688
 11
225.539536
 21
19.414686
  0
LINE
  8
0
  6
CONTINUOUS
 10
59.539532
 20
103.914665
 11
173.539536
 21
103.914665
  0
LINE
  8
0
  6
CONTINUOUS
 10
59.539532
 20
27.914707
 11
173.539536
 21
27.914707
  0
LINE
  8
0
  6
CONTINUOUS
 10
59.539532
 20
96.163666
 11
165.539536
 21
96.163666
  0
LINE
  8
0
  6
CONTINUOUS
 10
59.539532
 20
35.665707
 11
165.539536
 21
35.665707
  0
LINE
  8
0
  6
CONTINUOUS
 10
165.539536
 20
101.914665
 11
165.539536
 21
29.914686
  0
ARC
  8
0
  6
CONTINUOUS
 10
167.539536
 20
101.914688
 40
2.000000
 50
90.000000
 51
180.000000
  0
ARC
  8
0
  6
CONTINUOUS
 10
167.539536
 20
29.914707
 40
2.000000
 50
180.000000
 51
270.000000
  0
LINE
  8
0
  6
CENTER
 10
535.039551
 20
-13.210333
 11
535.039551
 21
166.339691
  0
LINE
  8
0
  6
CENTER
 10
464.814545
 20
76.914688
 11
603.939514
 21
76.914688
  0
LINE
  8
0
  6
CENTER
 10
433.289520
 20
107.414688
 11
596.912476
 21
107.414688
  0
LINE
  8
0
  6
CONTINUOUS
 10
477.039520
 20
2.414687
 11
510.039520
 21
2.414687
  0
LINE
  8
0
  6
CONTINUOUS
 10
477.039520
 20
13.041087
 11
477.039520
 21
2.414687
  0
LINE
  8
0
  6
CONTINUOUS
 10
593.039551
 20
13.041087
 11
593.039551
 21
2.414687
  0
LINE
  8
0
  6
CONTINUOUS
 10
479.039520
 20
14.414687
 11
500.039520
 21
14.414687
  0
LINE
  8
0
  6
CONTINUOUS
 10
591.039551
 20
14.414687
 11
570.039551
 21
14.414687
  0
LINE
  8
0
  6
CONTINUOUS
 10
503.039520
 20
25.788288
 11
503.039520
 21
149.890610
  0
LINE
  8
0
  6
CONTINUOUS
 10
567.039551
 20
25.788288
 11
567.039551
 21
149.890961
  0
LINE
  8
0
  6
CONTINUOUS
 10
565.074341
 20
151.890671
 11
535.039551
 21
152.414688
  0
LINE
  8
0
  6
CONTINUOUS
 10
505.004517
 20
151.890320
 11
535.039551
 21
152.414688
  0
ARC
  8
0
  6
CONTINUOUS
 10
505.039520
 20
149.890625
 40
2.000000
 50
91.000580
 51
180.000000
  0
ARC
  8
0
  6
CONTINUOUS
 10
565.039551
 20
149.890961
 40
2.000000
 50
0.000000
 51
89.000519
  0
LINE
  8
0
  6
CONTINUOUS
 10
567.039551
 20
17.414686
 11
567.039551
 21
2.414687
  0
ARC
  8
0
  6
CONTINUOUS
 10
570.039551
 20
17.414686
 40
3.000000
 50
180.000000
 51
270.000000
  0
LINE
  8
0
  6
CONTINUOUS
 10
503.039520
 20
17.414686
 11
503.039520
 21
2.414687
  0
ARC
  8
0
  6
CONTINUOUS
 10
500.039520
 20
17.414667
 40
3.000000
 50
-90.000000
 51
0.000000
  0
ARC
  8
0
  6
CONTINUOUS
 10
479.039520
 20
12.414687
 40
2.000000
 50
90.000000
 51
180.000000
  0
ARC
  8
0
  6
CONTINUOUS
 10
591.039551
 20
12.414687
 40
2.000000
 50
0.000000
 51
90.000000
  0
LINE
  8
0
  6
CENTER
 10
490.039520
 20
18.704687
 11
490.039520
 21
-1.695312
  0
LINE
  8
0
  6
CENTER
 10
580.039551
 20
19.724688
 11
580.039551
 21
-2.205313
  0
LINE
  8
0
  6
CONTINUOUS
 10
501.757538
 20
23.921608
 11
478.321533
 21
14.907788
  0
ARC
  8
0
  6
CONTINUOUS
 10
479.039520
 20
13.041107
 40
2.000000
 50
111.037903
 51
180.000000
  0
LINE
  8
0
  6
CONTINUOUS
 10
503.039520
 20
25.788288
 11
503.039520
 21
17.414686
  0
ARC
  8
0
  6
CONTINUOUS
 10
501.039520
 20
25.788288
 40
2.000000
 50
-68.962189
 51
0.000000
  0
LINE
  8
0
  6
CONTINUOUS
 10
568.321533
 20
23.921589
 11
591.757507
 21
14.907788
  0
ARC
  8
0
  6
CONTINUOUS
 10
591.039551
 20
13.041087
 40
2.000000
 50
0.000000
 51
68.962646
  0
LINE
  8
0
  6
CONTINUOUS
 10
567.039551
 20
25.788288
 11
567.039551
 21
17.414686
  0
ARC
  8
0
  6
CONTINUOUS
 10
569.039551
 20
25.788307
 40
2.000000
 50
180.000000
 51
248.962799
  0
LINE
  8
0
  6
CONTINUOUS
 10
487.039520
 20
82.221840
 11
487.039520
 21
132.607529
  0
LINE
  8
0
  6
CONTINUOUS
 10
583.039551
 20
82.221840
 11
583.039551
 21
132.607529
  0
LINE
  8
0
  6
CONTINUOUS
 10
573.039551
 20
49.219528
 11
573.039551
 21
109.484688
  0
LINE
  8
0
  6
CONTINUOUS
 10
497.039520
 20
49.219528
 11
497.039520
 21
109.484688
  0
LINE
  8
0
  6
CONTINUOUS
 10
580.809753
 20
135.506989
 11
569.269348
 21
138.572388
  0
LINE
  8
0
  6
CONTINUOUS
 10
580.809753
 20
79.322388
 11
575.269348
 21
77.850739
  0
LINE
  8
0
  6
CONTINUOUS
 10
570.812561
 20
46.320827
 11
569.266541
 21
45.908546
  0
LINE
  8
0
  6
CONTINUOUS
 10
499.266541
 20
46.320808
 11
500.812531
 21
45.908546
  0
LINE
  8
0
  6
CONTINUOUS
 10
489.269318
 20
79.322380
 11
494.809723
 21
77.850739
  0
LINE
  8
0
  6
CONTINUOUS
 10
489.269318
 20
135.506989
 11
500.809723
 21
138.572388
  0
ARC
  8
0
  6
CONTINUOUS
 10
490.039520
 20
132.607544
 40
3.000000
 50
104.876099
 51
180.000000
  0
ARC
  8
0
  6
CONTINUOUS
 10
490.039520
 20
82.221855
 40
3.000000
 50
180.000000
 51
255.124603
  0
ARC
  8
0
  6
CONTINUOUS
 10
580.039551
 20
132.607529
 40
3.000000
 50
0.000000
 51
75.124413
  0
ARC
  8
0
  6
CONTINUOUS
 10
580.039551
 20
82.221832
 40
3.000000
 50
-75.124207
 51
0.000000
  0
ARC
  8
0
  6
CONTINUOUS
 10
500.039520
 20
49.219547
 40
3.000000
 50
180.000000
 51
255.069000
  0
ARC
  8
0
  6
CONTINUOUS
 10
570.039551
 20
49.219528
 40
3.000000
 50
-75.068420
 51
0.000000
  0
ARC
  8
0
  6
CONTINUOUS
 10
570.039551
 20
141.471863
 40
3.000000
 50
180.000000
 51
255.124603
  0
ARC
  8
0
  6
CONTINUOUS
 10
576.039551
 20
74.951294
 40
3.000000
 50
104.876099
 51
180.000000
  0
ARC
  8
0
  6
CONTINUOUS
 10
570.039551
 20
43.009869
 40
3.000000
 50
104.931801
 51
180.000000
  0
ARC
  8
0
  6
CONTINUOUS
 10
500.039520
 20
43.009850
 40
3.000000
 50
0.000000
 51
75.068779
  0
ARC
  8
0
  6
CONTINUOUS
 10
494.039520
 20
74.951271
 40
3.000000
 50
0.000000
 51
75.124496
  0
ARC
  8
0
  6
CONTINUOUS
 10
500.039520
 20
141.471832
 40
3.000000
 50
-75.124153
 51
0.000000
  0
LINE
  8
0
  6
DASHED
 10
484.539520
 20
14.414687
 11
484.539520
 21
2.414687
  0
LINE
  8
0
  6
DASHED
 10
495.539520
 20
14.414687
 11
495.539520
 21
2.414687
  0
LINE
  8
0
  6
DASHED
 10
574.539551
 20
14.414687
 11
574.539551
 21
2.414687
  0
LINE
  8
0
  6
DASHED
 10
585.539551
 20
14.414687
 11
585.539551
 21
2.414687
  0
LINE
  8
0
  6
CONTINUOUS
 10
505.269531
 20
129.414688
 11
564.939514
 21
129.414688
  0
LINE
  8
0
  6
CONTINUOUS
 10
487.539520
 20
34.414688
 11
487.539520
 21
43.466026
  0
LINE
  8
0
  6
CONTINUOUS
 10
582.539551
 20
34.414688
 11
582.539551
 21
43.466026
  0
LINE
  8
0
  6
CONTINUOUS
 10
492.539520
 20
29.414686
 11
501.570740
 21
29.414686
  0
LINE
  8
0
  6
CONTINUOUS
 10
577.539551
 20
29.414686
 11
568.488159
 21
29.414686
  0
ARC
  8
0
  6
CONTINUOUS
 10
535.039551
 20
76.914688
 40
57.250000
 50
-32.501888
 51
33.025517
  0
ARC
  8
0
  6
CONTINUOUS
 10
535.039551
 20
76.914688
 40
57.250000
 50
160.085907
 51
212.501907
  0
ARC
  8
0
  6
CONTINUOUS
 10
492.539520
 20
34.414688
 40
5.000000
 50
180.000000
 51
270.000000
  0
ARC
  8
0
  6
CONTINUOUS
 10
577.539551
 20
34.414688
 40
5.000000
 50
-90.000000
 51
0.000000
  0
ARC
  8
0
  6
CONTINUOUS
 10
501.590942
 20
24.414686
 40
5.000000
 50
73.928284
 51
90.230461
  0
ARC
  8
0
  6
CONTINUOUS
 10
568.488159
 20
24.414686
 40
5.000000
 50
90.000000
 51
106.071800
  0
ARC
  8
0
  6
CONTINUOUS
 10
482.539520
 20
43.466026
 40
5.000000
 50
0.000000
 51
32.499691
  0
ARC
  8
0
  6
CONTINUOUS
 10
587.539551
 20
43.466026
 40
5.000000
 50
147.498306
 51
180.000000
  0
LINE
  8
0
  6
CONTINUOUS
 10
569.039551
 20
27.914686
 11
567.039551
 21
27.914686
  0
LINE
  8
0
  6
CONTINUOUS
 10
501.039520
 20
27.914686
 11
503.039520
 21
27.914686
  0
ARC
  8
0
  6
CONTINUOUS
 10
569.039551
 20
31.914688
 40
4.000000
 50
270.000000
 51
322.311005
  0
ARC
  8
0
  6
CONTINUOUS
 10
501.039520
 20
31.914688
 40
4.000000
 50
218.645996
 51
270.000000
  0
LINE
  8
0
  6
CONTINUOUS
 10
297.789520
 20
104.414711
 11
297.789520
 21
110.414711
  0
LINE
  8
0
  6
CONTINUOUS
 10
303.789520
 20
104.414726
 11
303.789520
 21
110.414726
  0
LINE
  8
0
  6
CONTINUOUS
 10
303.789520
 20
104.414726
 11
297.789520
 21
104.414711
  0
LINE
  8
0
  6
CONTINUOUS
 10
303.789520
 20
110.414726
 11
297.789520
 21
110.414711
  0
ARC
  8
0
  6
CONTINUOUS
 10
290.289520
 20
107.414688
 40
11.000000
 50
15.826600
 51
344.173401
  0
LINE
  8
0
  6
CONTINUOUS
 10
445.039520
 20
96.414688
 11
445.039520
 21
118.414688
  0
LINE
  8
0
  6
CONTINUOUS
 10
485.039520
 20
118.414688
 11
445.039520
 21
118.414688
  0
LINE
  8
0
  6
CONTINUOUS
 10
485.039520
 20
96.414688
 11
445.039520
 21
96.414688
  0
LINE
  8
0
  6
CONTINUOUS
 10
485.039520
 20
119.914688
 11
485.039520
 21
94.914688
  0
LINE
  8
0
  6
CONTINUOUS
 10
487.039520
 20
119.914688
 11
485.039520
 21
119.914688
  0
LINE
  8
0
  6
CONTINUOUS
 10
487.039520
 20
94.914688
 11
485.039520
 21
94.914688
  0
ARC
  8
0
  6
CONTINUOUS
 10
477.039520
 20
107.414688
 40
3.000000
 50
-90.000000
 51
90.000000
  0
LINE
  8
0
  6
CONTINUOUS
 10
477.039520
 20
110.414688
 11
445.039520
 21
110.414688
  0
LINE
  8
0
  6
CONTINUOUS
 10
477.039520
 20
104.414688
 11
445.039520
 21
104.414688
  0
LINE
  8
0
  6
CENTER
 10
-10.945000
 20
65.914688
 11
258.289520
 21
65.914688
  0
LINE
  8
0
  6
CONTINUOUS
 10
215.126785
 20
105.366943
 11
173.539536
 21
103.914688
  0
LINE
  8
0
  6
CONTINUOUS
 10
225.539536
 20
26.098808
 11
173.539536
 21
27.914686
  0
LINE
  8
0
  6
CONTINUOUS
 10
217.539536
 20
133.414688
 11
217.539536
 21
106.414688
  0
LINE
  8
0
  6
CONTINUOUS
 10
218.539536
 20
134.414688
 11
225.539551
 21
134.414688
  0
LINE
  8
0
  6
CONTINUOUS
 10
220.039536
 20
19.414686
 11
225.539536
 21
19.414686
  0
LINE
  8
0
  6
CONTINUOUS
 10
217.539536
 20
106.914688
 11
217.539536
 21
36.002029
  0
LINE
  8
0
  6
CONTINUOUS
 10
173.539536
 20
103.914688
 11
173.539536
 21
27.914686
  0
LINE
  8
0
  6
CONTINUOUS
 10
216.126404
 20
117.232491
 11
190.182968
 21
104.708076
  0
LINE
  8
0
  6
CENTER
 10
290.289520
 20
390.234070
 11
290.289520
 21
220.050003
  0
LINE
  8
0
  6
CENTER
 10
-10.945000
 20
320.273956
 11
359.628998
 21
320.273956
  0
LINE
  8
0
  6
CONTINUOUS
 10
239.071503
 20
352.273956
 11
337.817474
 21
352.273956
  0
LINE
  8
0
  6
CONTINUOUS
 10
239.071503
 20
288.273956
 11
337.817474
 21
288.273956
  0
LINE
  8
0
  6
CONTINUOUS
 10
333.227631
 20
378.273956
 11
290.289520
 21
378.273956
  0
LINE
  8
0
  6
CONTINUOUS
 10
247.351425
 20
262.273956
 11
279.289520
 21
262.273956
  0
LINE
  8
0
  6
CONTINUOUS
 10
343.289520
 20
320.273956
 11
342.730957
 21
352.273956
  0
LINE
  8
0
  6
CONTINUOUS
 10
338.121613
 20
374.298187
 11
342.730957
 21
352.273956
  0
ARC
  8
0
  6
CONTINUOUS
 10
333.227631
 20
373.273956
 40
5.000000
 50
11.820596
 51
90.000000
  0
LINE
  8
0
  6
CONTINUOUS
 10
343.289520
 20
320.273956
 11
342.730957
 21
288.273956
  0
LINE
  8
0
  6
CONTINUOUS
 10
338.121613
 20
266.249725
 11
342.730957
 21
288.273956
  0
ARC
  8
0
  6
CONTINUOUS
 10
333.227631
 20
267.273956
 40
5.000000
 50
-90.000000
 51
-11.820596
  0
LINE
  8
0
  6
CONTINUOUS
 10
310.289520
 20
290.273956
 11
310.289520
 21
350.273956
  0
LINE
  8
0
  6
CONTINUOUS
 10
270.289520
 20
290.273956
 11
270.289520
 21
350.273956
  0
ARC
  8
0
  6
CONTINUOUS
 10
337.817474
 20
347.273956
 40
5.000000
 50
1.000000
 51
90.000000
  0
ARC
  8
0
  6
CONTINUOUS
 10
337.817474
 20
293.273956
 40
5.000000
 50
270.000000
 51
359.000000
  0
LINE
  8
0
  6
CONTINUOUS
 10
233.616028
 20
265.945435
 11
234.073227
 21
283.404846
  0
LINE
  8
0
  6
CONTINUOUS
 10
225.539536
 20
377.773956
 11
225.539536
 21
262.773956
  0
LINE
  8
0
  6
CONTINUOUS
 10
244.104538
 20
338.273956
 11
244.104538
 21
302.273956
  0
LINE
  8
0
  6
CONTINUOUS
 10
225.539536
 20
377.523956
 11
230.617065
 21
377.523956
  0
LINE
  8
0
  6
CONTINUOUS
 10
230.617065
 20
263.023956
 11
225.539536
 21
263.023956
  0
ARC
  8
0
  6
CONTINUOUS
 10
239.071503
 20
283.273956
 40
5.000000
 50
90.000000
 51
178.500000
  0
ARC
  8
0
  6
CONTINUOUS
 10
230.617065
 20
266.023956
 40
3.000000
 50
270.000000
 51
358.500000
  0
LINE
  8
0
  6
CONTINUOUS
 10
233.616028
 20
374.602478
 11
234.073227
 21
357.143066
  0
ARC
  8
0
  6
CONTINUOUS
 10
239.071503
 20
357.273956
 40
5.000000
 50
-178.500000
 51
-90.000000
  0
ARC
  8
0
  6
CONTINUOUS
 10
230.617065
 20
374.523956
 40
3.000000
 50
-358.500000
 51
-270.000000
  0
LINE
  8
0
  6
CONTINUOUS
 10
242.457458
 20
374.298187
 11
237.878326
 21
352.418427
  0
ARC
  8
0
  6
CONTINUOUS
 10
247.351425
 20
373.273956
 40
5.000000
 50
90.000000
 51
168.179398
  0
LINE
  8
0
  6
CONTINUOUS
 10
242.457458
 20
266.249725
 11
237.878326
 21
288.129517
  0
ARC
  8
0
  6
CONTINUOUS
 10
247.351425
 20
267.273956
 40
5.000000
 50
-168.179398
 51
-90.000000
  0
LINE
  8
0
  6
CENTER
 10
314.839935
 20
275.273956
 11
335.694092
 21
275.273956
  0
LINE
  8
0
  6
CENTER
 10
325.289520
 20
282.831238
 11
325.289520
 21
266.060425
  0
CIRCLE
  8
0
  6
CONTINUOUS
 10
325.289520
 20
275.273956
 40
5.500000
  0
LINE
  8
0
  6
CENTER
 10
265.739136
 20
275.273956
 11
244.884964
 21
275.273956
  0
LINE
  8
0
  6
CENTER
 10
255.289536
 20
282.831238
 11
255.289536
 21
266.060425
  0
CIRCLE
  8
0
  6
CONTINUOUS
 10
255.289536
 20
275.273956
 40
5.500000
  0
LINE
  8
0
  6
CENTER
 10
314.839935
 20
365.273956
 11
335.694092
 21
365.273956
  0
LINE
  8
0
  6
CENTER
 10
325.289520
 20
357.716675
 11
325.289520
 21
374.487488
  0
CIRCLE
  8
0
  6
CONTINUOUS
 10
325.289520
 20
365.273956
 40
5.500000
  0
LINE
  8
0
  6
CENTER
 10
265.739136
 20
365.273956
 11
244.884964
 21
365.273956
  0
LINE
  8
0
  6
CENTER
 10
255.289536
 20
357.716675
 11
255.289536
 21
374.487488
  0
CIRCLE
  8
0
  6
CONTINUOUS
 10
255.289536
 20
365.273956
 40
5.500000
  0
LINE
  8
0
  6
CONTINUOUS
 10
265.096680
 20
272.273956
 11
315.482361
 21
272.273956
  0
LINE
  8
0
  6
CONTINUOUS
 10
320.445770
 20
282.273956
 11
323.732635
 21
282.273956
  0
ARC
  8
0
  6
CONTINUOUS
 10
315.482361
 20
275.273956
 40
3.000000
 50
270.000000
 51
345.124329
  0
LINE
  8
0
  6
CONTINUOUS
 10
326.632080
 20
284.503784
 11
327.041229
 21
286.044128
  0
ARC
  8
0
  6
CONTINUOUS
 10
323.732635
 20
285.273956
 40
3.000000
 50
270.000000
 51
345.124329
  0
ARC
  8
0
  6
CONTINUOUS
 10
329.940674
 20
285.273956
 40
3.000000
 50
90.000000
 51
165.124313
  0
LINE
  8
0
  6
CONTINUOUS
 10
320.445770
 20
282.273956
 11
318.381836
 21
274.503784
  0
LINE
  8
0
  6
CONTINUOUS
 10
253.946976
 20
284.503784
 11
253.537827
 21
286.044128
  0
ARC
  8
0
  6
CONTINUOUS
 10
256.846436
 20
285.273956
 40
3.000000
 50
-165.124313
 51
-90.000000
  0
ARC
  8
0
  6
CONTINUOUS
 10
250.638382
 20
285.273956
 40
3.000000
 50
14.875682
 51
90.000000
  0
LINE
  8
0
  6
CONTINUOUS
 10
260.133270
 20
282.273956
 11
256.846436
 21
282.273956
  0
ARC
  8
0
  6
CONTINUOUS
 10
265.096680
 20
275.273956
 40
3.000000
 50
-165.124313
 51
-90.000000
  0
LINE
  8
0
  6
CONTINUOUS
 10
260.133270
 20
282.273956
 11
262.197235
 21
274.503784
  0
CIRCLE
  8
0
  6
CONTINUOUS
 10
325.289520
 20
365.273956
 40
5.500000
  0
LINE
  8
0
  6
CONTINUOUS
 10
265.096680
 20
368.273956
 11
315.482361
 21
368.273956
  0
LINE
  8
0
  6
CONTINUOUS
 10
320.445770
 20
358.273956
 11
323.732635
 21
358.273956
  0
ARC
  8
0
  6
CONTINUOUS
 10
315.482361
 20
365.273956
 40
3.000000
 50
-345.124329
 51
-270.000000
  0
LINE
  8
0
  6
CONTINUOUS
 10
326.632080
 20
356.044128
 11
327.041229
 21
354.503784
  0
ARC
  8
0
  6
CONTINUOUS
 10
323.732635
 20
355.273956
 40
3.000000
 50
-345.124329
 51
-270.000000
  0
ARC
  8
0
  6
CONTINUOUS
 10
329.940674
 20
355.273956
 40
3.000000
 50
-165.124313
 51
-90.000000
  0
LINE
  8
0
  6
CONTINUOUS
 10
320.445770
 20
358.273956
 11
318.381836
 21
366.044128
  0
LINE
  8
0
  6
CONTINUOUS
 10
253.946976
 20
356.044128
 11
253.537827
 21
354.503784
  0
ARC
  8
0
  6
CONTINUOUS
 10
256.846436
 20
355.273956
 40
3.000000
 50
90.000000
 51
165.124313
  0
ARC
  8
0
  6
CONTINUOUS
 10
250.638382
 20
355.273956
 40
3.000000
 50
-90.000000
 51
-14.875682
  0
LINE
  8
0
  6
CONTINUOUS
 10
260.133270
 20
358.273956
 11
256.846436
 21
358.273956
  0
ARC
  8
0
  6
CONTINUOUS
 10
265.096680
 20
365.273956
 40
3.000000
 50
90.000000
 51
165.124313
  0
LINE
  8
0
  6
CONTINUOUS
 10
260.133270
 20
358.273956
 11
262.197235
 21
366.044128
  0
LINE
  8
0
  6
CONTINUOUS
 10
279.289520
 20
230.273956
 11
303.789520
 21
230.273956
  0
LINE
  8
0
  6
CONTINUOUS
 10
301.289520
 20
270.273956
 11
301.289520
 21
265.273956
  0
LINE
  8
0
  6
CONTINUOUS
 10
279.289520
 20
270.273956
 11
279.289520
 21
230.273956
  0
LINE
  8
0
  6
CONTINUOUS
 10
302.789520
 20
272.273956
 11
302.789520
 21
270.273956
  0
LINE
  8
0
  6
CONTINUOUS
 10
277.789520
 20
272.273956
 11
277.789520
 21
270.273956
  0
LINE
  8
0
  6
CONTINUOUS
 10
277.789520
 20
270.273956
 11
302.789520
 21
270.273956
  0
LINE
  8
0
  6
CONTINUOUS
 10
303.789520
 20
262.273956
 11
333.227631
 21
262.273956
  0
LINE
  8
0
  6
CONTINUOUS
 10
303.789520
 20
265.273956
 11
303.789520
 21
230.273956
  0
LINE
  8
0
  6
CONTINUOUS
 10
300.872528
 20
230.273956
 11
300.872528
 21
265.273956
  0
LINE
  8
0
  6
CONTINUOUS
 10
300.872528
 20
265.273956
 11
303.789520
 21
265.273956
  0
LINE
  8
0
  6
CONTINUOUS
 10
290.289520
 20
378.273956
 11
247.173264
 21
378.273956
  0
LINE
  8
0
  6
CONTINUOUS
 10
225.539536
 20
367.773956
 11
230.872375
 21
367.773956
  0
ARC
  8
0
  6
CONTINUOUS
 10
230.872375
 20
364.773956
 40
3.000000
 50
1.500000
 51
90.000000
  0
LINE
  8
0
  6
CONTINUOUS
 10
233.830002
 20
352.273956
 11
225.539536
 21
352.273956
  0
LINE
  8
0
  6
CONTINUOUS
 10
233.830002
 20
288.273956
 11
225.539536
 21
288.273956
  0
LINE
  8
0
  6
CONTINUOUS
 10
225.539536
 20
272.773956
 11
230.872375
 21
272.773956
  0
ARC
  8
0
  6
CONTINUOUS
 10
230.872375
 20
275.773956
 40
3.000000
 50
-90.000000
 51
-1.500000
  0
LINE
  8
0
  6
CONTINUOUS
 10
511.039520
 20
3.414687
 11
559.039551
 21
3.414687
  0
LINE
  8
0
  6
CONTINUOUS
 10
560.039551
 20
2.414687
 11
559.039551
 21
3.414687
  0
LINE
  8
0
  6
CONTINUOUS
 10
510.039520
 20
2.414687
 11
511.039520
 21
3.414687
  0
LINE
  8
0
  6
CONTINUOUS
 10
560.039551
 20
2.414687
 11
593.039551
 21
2.414687
  0
LINE
  8
0
  6
CONTINUOUS
 10
220.039536
 20
262.773956
 11
225.539536
 21
262.773956
  0
LINE
  8
0
  6
CONTINUOUS
 10
220.039536
 20
377.773956
 11
225.539536
 21
377.773956
  0
LINE
  8
0
  6
CONTINUOUS
 10
217.539536
 20
265.273956
 11
217.539536
 21
375.273956
  0
LINE
  8
0
  6
CONTINUOUS
 10
173.539536
 20
358.273956
 11
173.539536
 21
282.273956
  0
LINE
  8
0
  6
CONTINUOUS
 10
215.126785
 20
359.726227
 11
173.539536
 21
358.273956
  0
LINE
  8
0
  6
CONTINUOUS
 10
215.126785
 20
280.821686
 11
173.539536
 21
282.273956
  0
ARC
  8
0
  6
CONTINUOUS
 10
220.039536
 20
375.273956
 40
2.500000
 50
90.000000
 51
180.000000
  0
ARC
  8
0
  6
CONTINUOUS
 10
220.039536
 20
265.273956
 40
2.500000
 50
180.000000
 51
270.000000
  0
ARC
  8
0
  6
CONTINUOUS
 10
218.539536
 20
133.414688
 40
1.000000
 50
90.000000
 51
180.000000
  0
ARC
  8
0
  6
CONTINUOUS
 10
215.039536
 20
119.483871
 40
2.500000
 50
-64.230675
 51
0.000000
  0
ARC
  8
0
  6
CONTINUOUS
 10
215.039536
 20
107.865425
 40
2.500000
 50
-88.000000
 51
0.000000
  0
ARC
  8
0
  6
CONTINUOUS
 10
189.096100
 20
106.959457
 40
2.500000
 50
272.000000
 51
295.769318
  0
LINE
  8
0
  6
CONTINUOUS
 10
173.539536
 20
358.273956
 11
173.539536
 21
282.273956
  0
LINE
  8
0
  6
CONTINUOUS
 10
59.539654
 20
358.273926
 11
173.539658
 21
358.273926
  0
LINE
  8
0
  6
CONTINUOUS
 10
59.539654
 20
282.273987
 11
173.539658
 21
282.273987
  0
LINE
  8
0
  6
CONTINUOUS
 10
165.539658
 20
356.273926
 11
165.539658
 21
343.273956
  0
ARC
  8
0
  6
CONTINUOUS
 10
167.539658
 20
356.273956
 40
2.000000
 50
90.000000
 51
180.000000
  0
ARC
  8
0
  6
CONTINUOUS
 10
167.539658
 20
284.273987
 40
2.000000
 50
180.000000
 51
270.000000
  0
LINE
  8
0
  6
CONTINUOUS
 10
59.539654
 20
343.273956
 11
165.539658
 21
343.273956
  0
LINE
  8
0
  6
CONTINUOUS
 10
59.539654
 20
297.273956
 11
165.539658
 21
297.273956
  0
LINE
  8
0
  6
CONTINUOUS
 10
165.539658
 20
297.273956
 11
165.539658
 21
284.273956
  0
ARC
  8
0
  6
CONTINUOUS
 10
204.709167
 20
320.273956
 40
15.000000
 50
130.747620
 51
229.252380
  0
LINE
  8
0
  6
CONTINUOUS
 10
216.671356
 20
350.379944
 11
194.918243
 21
331.637848
  0
LINE
  8
0
  6
CONTINUOUS
 10
216.671356
 20
290.167969
 11
194.918243
 21
308.910065
  0
ARC
  8
0
  6
CONTINUOUS
 10
215.039536
 20
352.273926
 40
2.500000
 50
-49.252373
 51
0.000000
  0
ARC
  8
0
  6
CONTINUOUS
 10
215.039536
 20
362.224701
 40
2.500000
 50
-88.000000
 51
0.000000
  0
ARC
  8
0
  6
CONTINUOUS
 10
215.039536
 20
288.273987
 40
2.500000
 50
0.000000
 51
49.252373
  0
ARC
  8
0
  6
CONTINUOUS
 10
215.039536
 20
278.323212
 40
2.500000
 50
0.000000
 51
88.000000
  0
LINE
  8
0
  6
CONTINUOUS
 10
218.664612
 20
33.760689
 11
225.539536
 21
33.760689
  0
LINE
  8
0
  6
CONTINUOUS
 10
217.539536
 20
21.914686
 11
217.539536
 21
23.963951
  0
ARC
  8
0
  6
CONTINUOUS
 10
220.039536
 20
21.914686
 40
2.500000
 50
180.000000
 51
270.000000
  0
ARC
  8
0
  6
CONTINUOUS
 10
215.039536
 20
23.963951
 40
2.500000
 50
0.000000
 51
88.000000
  0
ARC
  8
0
  6
CONTINUOUS
 10
535.039551
 20
76.914688
 40
57.500000
 50
236.002823
 51
236.184402
  0
ARC
  8
0
  6
CONTINUOUS
 10
535.039551
 20
76.914688
 40
57.500000
 50
303.815582
 51
303.997162
  0
ARC
  8
0
  6
CONTINUOUS
 10
535.039551
 20
76.914688
 40
57.500000
 50
-33.997124
 51
33.406792
  0
ARC
  8
0
  6
CONTINUOUS
 10
535.039551
 20
76.914688
 40
57.500000
 50
160.176102
 51
213.997131
  0
LINE
  8
0
  6
CONTINUOUS
 10
59.539654
 20
358.273926
 11
59.539654
 21
327.139954
  0
LINE
  8
0
  6
CONTINUOUS
 10
59.539654
 20
358.273926
 11
50.039654
 21
358.273926
  0
LINE
  8
0
  6
CONTINUOUS
 10
59.539654
 20
282.273926
 11
50.039654
 21
282.273926
  0
LINE
  8
0
  6
CONTINUOUS
 10
59.539654
 20
297.273926
 11
50.039654
 21
297.273926
  0
LINE
  8
0
  6
CONTINUOUS
 10
59.539654
 20
343.273926
 11
50.039654
 21
343.273926
  0
LINE
  8
0
  6
CONTINUOUS
 10
53.039654
 20
314.273926
 11
53.039654
 21
326.273926
  0
LINE
  8
0
  6
CONTINUOUS
 10
60.039654
 20
314.273926
 11
60.039654
 21
326.273926
  0
LINE
  8
0
  6
CONTINUOUS
 10
54.039654
 20
327.273926
 11
59.039654
 21
327.273926
  0
LINE
  8
0
  6
CONTINUOUS
 10
59.039654
 20
313.273926
 11
54.039654
 21
313.273926
  0
ARC
  8
0
  6
CONTINUOUS
 10
59.039654
 20
326.273926
 40
1.000000
 50
0.000000
 51
90.000000
  0
ARC
  8
0
  6
CONTINUOUS
 10
54.039654
 20
326.273926
 40
1.000000
 50
90.000000
 51
180.000000
  0
ARC
  8
0
  6
CONTINUOUS
 10
54.039654
 20
314.273926
 40
1.000000
 50
180.000000
 51
270.000000
  0
ARC
  8
0
  6
CONTINUOUS
 10
59.039654
 20
314.273926
 40
1.000000
 50
-90.000000
 51
0.000000
  0
LINE
  8
0
  6
CONTINUOUS
 10
57.539654
 20
316.773926
 11
57.539654
 21
323.773926
  0
LINE
  8
0
  6
CONTINUOUS
 10
55.539654
 20
316.773926
 11
55.539654
 21
323.773926
  0
ARC
  8
0
  6
CONTINUOUS
 10
56.539654
 20
323.773926
 40
1.000000
 50
90.000000
 51
180.000000
  0
ARC
  8
0
  6
CONTINUOUS
 10
56.539654
 20
323.773926
 40
1.000000
 50
0.000000
 51
90.000000
  0
ARC
  8
0
  6
CONTINUOUS
 10
56.539654
 20
316.773926
 40
1.000000
 50
180.000000
 51
270.000000
  0
ARC
  8
0
  6
CONTINUOUS
 10
56.539654
 20
316.773926
 40
1.000000
 50
-90.000000
 51
0.000000
  0
LINE
  8
0
  6
CONTINUOUS
 10
59.539654
 20
313.407898
 11
59.539654
 21
282.273926
  0
LINE
  8
0
  6
CONTINUOUS
 10
50.039654
 20
280.273926
 11
50.039654
 21
360.273926
  0
LINE
  8
0
  6
CONTINUOUS
 10
6.039653
 20
360.273926
 11
50.039654
 21
360.273926
  0
LINE
  8
0
  6
CONTINUOUS
 10
6.039653
 20
280.273926
 11
50.039654
 21
280.273926
  0
LINE
  8
0
  6
CONTINUOUS
 10
1.039653
 20
285.273926
 11
1.039653
 21
355.273926
  0
ARC
  8
0
  6
CONTINUOUS
 10
6.039653
 20
355.273926
 40
5.000000
 50
90.000000
 51
180.000000
  0
ARC
  8
0
  6
CONTINUOUS
 10
6.039653
 20
285.273926
 40
5.000000
 50
180.000000
 51
270.000000
  0
LINE
  8
0
  6
CONTINUOUS
 10
3.539653
 20
344.273926
 11
50.039654
 21
344.273926
  0
LINE
  8
0
  6
CONTINUOUS
 10
3.539653
 20
294.273926
 11
50.039654
 21
294.273926
  0
LINE
  8
0
  6
CONTINUOUS
 10
50.039532
 20
103.914665
 11
59.539532
 21
103.914665
  0
LINE
  8
0
  6
CONTINUOUS
 10
50.039532
 20
27.914667
 11
59.539532
 21
27.914667
  0
LINE
  8
0
  6
CONTINUOUS
 10
50.039532
 20
25.914667
 11
50.039532
 21
105.914665
  0
LINE
  8
0
  6
CONTINUOUS
 10
60.039532
 20
105.414665
 11
60.039532
 21
103.914665
  0
LINE
  8
0
  6
CONTINUOUS
 10
53.039532
 20
105.414665
 11
53.039532
 21
103.914665
  0
LINE
  8
0
  6
CONTINUOUS
 10
53.039532
 20
105.414665
 11
60.039532
 21
105.414665
  0
LINE
  8
0
  6
CONTINUOUS
 10
57.439522
 20
118.414665
 11
57.439522
 21
105.414665
  0
LINE
  8
0
  6
CONTINUOUS
 10
55.639542
 20
119.039665
 11
55.639542
 21
105.414665
  0
LINE
  8
0
  6
CONTINUOUS
 10
53.839531
 20
116.977165
 11
53.839531
 21
105.414665
  0
LINE
  8
0
  6
CONTINUOUS
 10
59.239532
 20
117.789665
 11
59.239532
 21
105.414665
  0
LINE
  8
0
  6
CONTINUOUS
 10
55.639542
 20
119.039665
 11
57.439522
 21
118.414665
  0
LINE
  8
0
  6
CONTINUOUS
 10
53.839531
 20
116.977165
 11
55.639542
 21
117.602165
  0
LINE
  8
0
  6
CONTINUOUS
 10
59.239532
 20
117.789665
 11
57.440533
 21
117.341965
  0
LINE
  8
0
  6
CONTINUOUS
 10
50.039532
 20
96.163666
 11
59.539532
 21
96.163666
  0
LINE
  8
0
  6
CONTINUOUS
 10
50.039532
 20
35.665668
 11
59.539532
 21
35.665668
  0
LINE
  8
0
  6
CONTINUOUS
 10
6.039531
 20
105.914665
 11
50.039532
 21
105.914665
  0
LINE
  8
0
  6
CONTINUOUS
 10
6.039531
 20
25.914667
 11
50.039532
 21
25.914667
  0
LINE
  8
0
  6
CONTINUOUS
 10
1.039531
 20
30.914667
 11
1.039531
 21
100.914665
  0
ARC
  8
0
  6
CONTINUOUS
 10
6.039531
 20
100.914665
 40
5.000000
 50
90.000000
 51
180.000000
  0
ARC
  8
0
  6
CONTINUOUS
 10
6.039531
 20
30.914667
 40
5.000000
 50
180.000000
 51
270.000000
  0
LINE
  8
0
  6
CONTINUOUS
 10
3.539531
 20
91.914665
 11
50.039532
 21
91.914665
  0
LINE
  8
0
  6
CONTINUOUS
 10
3.539531
 20
41.914665
 11
50.039532
 21
41.914665
  0
LINE
  8
0
  6
CONTINUOUS
 10
59.539532
 20
27.914686
 11
59.539532
 21
103.914665
  0
LINE
  8
0
  6
CONTINUOUS
 10
173.539536
 20
56.514687
 11
217.539536
 21
56.514687
  0
LINE
  8
0
  6
CONTINUOUS
 10
173.539536
 20
46.314690
 11
217.539536
 21
46.314690
  0
TEXT
  8
0
 10
-10.000000
 20
-13.000000
 40
4.000000
 41
1.000000
  1
HLM-22R-300~450-T60
 50
0.000000
  0
ENDSEC
  0
EOF
