  0
SECTION
  2
HEADER
  9
$CLAYER
  8
1
  9
$LTSCALE
 40
3.0
  0
ENDSEC
  0
SECTION
  2
TABLES
  0
TABLE
  2
LTYPE
 70
     4
  0
LTYPE
  2
CONTINUOUS
  3
solid line
 70
    64
 72
    65
 73
     0
 40
0.0
  0
LTYPE
  2
DASHED
  3
__ __ __ __ __ __ __ __ __ __ __ __ __ __ __
 70
    64
 72
    65
 73
     2
 40
0.75
 49
0.5
 49
-0.25
  0
LTYPE
  2
CENTER
  3
____ _ ____ _ ____ _ ____ _ ____ _ ____ _ ____
 70
    64
 72
    65
 73
     4
 40
2.0
 49
1.25
 49
-0.25
 49
0.25
 49
-0.25
  0
LTYPE
  2
PHANTOM
  3
_____ _ _ _____ _ _ _____ _ _ _____ _ _ ____
 70
    64
 72
    65
 73
     6
 40
2.5
 49
1.25
 49
-0.25
 49
0.25
 49
-0.25
 49
0.25
 49
-0.25
  0
ENDTAB
  0
TABLE
  2
LAYER
 70
     1
  0
LAYER
  2
0
 70
    64
 62
     7
  6
CONTINUOUS
  0
ENDTAB
  0
TABLE
  2
STYLE
 70
     1
  0
STYLE
  2
STANDARD
 70
     0
 40
0.000000
 41
1.000000
 50
0.000000
 71
     0
 42
3.000000
  3
txt
  4
BIGFONT
  0
ENDTAB
  0
ENDSEC
  0
SECTION
  2
BLOCKS
  0
ENDSEC
  0
SECTION
  2
ENTITIES
  0
LINE
  8
0
  6
CENTER
 10
143.783752
 20
85.032188
 11
259.649536
 21
85.032188
  0
LINE
  8
0
  6
CENTER
 10
291.649536
 20
167.782181
 11
291.649536
 21
4.282187
  0
LINE
  8
0
  6
CENTER
 10
245.079132
 20
115.532188
 11
336.387512
 21
115.532188
  0
LINE
  8
0
  6
CONTINUOUS
 10
238.649536
 20
10.532187
 11
344.649536
 21
10.532187
  0
LINE
  8
0
  6
CONTINUOUS
 10
273.220123
 20
160.532181
 11
310.078918
 21
160.532181
  0
LINE
  8
0
  6
CONTINUOUS
 10
344.649536
 20
134.922424
 11
344.649536
 21
10.532208
  0
LINE
  8
0
  6
CONTINUOUS
 10
238.649536
 20
35.532188
 11
238.649536
 21
10.532187
  0
LINE
  8
0
  6
CONTINUOUS
 10
226.899536
 20
142.282181
 11
244.522537
 21
142.282181
  0
LINE
  8
0
  6
CONTINUOUS
 10
226.899536
 20
27.782187
 11
233.649551
 21
27.782187
  0
LINE
  8
0
  6
CONTINUOUS
 10
234.899536
 20
39.532188
 11
234.899536
 21
130.532181
  0
LINE
  8
0
  6
CONTINUOUS
 10
342.508545
 20
139.024429
 11
312.937927
 21
159.634171
  0
LINE
  8
0
  6
CONTINUOUS
 10
240.790527
 20
139.024429
 11
270.361145
 21
159.634171
  0
LINE
  8
0
  6
CONTINUOUS
 10
272.587921
 20
22.532187
 11
238.649536
 21
22.532187
  0
LINE
  8
0
  6
CONTINUOUS
 10
278.211121
 20
32.532188
 11
305.087921
 21
32.532188
  0
LINE
  8
0
  6
CONTINUOUS
 10
306.649536
 20
31.094687
 11
306.649536
 21
23.532187
  0
LINE
  8
0
  6
CONTINUOUS
 10
276.649536
 20
30.907187
 11
276.649536
 21
23.532187
  0
LINE
  8
0
  6
CONTINUOUS
 10
274.528320
 20
24.047108
 11
276.270721
 21
31.017267
  0
LINE
  8
0
  6
CONTINUOUS
 10
308.770721
 20
24.047108
 11
307.028320
 21
31.017248
  0
LINE
  8
0
  6
CONTINUOUS
 10
244.649536
 20
21.469687
 11
244.649536
 21
10.532187
  0
LINE
  8
0
  6
CONTINUOUS
 10
338.649536
 20
21.469687
 11
338.649536
 21
10.532187
  0
LINE
  8
0
  6
CENTER
 10
256.649536
 20
26.282187
 11
256.649536
 21
6.282187
  0
LINE
  8
0
  6
CENTER
 10
326.649536
 20
27.282187
 11
326.649536
 21
6.782187
  0
LINE
  8
0
  6
DASHED
 10
251.149536
 20
22.532187
 11
251.149536
 21
10.532187
  0
LINE
  8
0
  6
DASHED
 10
262.149536
 20
22.532187
 11
262.149536
 21
10.532187
  0
LINE
  8
0
  6
DASHED
 10
321.149536
 20
22.532187
 11
321.149536
 21
10.532187
  0
LINE
  8
0
  6
DASHED
 10
332.149536
 20
22.532187
 11
332.149536
 21
10.532187
  0
ARC
  8
0
  6
CONTINUOUS
 10
310.078918
 20
155.532181
 40
5.000000
 50
55.124809
 51
90.000000
  0
ARC
  8
0
  6
CONTINUOUS
 10
273.220123
 20
155.532181
 40
5.000000
 50
90.000000
 51
124.875603
  0
ARC
  8
0
  6
CONTINUOUS
 10
339.649536
 20
134.922424
 40
5.000000
 50
0.000000
 51
55.124851
  0
ARC
  8
0
  6
CONTINUOUS
 10
243.649536
 20
134.922440
 40
5.000000
 50
124.875702
 51
180.000000
  0
LINE
  8
0
  6
CONTINUOUS
 10
226.899536
 20
132.532181
 11
236.649536
 21
132.532181
  0
LINE
  8
0
  6
CONTINUOUS
 10
232.899536
 20
37.532188
 11
226.899536
 21
37.532188
  0
LINE
  8
0
  6
CONTINUOUS
 10
226.899536
 20
116.992188
 11
233.774536
 21
116.992188
  0
LINE
  8
0
  6
CONTINUOUS
 10
226.899536
 20
53.072189
 11
233.899536
 21
53.072189
  0
ARC
  8
0
  6
CONTINUOUS
 10
244.522324
 20
145.282181
 40
3.000000
 50
270.000000
 51
304.875397
  0
ARC
  8
0
  6
CONTINUOUS
 10
232.899551
 20
130.532181
 40
2.000000
 50
0.000000
 51
90.000000
  0
ARC
  8
0
  6
CONTINUOUS
 10
236.649536
 20
134.532181
 40
2.000000
 50
-90.000000
 51
0.000000
  0
LINE
  8
0
  6
CONTINUOUS
 10
238.649551
 20
134.922440
 11
238.649536
 21
134.532181
  0
ARC
  8
0
  6
CONTINUOUS
 10
236.649536
 20
35.532188
 40
2.000000
 50
0.000000
 51
90.000000
  0
LINE
  8
0
  6
CONTINUOUS
 10
232.899536
 20
37.532188
 11
236.649536
 21
37.532188
  0
ARC
  8
0
  6
CONTINUOUS
 10
232.899536
 20
39.532188
 40
2.000000
 50
-90.000000
 51
0.000000
  0
ARC
  8
0
  6
CONTINUOUS
 10
233.649551
 20
22.782167
 40
5.000000
 50
0.000000
 51
90.000000
  0
ARC
  8
0
  6
CONTINUOUS
 10
305.087921
 20
30.532187
 40
2.000000
 50
14.036440
 51
90.000000
  0
ARC
  8
0
  6
CONTINUOUS
 10
278.211121
 20
30.532187
 40
2.000000
 50
90.000000
 51
165.963898
  0
LINE
  8
0
  6
CONTINUOUS
 10
310.711121
 20
22.532187
 11
344.649536
 21
22.532187
  0
ARC
  8
0
  6
CONTINUOUS
 10
272.587921
 20
24.532187
 40
2.000000
 50
270.000000
 51
345.963715
  0
LINE
  8
0
  6
CONTINUOUS
 10
310.711121
 20
22.532187
 11
272.587921
 21
22.532187
  0
ARC
  8
0
  6
CONTINUOUS
 10
310.711121
 20
24.532187
 40
2.000000
 50
194.036194
 51
270.000000
  0
ARC
  8
0
  6
CONTINUOUS
 10
275.649536
 20
23.532187
 40
1.000000
 50
-90.000000
 51
0.000000
  0
ARC
  8
0
  6
CONTINUOUS
 10
307.649536
 20
23.532187
 40
1.000000
 50
180.000000
 51
270.000000
  0
CIRCLE
  8
0
  6
CONTINUOUS
 10
291.649536
 20
115.532188
 40
27.500000
  0
ARC
  8
0
  6
CONTINUOUS
 10
291.649536
 20
115.532188
 40
31.750000
 50
7.552697
 51
172.447403
  0
ARC
  8
0
  6
CONTINUOUS
 10
274.899536
 20
74.032188
 40
20.600000
 50
172.447403
 51
270.000000
  0
ARC
  8
0
  6
CONTINUOUS
 10
308.399536
 20
74.032188
 40
20.600000
 50
-90.000000
 51
7.552700
  0
LINE
  8
0
  6
CONTINUOUS
 10
323.124146
 20
119.705345
 11
328.820740
 21
76.739815
  0
LINE
  8
0
  6
CONTINUOUS
 10
254.478333
 20
76.739777
 11
260.174927
 21
119.705292
  0
LINE
  8
0
  6
CONTINUOUS
 10
274.899536
 20
53.432186
 11
308.399536
 21
53.432186
  0
ARC
  8
0
  6
CONTINUOUS
 10
274.899536
 20
74.032188
 40
19.000000
 50
172.447601
 51
270.000000
  0
ARC
  8
0
  6
CONTINUOUS
 10
308.399536
 20
74.032188
 40
19.000000
 50
-90.000000
 51
7.552700
  0
ARC
  8
0
  6
CONTINUOUS
 10
291.649536
 20
115.532188
 40
30.150000
 50
-187.552597
 51
7.552697
  0
LINE
  8
0
  6
CONTINUOUS
 10
256.064331
 20
76.529480
 11
261.761139
 21
119.495010
  0
LINE
  8
0
  6
CONTINUOUS
 10
321.537933
 20
119.495049
 11
327.234741
 21
76.529510
  0
LINE
  8
0
  6
CONTINUOUS
 10
274.899536
 20
55.032188
 11
308.399536
 21
55.032188
  0
LINE
  8
0
  6
CONTINUOUS
 10
281.353119
 20
62.532188
 11
277.192719
 21
62.532188
  0
LINE
  8
0
  6
CONTINUOUS
 10
283.649536
 20
69.500938
 11
283.649536
 21
62.532188
  0
LINE
  8
0
  6
CONTINUOUS
 10
287.649536
 20
72.032188
 11
287.649536
 21
74.532188
  0
LINE
  8
0
  6
CONTINUOUS
 10
295.649536
 20
72.032188
 11
295.649536
 21
74.532188
  0
LINE
  8
0
  6
CONTINUOUS
 10
290.868317
 20
73.063438
 11
290.868317
 21
63.844688
  0
LINE
  8
0
  6
CONTINUOUS
 10
292.368317
 20
73.063438
 11
292.368317
 21
63.844688
  0
LINE
  8
0
  6
CONTINUOUS
 10
300.243317
 20
73.063438
 11
300.243317
 21
63.782188
  0
LINE
  8
0
  6
CONTINUOUS
 10
301.618317
 20
68.141563
 11
301.618317
 21
63.782188
  0
LINE
  8
0
  6
CONTINUOUS
 10
281.751526
 20
72.938438
 11
277.896545
 21
72.938438
  0
LINE
  8
0
  6
CONTINUOUS
 10
277.896545
 20
72.938438
 11
276.993317
 21
71.818436
  0
LINE
  8
0
  6
CONTINUOUS
 10
277.101929
 20
74.532188
 11
275.649536
 21
72.672424
  0
LINE
  8
0
  6
CONTINUOUS
 10
276.993317
 20
64.905106
 11
277.910919
 21
63.938427
  0
LINE
  8
0
  6
CONTINUOUS
 10
275.649536
 20
64.089348
 11
277.192719
 21
62.532188
  0
LINE
  8
0
  6
CONTINUOUS
 10
275.649536
 20
72.672424
 11
275.649536
 21
64.089348
  0
LINE
  8
0
  6
CONTINUOUS
 10
276.993317
 20
71.818436
 11
276.993317
 21
64.905106
  0
LINE
  8
0
  6
CONTINUOUS
 10
282.493317
 20
72.221329
 11
281.736328
 21
72.938438
  0
LINE
  8
0
  6
CONTINUOUS
 10
282.481323
 20
74.532188
 11
283.649536
 21
73.235695
  0
LINE
  8
0
  6
CONTINUOUS
 10
282.493317
 20
72.032188
 11
283.649536
 21
72.032188
  0
LINE
  8
0
  6
CONTINUOUS
 10
277.101929
 20
74.532188
 11
282.481323
 21
74.532188
  0
LINE
  8
0
  6
CONTINUOUS
 10
280.399536
 20
69.500938
 11
283.649536
 21
69.500938
  0
LINE
  8
0
  6
CONTINUOUS
 10
282.493317
 20
68.188438
 11
280.399536
 21
68.188438
  0
LINE
  8
0
  6
CONTINUOUS
 10
279.993317
 20
63.938427
 11
277.910919
 21
63.938427
  0
LINE
  8
0
  6
CONTINUOUS
 10
282.493317
 20
66.938438
 11
282.493317
 21
67.938438
  0
ARC
  8
0
  6
CONTINUOUS
 10
279.993317
 20
66.438431
 40
2.500000
 50
-89.999786
 51
0.000109
  0
LINE
  8
0
  6
CONTINUOUS
 10
282.493317
 20
63.488747
 11
282.493317
 21
62.532188
  0
LINE
  8
0
  6
CONTINUOUS
 10
283.649536
 20
73.235695
 11
283.649536
 21
72.032188
  0
LINE
  8
0
  6
CONTINUOUS
 10
282.493317
 20
68.188438
 11
282.493317
 21
66.438431
  0
LINE
  8
0
  6
CONTINUOUS
 10
280.399536
 20
69.500938
 11
280.399536
 21
68.188438
  0
LINE
  8
0
  6
CONTINUOUS
 10
282.493317
 20
62.532188
 11
283.649536
 21
62.532188
  0
LINE
  8
0
  6
CONTINUOUS
 10
282.493317
 20
63.488747
 11
281.353119
 21
62.532188
  0
LINE
  8
0
  6
CONTINUOUS
 10
292.368317
 20
63.844688
 11
292.868317
 21
63.844688
  0
LINE
  8
0
  6
CONTINUOUS
 10
290.274536
 20
63.844688
 11
290.274536
 21
62.532188
  0
LINE
  8
0
  6
CONTINUOUS
 10
292.868317
 20
63.844688
 11
292.868317
 21
62.532188
  0
LINE
  8
0
  6
CONTINUOUS
 10
294.815125
 20
72.032188
 11
295.649536
 21
72.032188
  0
LINE
  8
0
  6
CONTINUOUS
 10
287.649536
 20
72.032188
 11
288.537537
 21
72.032188
  0
LINE
  8
0
  6
CONTINUOUS
 10
287.649536
 20
74.532188
 11
295.649536
 21
74.532188
  0
LINE
  8
0
  6
CONTINUOUS
 10
290.274536
 20
62.532188
 11
292.868317
 21
62.532188
  0
LINE
  8
0
  6
CONTINUOUS
 10
290.274536
 20
63.844688
 11
290.868317
 21
63.844688
  0
ARC
  8
0
  6
CONTINUOUS
 10
304.446533
 20
71.329063
 40
3.203126
 50
-73.981873
 51
90.003510
  0
ARC
  8
0
  6
CONTINUOUS
 10
304.446533
 20
71.329063
 40
1.954125
 50
-82.585274
 51
62.411850
  0
LINE
  8
0
  6
CONTINUOUS
 10
299.649536
 20
74.532188
 11
304.446533
 21
74.532188
  0
LINE
  8
0
  6
CONTINUOUS
 10
304.698517
 20
69.391281
 11
301.618317
 21
69.391281
  0
LINE
  8
0
  6
CONTINUOUS
 10
299.649536
 20
74.532188
 11
299.649536
 21
73.063438
  0
LINE
  8
0
  6
CONTINUOUS
 10
301.618317
 20
73.063438
 11
301.618317
 21
69.391281
  0
LINE
  8
0
  6
CONTINUOUS
 10
305.330322
 20
68.250298
 11
307.312744
 21
63.782188
  0
LINE
  8
0
  6
CONTINUOUS
 10
304.178741
 20
68.141563
 11
306.054932
 21
63.782188
  0
LINE
  8
0
  6
CONTINUOUS
 10
299.649536
 20
63.782188
 11
300.243317
 21
63.782188
  0
LINE
  8
0
  6
CONTINUOUS
 10
301.618317
 20
63.782188
 11
302.165131
 21
63.782188
  0
LINE
  8
0
  6
CONTINUOUS
 10
302.165131
 20
62.532188
 11
299.649536
 21
62.532188
  0
LINE
  8
0
  6
CONTINUOUS
 10
305.805725
 20
63.782188
 11
306.054932
 21
63.782188
  0
LINE
  8
0
  6
CONTINUOUS
 10
307.312744
 20
63.782188
 11
307.649536
 21
63.782188
  0
LINE
  8
0
  6
CONTINUOUS
 10
305.805725
 20
62.532188
 11
307.649536
 21
62.532188
  0
LINE
  8
0
  6
CONTINUOUS
 10
307.649536
 20
63.782188
 11
307.649536
 21
62.532188
  0
LINE
  8
0
  6
CONTINUOUS
 10
305.805725
 20
63.782188
 11
305.805725
 21
62.532188
  0
LINE
  8
0
  6
CONTINUOUS
 10
302.165131
 20
63.782188
 11
302.165131
 21
62.532188
  0
LINE
  8
0
  6
CONTINUOUS
 10
299.649536
 20
63.782188
 11
299.649536
 21
62.532188
  0
LINE
  8
0
  6
CONTINUOUS
 10
288.967346
 20
73.063438
 11
288.537537
 21
72.032188
  0
LINE
  8
0
  6
CONTINUOUS
 10
294.452728
 20
73.063438
 11
294.815125
 21
72.032188
  0
LINE
  8
0
  6
CONTINUOUS
 10
292.368317
 20
73.063438
 11
294.452728
 21
73.063438
  0
LINE
  8
0
  6
CONTINUOUS
 10
290.868317
 20
73.063438
 11
288.967346
 21
73.063438
  0
LINE
  8
0
  6
CONTINUOUS
 10
301.618317
 20
68.141563
 11
304.178741
 21
68.141563
  0
LINE
  8
0
  6
CONTINUOUS
 10
299.649536
 20
73.063438
 11
300.243317
 21
73.063438
  0
LINE
  8
0
  6
CONTINUOUS
 10
301.618317
 20
73.063438
 11
305.351318
 21
73.061005
  0
LINE
  8
0
  6
CONTINUOUS
 10
282.493317
 20
72.221329
 11
282.493317
 21
72.032188
  0
LINE
  8
0
  6
CONTINUOUS
 10
226.899551
 20
142.532181
 11
226.899536
 21
27.532187
  0
LINE
  8
0
  6
CONTINUOUS
 10
60.899532
 20
112.032166
 11
174.899536
 21
112.032166
  0
LINE
  8
0
  6
CONTINUOUS
 10
60.899532
 20
36.032207
 11
174.899536
 21
36.032207
  0
LINE
  8
0
  6
CONTINUOUS
 10
60.899532
 20
104.281166
 11
166.899536
 21
104.281166
  0
LINE
  8
0
  6
CONTINUOUS
 10
60.899532
 20
43.783207
 11
166.899536
 21
43.783207
  0
LINE
  8
0
  6
CONTINUOUS
 10
166.899536
 20
110.032166
 11
166.899536
 21
38.032188
  0
ARC
  8
0
  6
CONTINUOUS
 10
168.899536
 20
110.032188
 40
2.000000
 50
90.000000
 51
180.000000
  0
ARC
  8
0
  6
CONTINUOUS
 10
168.899536
 20
38.032207
 40
2.000000
 50
180.000000
 51
270.000000
  0
LINE
  8
0
  6
CENTER
 10
536.399536
 20
-5.092833
 11
536.399536
 21
174.457184
  0
LINE
  8
0
  6
CENTER
 10
466.174530
 20
85.032188
 11
605.299561
 21
85.032188
  0
LINE
  8
0
  6
CENTER
 10
434.649536
 20
115.532188
 11
598.272522
 21
115.532188
  0
LINE
  8
0
  6
CONTINUOUS
 10
478.399536
 20
10.532187
 11
511.399536
 21
10.532187
  0
LINE
  8
0
  6
CONTINUOUS
 10
478.399536
 20
21.158587
 11
478.399536
 21
10.532187
  0
LINE
  8
0
  6
CONTINUOUS
 10
594.399536
 20
21.158587
 11
594.399536
 21
10.532187
  0
LINE
  8
0
  6
CONTINUOUS
 10
480.399536
 20
22.532187
 11
501.399536
 21
22.532187
  0
LINE
  8
0
  6
CONTINUOUS
 10
592.399536
 20
22.532187
 11
571.399536
 21
22.532187
  0
LINE
  8
0
  6
CONTINUOUS
 10
504.399536
 20
33.905788
 11
504.399536
 21
158.008102
  0
LINE
  8
0
  6
CONTINUOUS
 10
568.399536
 20
33.905788
 11
568.399536
 21
158.008469
  0
LINE
  8
0
  6
CONTINUOUS
 10
566.434326
 20
160.008163
 11
536.399536
 21
160.532181
  0
LINE
  8
0
  6
CONTINUOUS
 10
506.364532
 20
160.007828
 11
536.399536
 21
160.532181
  0
ARC
  8
0
  6
CONTINUOUS
 10
506.399536
 20
158.008133
 40
2.000000
 50
91.000580
 51
180.000000
  0
ARC
  8
0
  6
CONTINUOUS
 10
566.399536
 20
158.008469
 40
2.000000
 50
0.000000
 51
89.000519
  0
LINE
  8
0
  6
CONTINUOUS
 10
568.399536
 20
25.532187
 11
568.399536
 21
10.532187
  0
ARC
  8
0
  6
CONTINUOUS
 10
571.399536
 20
25.532187
 40
3.000000
 50
180.000000
 51
270.000000
  0
LINE
  8
0
  6
CONTINUOUS
 10
504.399536
 20
25.532187
 11
504.399536
 21
10.532187
  0
ARC
  8
0
  6
CONTINUOUS
 10
501.399536
 20
25.532167
 40
3.000000
 50
-90.000000
 51
0.000000
  0
ARC
  8
0
  6
CONTINUOUS
 10
480.399536
 20
20.532187
 40
2.000000
 50
90.000000
 51
180.000000
  0
ARC
  8
0
  6
CONTINUOUS
 10
592.399536
 20
20.532187
 40
2.000000
 50
0.000000
 51
90.000000
  0
LINE
  8
0
  6
CENTER
 10
491.399536
 20
26.822187
 11
491.399536
 21
6.422188
  0
LINE
  8
0
  6
CENTER
 10
581.399536
 20
27.842188
 11
581.399536
 21
5.912187
  0
LINE
  8
0
  6
CONTINUOUS
 10
503.117523
 20
32.039108
 11
479.681519
 21
23.025288
  0
ARC
  8
0
  6
CONTINUOUS
 10
480.399536
 20
21.158607
 40
2.000000
 50
111.037903
 51
180.000000
  0
LINE
  8
0
  6
CONTINUOUS
 10
504.399536
 20
33.905788
 11
504.399536
 21
25.532187
  0
ARC
  8
0
  6
CONTINUOUS
 10
502.399536
 20
33.905788
 40
2.000000
 50
-68.962189
 51
0.000000
  0
LINE
  8
0
  6
CONTINUOUS
 10
569.681519
 20
32.039089
 11
593.117554
 21
23.025288
  0
ARC
  8
0
  6
CONTINUOUS
 10
592.399536
 20
21.158587
 40
2.000000
 50
0.000000
 51
68.962646
  0
LINE
  8
0
  6
CONTINUOUS
 10
568.399536
 20
33.905788
 11
568.399536
 21
25.532187
  0
ARC
  8
0
  6
CONTINUOUS
 10
570.399536
 20
33.905807
 40
2.000000
 50
180.000000
 51
248.962799
  0
LINE
  8
0
  6
CONTINUOUS
 10
488.399536
 20
90.339340
 11
488.399536
 21
140.725021
  0
LINE
  8
0
  6
CONTINUOUS
 10
584.399536
 20
90.339340
 11
584.399536
 21
140.725021
  0
LINE
  8
0
  6
CONTINUOUS
 10
574.399536
 20
57.337029
 11
574.399536
 21
117.602188
  0
LINE
  8
0
  6
CONTINUOUS
 10
498.399536
 20
57.337029
 11
498.399536
 21
117.602188
  0
LINE
  8
0
  6
CONTINUOUS
 10
582.169739
 20
143.624481
 11
570.629333
 21
146.689880
  0
LINE
  8
0
  6
CONTINUOUS
 10
582.169739
 20
87.439888
 11
576.629333
 21
85.968231
  0
LINE
  8
0
  6
CONTINUOUS
 10
572.172546
 20
54.438328
 11
570.626526
 21
54.026047
  0
LINE
  8
0
  6
CONTINUOUS
 10
500.626526
 20
54.438309
 11
502.172516
 21
54.026047
  0
LINE
  8
0
  6
CONTINUOUS
 10
490.629333
 20
87.439880
 11
496.169739
 21
85.968231
  0
LINE
  8
0
  6
CONTINUOUS
 10
490.629333
 20
143.624481
 11
502.169739
 21
146.689880
  0
ARC
  8
0
  6
CONTINUOUS
 10
491.399536
 20
140.725052
 40
3.000000
 50
104.876099
 51
180.000000
  0
ARC
  8
0
  6
CONTINUOUS
 10
491.399536
 20
90.339355
 40
3.000000
 50
180.000000
 51
255.124603
  0
ARC
  8
0
  6
CONTINUOUS
 10
581.399536
 20
140.725021
 40
3.000000
 50
0.000000
 51
75.124413
  0
ARC
  8
0
  6
CONTINUOUS
 10
581.399536
 20
90.339333
 40
3.000000
 50
-75.124207
 51
0.000000
  0
ARC
  8
0
  6
CONTINUOUS
 10
501.399536
 20
57.337048
 40
3.000000
 50
180.000000
 51
255.069000
  0
ARC
  8
0
  6
CONTINUOUS
 10
571.399536
 20
57.337029
 40
3.000000
 50
-75.068420
 51
0.000000
  0
ARC
  8
0
  6
CONTINUOUS
 10
571.399536
 20
149.589371
 40
3.000000
 50
180.000000
 51
255.124603
  0
ARC
  8
0
  6
CONTINUOUS
 10
577.399536
 20
83.068794
 40
3.000000
 50
104.876099
 51
180.000000
  0
ARC
  8
0
  6
CONTINUOUS
 10
571.399536
 20
51.127369
 40
3.000000
 50
104.931801
 51
180.000000
  0
ARC
  8
0
  6
CONTINUOUS
 10
501.399536
 20
51.127350
 40
3.000000
 50
0.000000
 51
75.068779
  0
ARC
  8
0
  6
CONTINUOUS
 10
495.399536
 20
83.068771
 40
3.000000
 50
0.000000
 51
75.124496
  0
ARC
  8
0
  6
CONTINUOUS
 10
501.399536
 20
149.589325
 40
3.000000
 50
-75.124153
 51
0.000000
  0
LINE
  8
0
  6
DASHED
 10
485.899536
 20
22.532187
 11
485.899536
 21
10.532187
  0
LINE
  8
0
  6
DASHED
 10
496.899536
 20
22.532187
 11
496.899536
 21
10.532187
  0
LINE
  8
0
  6
DASHED
 10
575.899536
 20
22.532187
 11
575.899536
 21
10.532187
  0
LINE
  8
0
  6
DASHED
 10
586.899536
 20
22.532187
 11
586.899536
 21
10.532187
  0
LINE
  8
0
  6
CONTINUOUS
 10
506.629517
 20
137.532181
 11
566.299561
 21
137.532181
  0
LINE
  8
0
  6
CONTINUOUS
 10
488.899536
 20
42.532188
 11
488.899536
 21
51.583527
  0
LINE
  8
0
  6
CONTINUOUS
 10
583.899536
 20
42.532188
 11
583.899536
 21
51.583527
  0
LINE
  8
0
  6
CONTINUOUS
 10
493.899536
 20
37.532188
 11
502.930725
 21
37.532188
  0
LINE
  8
0
  6
CONTINUOUS
 10
578.899536
 20
37.532188
 11
569.848145
 21
37.532188
  0
ARC
  8
0
  6
CONTINUOUS
 10
536.399536
 20
85.032188
 40
57.250000
 50
-32.501888
 51
33.025517
  0
ARC
  8
0
  6
CONTINUOUS
 10
536.399536
 20
85.032188
 40
57.250000
 50
160.085907
 51
212.501907
  0
ARC
  8
0
  6
CONTINUOUS
 10
493.899536
 20
42.532188
 40
5.000000
 50
180.000000
 51
270.000000
  0
ARC
  8
0
  6
CONTINUOUS
 10
578.899536
 20
42.532188
 40
5.000000
 50
-90.000000
 51
0.000000
  0
ARC
  8
0
  6
CONTINUOUS
 10
502.950928
 20
32.532188
 40
5.000000
 50
73.928284
 51
90.230461
  0
ARC
  8
0
  6
CONTINUOUS
 10
569.848145
 20
32.532188
 40
5.000000
 50
90.000000
 51
106.071800
  0
ARC
  8
0
  6
CONTINUOUS
 10
483.899536
 20
51.583527
 40
5.000000
 50
0.000000
 51
32.499691
  0
ARC
  8
0
  6
CONTINUOUS
 10
588.899536
 20
51.583527
 40
5.000000
 50
147.498306
 51
180.000000
  0
LINE
  8
0
  6
CONTINUOUS
 10
570.399536
 20
36.032188
 11
568.399536
 21
36.032188
  0
LINE
  8
0
  6
CONTINUOUS
 10
502.399536
 20
36.032188
 11
504.399536
 21
36.032188
  0
ARC
  8
0
  6
CONTINUOUS
 10
570.399536
 20
40.032188
 40
4.000000
 50
270.000000
 51
322.311005
  0
ARC
  8
0
  6
CONTINUOUS
 10
502.399536
 20
40.032188
 40
4.000000
 50
218.645996
 51
270.000000
  0
LINE
  8
0
  6
CONTINUOUS
 10
299.149536
 20
112.532211
 11
299.149536
 21
118.532211
  0
LINE
  8
0
  6
CONTINUOUS
 10
305.149536
 20
112.532227
 11
305.149536
 21
118.532227
  0
LINE
  8
0
  6
CONTINUOUS
 10
305.149536
 20
112.532227
 11
299.149536
 21
112.532211
  0
LINE
  8
0
  6
CONTINUOUS
 10
305.149536
 20
118.532227
 11
299.149536
 21
118.532211
  0
ARC
  8
0
  6
CONTINUOUS
 10
291.649536
 20
115.532188
 40
11.000000
 50
15.826600
 51
344.173401
  0
LINE
  8
0
  6
CONTINUOUS
 10
446.399536
 20
104.532188
 11
446.399536
 21
126.532188
  0
LINE
  8
0
  6
CONTINUOUS
 10
486.399536
 20
126.532188
 11
446.399536
 21
126.532188
  0
LINE
  8
0
  6
CONTINUOUS
 10
486.399536
 20
104.532188
 11
446.399536
 21
104.532188
  0
LINE
  8
0
  6
CONTINUOUS
 10
486.399536
 20
128.032181
 11
486.399536
 21
103.032188
  0
LINE
  8
0
  6
CONTINUOUS
 10
488.399536
 20
128.032181
 11
486.399536
 21
128.032181
  0
LINE
  8
0
  6
CONTINUOUS
 10
488.399536
 20
103.032188
 11
486.399536
 21
103.032188
  0
ARC
  8
0
  6
CONTINUOUS
 10
478.399536
 20
115.532188
 40
3.000000
 50
-90.000000
 51
90.000000
  0
LINE
  8
0
  6
CONTINUOUS
 10
478.399536
 20
118.532188
 11
446.399536
 21
118.532188
  0
LINE
  8
0
  6
CONTINUOUS
 10
478.399536
 20
112.532188
 11
446.399536
 21
112.532188
  0
LINE
  8
0
  6
CENTER
 10
-9.585000
 20
74.032188
 11
259.649536
 21
74.032188
  0
LINE
  8
0
  6
CONTINUOUS
 10
216.486786
 20
113.484444
 11
174.899536
 21
112.032188
  0
LINE
  8
0
  6
CONTINUOUS
 10
226.899536
 20
34.216309
 11
174.899536
 21
36.032188
  0
LINE
  8
0
  6
CONTINUOUS
 10
218.899536
 20
141.532181
 11
218.899536
 21
114.532188
  0
LINE
  8
0
  6
CONTINUOUS
 10
219.899536
 20
142.532181
 11
226.899551
 21
142.532181
  0
LINE
  8
0
  6
CONTINUOUS
 10
221.399536
 20
27.532187
 11
226.899536
 21
27.532187
  0
LINE
  8
0
  6
CONTINUOUS
 10
218.899536
 20
115.032188
 11
218.899536
 21
44.119530
  0
LINE
  8
0
  6
CONTINUOUS
 10
174.899536
 20
112.032188
 11
174.899536
 21
36.032188
  0
LINE
  8
0
  6
CONTINUOUS
 10
217.486404
 20
125.349991
 11
191.542969
 21
112.825577
  0
LINE
  8
0
  6
CENTER
 10
291.649536
 20
373.470001
 11
291.649536
 21
203.285934
  0
LINE
  8
0
  6
CENTER
 10
-9.585000
 20
303.509888
 11
360.988983
 21
303.509888
  0
LINE
  8
0
  6
CONTINUOUS
 10
240.431503
 20
335.509888
 11
339.177490
 21
335.509888
  0
LINE
  8
0
  6
CONTINUOUS
 10
240.431503
 20
271.509888
 11
339.177490
 21
271.509888
  0
LINE
  8
0
  6
CONTINUOUS
 10
334.587646
 20
361.509888
 11
291.649536
 21
361.509888
  0
LINE
  8
0
  6
CONTINUOUS
 10
248.711426
 20
245.509903
 11
280.649536
 21
245.509903
  0
LINE
  8
0
  6
CONTINUOUS
 10
344.649536
 20
303.509888
 11
344.090973
 21
335.509888
  0
LINE
  8
0
  6
CONTINUOUS
 10
339.481598
 20
357.534149
 11
344.090973
 21
335.509888
  0
ARC
  8
0
  6
CONTINUOUS
 10
334.587646
 20
356.509888
 40
5.000000
 50
11.820596
 51
90.000000
  0
LINE
  8
0
  6
CONTINUOUS
 10
344.649536
 20
303.509888
 11
344.090973
 21
271.509888
  0
LINE
  8
0
  6
CONTINUOUS
 10
339.481598
 20
249.485657
 11
344.090973
 21
271.509888
  0
ARC
  8
0
  6
CONTINUOUS
 10
334.587646
 20
250.509903
 40
5.000000
 50
-90.000000
 51
-11.820596
  0
LINE
  8
0
  6
CONTINUOUS
 10
311.649536
 20
273.509888
 11
311.649536
 21
333.509888
  0
LINE
  8
0
  6
CONTINUOUS
 10
271.649536
 20
273.509888
 11
271.649536
 21
333.509888
  0
ARC
  8
0
  6
CONTINUOUS
 10
339.177490
 20
330.509888
 40
5.000000
 50
1.000000
 51
90.000000
  0
ARC
  8
0
  6
CONTINUOUS
 10
339.177490
 20
276.509888
 40
5.000000
 50
270.000000
 51
359.000000
  0
LINE
  8
0
  6
CONTINUOUS
 10
234.976028
 20
249.181366
 11
235.433228
 21
266.640778
  0
LINE
  8
0
  6
CONTINUOUS
 10
226.899536
 20
361.009888
 11
226.899536
 21
246.009903
  0
LINE
  8
0
  6
CONTINUOUS
 10
245.464539
 20
321.509888
 11
245.464539
 21
285.509888
  0
LINE
  8
0
  6
CONTINUOUS
 10
226.899536
 20
360.759888
 11
231.977066
 21
360.759888
  0
LINE
  8
0
  6
CONTINUOUS
 10
231.977066
 20
246.259903
 11
226.899536
 21
246.259903
  0
ARC
  8
0
  6
CONTINUOUS
 10
240.431503
 20
266.509888
 40
5.000000
 50
90.000000
 51
178.500000
  0
ARC
  8
0
  6
CONTINUOUS
 10
231.977066
 20
249.259903
 40
3.000000
 50
270.000000
 51
358.500000
  0
LINE
  8
0
  6
CONTINUOUS
 10
234.976028
 20
357.838440
 11
235.433228
 21
340.378998
  0
ARC
  8
0
  6
CONTINUOUS
 10
240.431503
 20
340.509888
 40
5.000000
 50
-178.500000
 51
-90.000000
  0
ARC
  8
0
  6
CONTINUOUS
 10
231.977066
 20
357.759888
 40
3.000000
 50
-358.500000
 51
-270.000000
  0
LINE
  8
0
  6
CONTINUOUS
 10
243.817459
 20
357.534149
 11
239.238327
 21
335.654358
  0
ARC
  8
0
  6
CONTINUOUS
 10
248.711426
 20
356.509888
 40
5.000000
 50
90.000000
 51
168.179398
  0
LINE
  8
0
  6
CONTINUOUS
 10
243.817459
 20
249.485657
 11
239.238327
 21
271.365448
  0
ARC
  8
0
  6
CONTINUOUS
 10
248.711426
 20
250.509903
 40
5.000000
 50
-168.179398
 51
-90.000000
  0
LINE
  8
0
  6
CENTER
 10
316.199921
 20
258.509888
 11
337.054108
 21
258.509888
  0
LINE
  8
0
  6
CENTER
 10
326.649536
 20
266.067200
 11
326.649536
 21
249.296356
  0
CIRCLE
  8
0
  6
CONTINUOUS
 10
326.649536
 20
258.509888
 40
5.500000
  0
LINE
  8
0
  6
CENTER
 10
267.099121
 20
258.509888
 11
246.244965
 21
258.509888
  0
LINE
  8
0
  6
CENTER
 10
256.649536
 20
266.067200
 11
256.649536
 21
249.296356
  0
CIRCLE
  8
0
  6
CONTINUOUS
 10
256.649536
 20
258.509888
 40
5.500000
  0
LINE
  8
0
  6
CENTER
 10
316.199921
 20
348.509888
 11
337.054108
 21
348.509888
  0
LINE
  8
0
  6
CENTER
 10
326.649536
 20
340.952606
 11
326.649536
 21
357.723450
  0
CIRCLE
  8
0
  6
CONTINUOUS
 10
326.649536
 20
348.509888
 40
5.500000
  0
LINE
  8
0
  6
CENTER
 10
267.099121
 20
348.509888
 11
246.244965
 21
348.509888
  0
LINE
  8
0
  6
CENTER
 10
256.649536
 20
340.952606
 11
256.649536
 21
357.723450
  0
CIRCLE
  8
0
  6
CONTINUOUS
 10
256.649536
 20
348.509888
 40
5.500000
  0
LINE
  8
0
  6
CONTINUOUS
 10
266.456696
 20
255.509903
 11
316.842377
 21
255.509903
  0
LINE
  8
0
  6
CONTINUOUS
 10
321.805786
 20
265.509888
 11
325.092621
 21
265.509888
  0
ARC
  8
0
  6
CONTINUOUS
 10
316.842377
 20
258.509888
 40
3.000000
 50
270.000000
 51
345.124329
  0
LINE
  8
0
  6
CONTINUOUS
 10
327.992065
 20
267.739716
 11
328.401245
 21
269.280060
  0
ARC
  8
0
  6
CONTINUOUS
 10
325.092621
 20
268.509888
 40
3.000000
 50
270.000000
 51
345.124329
  0
ARC
  8
0
  6
CONTINUOUS
 10
331.300690
 20
268.509888
 40
3.000000
 50
90.000000
 51
165.124313
  0
LINE
  8
0
  6
CONTINUOUS
 10
321.805786
 20
265.509888
 11
319.741821
 21
257.739716
  0
LINE
  8
0
  6
CONTINUOUS
 10
255.306976
 20
267.739716
 11
254.897827
 21
269.280060
  0
ARC
  8
0
  6
CONTINUOUS
 10
258.206451
 20
268.509888
 40
3.000000
 50
-165.124313
 51
-90.000000
  0
ARC
  8
0
  6
CONTINUOUS
 10
251.998383
 20
268.509888
 40
3.000000
 50
14.875682
 51
90.000000
  0
LINE
  8
0
  6
CONTINUOUS
 10
261.493286
 20
265.509888
 11
258.206451
 21
265.509888
  0
ARC
  8
0
  6
CONTINUOUS
 10
266.456696
 20
258.509888
 40
3.000000
 50
-165.124313
 51
-90.000000
  0
LINE
  8
0
  6
CONTINUOUS
 10
261.493286
 20
265.509888
 11
263.557220
 21
257.739716
  0
CIRCLE
  8
0
  6
CONTINUOUS
 10
326.649536
 20
348.509888
 40
5.500000
  0
LINE
  8
0
  6
CONTINUOUS
 10
266.456696
 20
351.509888
 11
316.842377
 21
351.509888
  0
LINE
  8
0
  6
CONTINUOUS
 10
321.805786
 20
341.509888
 11
325.092621
 21
341.509888
  0
ARC
  8
0
  6
CONTINUOUS
 10
316.842377
 20
348.509888
 40
3.000000
 50
-345.124329
 51
-270.000000
  0
LINE
  8
0
  6
CONTINUOUS
 10
327.992096
 20
339.280060
 11
328.401245
 21
337.739716
  0
ARC
  8
0
  6
CONTINUOUS
 10
325.092621
 20
338.509888
 40
3.000000
 50
-345.124329
 51
-270.000000
  0
ARC
  8
0
  6
CONTINUOUS
 10
331.300690
 20
338.509888
 40
3.000000
 50
-165.124313
 51
-90.000000
  0
LINE
  8
0
  6
CONTINUOUS
 10
321.805786
 20
341.509888
 11
319.741821
 21
349.280060
  0
LINE
  8
0
  6
CONTINUOUS
 10
255.306976
 20
339.280060
 11
254.897827
 21
337.739716
  0
ARC
  8
0
  6
CONTINUOUS
 10
258.206451
 20
338.509888
 40
3.000000
 50
90.000000
 51
165.124313
  0
ARC
  8
0
  6
CONTINUOUS
 10
251.998383
 20
338.509888
 40
3.000000
 50
-90.000000
 51
-14.875682
  0
LINE
  8
0
  6
CONTINUOUS
 10
261.493286
 20
341.509888
 11
258.206451
 21
341.509888
  0
ARC
  8
0
  6
CONTINUOUS
 10
266.456696
 20
348.509888
 40
3.000000
 50
90.000000
 51
165.124313
  0
LINE
  8
0
  6
CONTINUOUS
 10
261.493286
 20
341.509888
 11
263.557220
 21
349.280060
  0
LINE
  8
0
  6
CONTINUOUS
 10
280.649536
 20
213.509903
 11
305.149536
 21
213.509903
  0
LINE
  8
0
  6
CONTINUOUS
 10
302.649536
 20
253.509903
 11
302.649536
 21
248.509903
  0
LINE
  8
0
  6
CONTINUOUS
 10
280.649536
 20
253.509903
 11
280.649536
 21
213.509903
  0
LINE
  8
0
  6
CONTINUOUS
 10
304.149536
 20
255.509903
 11
304.149536
 21
253.509903
  0
LINE
  8
0
  6
CONTINUOUS
 10
279.149536
 20
255.509903
 11
279.149536
 21
253.509903
  0
LINE
  8
0
  6
CONTINUOUS
 10
279.149536
 20
253.509903
 11
304.149536
 21
253.509903
  0
LINE
  8
0
  6
CONTINUOUS
 10
305.149536
 20
245.509903
 11
334.587646
 21
245.509903
  0
LINE
  8
0
  6
CONTINUOUS
 10
305.149536
 20
248.509903
 11
305.149536
 21
213.509903
  0
LINE
  8
0
  6
CONTINUOUS
 10
302.232544
 20
213.509903
 11
302.232544
 21
248.509903
  0
LINE
  8
0
  6
CONTINUOUS
 10
302.232544
 20
248.509903
 11
305.149536
 21
248.509903
  0
LINE
  8
0
  6
CONTINUOUS
 10
291.649536
 20
361.509888
 11
248.533264
 21
361.509888
  0
LINE
  8
0
  6
CONTINUOUS
 10
226.899536
 20
351.009888
 11
232.232376
 21
351.009888
  0
ARC
  8
0
  6
CONTINUOUS
 10
232.232376
 20
348.009888
 40
3.000000
 50
1.500000
 51
90.000000
  0
LINE
  8
0
  6
CONTINUOUS
 10
235.190002
 20
335.509888
 11
226.899536
 21
335.509888
  0
LINE
  8
0
  6
CONTINUOUS
 10
235.190002
 20
271.509888
 11
226.899536
 21
271.509888
  0
LINE
  8
0
  6
CONTINUOUS
 10
226.899536
 20
256.009888
 11
232.232376
 21
256.009888
  0
ARC
  8
0
  6
CONTINUOUS
 10
232.232376
 20
259.009888
 40
3.000000
 50
-90.000000
 51
-1.500000
  0
LINE
  8
0
  6
CONTINUOUS
 10
512.399536
 20
11.532187
 11
560.399536
 21
11.532187
  0
LINE
  8
0
  6
CONTINUOUS
 10
561.399536
 20
10.532187
 11
560.399536
 21
11.532187
  0
LINE
  8
0
  6
CONTINUOUS
 10
511.399536
 20
10.532187
 11
512.399536
 21
11.532187
  0
LINE
  8
0
  6
CONTINUOUS
 10
561.399536
 20
10.532187
 11
594.399536
 21
10.532187
  0
LINE
  8
0
  6
CONTINUOUS
 10
221.399536
 20
246.009903
 11
226.899536
 21
246.009903
  0
LINE
  8
0
  6
CONTINUOUS
 10
221.399536
 20
361.009888
 11
226.899536
 21
361.009888
  0
LINE
  8
0
  6
CONTINUOUS
 10
218.899536
 20
248.509903
 11
218.899536
 21
358.509888
  0
LINE
  8
0
  6
CONTINUOUS
 10
174.899536
 20
341.509888
 11
174.899536
 21
265.509888
  0
LINE
  8
0
  6
CONTINUOUS
 10
216.486786
 20
342.962158
 11
174.899536
 21
341.509888
  0
LINE
  8
0
  6
CONTINUOUS
 10
216.486786
 20
264.057648
 11
174.899536
 21
265.509888
  0
ARC
  8
0
  6
CONTINUOUS
 10
221.399536
 20
358.509888
 40
2.500000
 50
90.000000
 51
180.000000
  0
ARC
  8
0
  6
CONTINUOUS
 10
221.399536
 20
248.509903
 40
2.500000
 50
180.000000
 51
270.000000
  0
ARC
  8
0
  6
CONTINUOUS
 10
219.899536
 20
141.532181
 40
1.000000
 50
90.000000
 51
180.000000
  0
ARC
  8
0
  6
CONTINUOUS
 10
216.399536
 20
127.601372
 40
2.500000
 50
-64.230675
 51
0.000000
  0
ARC
  8
0
  6
CONTINUOUS
 10
216.399536
 20
115.982925
 40
2.500000
 50
-88.000000
 51
0.000000
  0
ARC
  8
0
  6
CONTINUOUS
 10
190.456100
 20
115.076958
 40
2.500000
 50
272.000000
 51
295.769318
  0
LINE
  8
0
  6
CONTINUOUS
 10
174.899536
 20
341.509888
 11
174.899536
 21
265.509888
  0
LINE
  8
0
  6
CONTINUOUS
 10
60.899654
 20
341.509888
 11
174.899658
 21
341.509888
  0
LINE
  8
0
  6
CONTINUOUS
 10
60.899654
 20
265.509918
 11
174.899658
 21
265.509918
  0
LINE
  8
0
  6
CONTINUOUS
 10
166.899658
 20
339.509888
 11
166.899658
 21
326.509888
  0
ARC
  8
0
  6
CONTINUOUS
 10
168.899658
 20
339.509888
 40
2.000000
 50
90.000000
 51
180.000000
  0
ARC
  8
0
  6
CONTINUOUS
 10
168.899658
 20
267.509918
 40
2.000000
 50
180.000000
 51
270.000000
  0
LINE
  8
0
  6
CONTINUOUS
 10
101.899643
 20
326.509888
 11
166.899658
 21
326.509888
  0
LINE
  8
0
  6
CONTINUOUS
 10
101.899651
 20
280.509888
 11
166.899658
 21
280.509888
  0
LINE
  8
0
  6
CONTINUOUS
 10
166.899658
 20
280.509888
 11
166.899658
 21
267.509888
  0
ARC
  8
0
  6
CONTINUOUS
 10
206.069168
 20
303.509888
 40
15.000000
 50
130.747620
 51
229.252380
  0
LINE
  8
0
  6
CONTINUOUS
 10
218.031357
 20
333.615875
 11
196.278244
 21
314.873779
  0
LINE
  8
0
  6
CONTINUOUS
 10
218.031357
 20
273.403900
 11
196.278244
 21
292.146027
  0
ARC
  8
0
  6
CONTINUOUS
 10
216.399536
 20
335.509857
 40
2.500000
 50
-49.252373
 51
0.000000
  0
ARC
  8
0
  6
CONTINUOUS
 10
216.399536
 20
345.460632
 40
2.500000
 50
-88.000000
 51
0.000000
  0
ARC
  8
0
  6
CONTINUOUS
 10
216.399536
 20
271.509918
 40
2.500000
 50
0.000000
 51
49.252373
  0
ARC
  8
0
  6
CONTINUOUS
 10
216.399536
 20
261.559174
 40
2.500000
 50
0.000000
 51
88.000000
  0
LINE
  8
0
  6
CONTINUOUS
 10
220.024612
 20
41.878189
 11
226.899536
 21
41.878189
  0
LINE
  8
0
  6
CONTINUOUS
 10
218.899536
 20
30.032187
 11
218.899536
 21
32.081451
  0
ARC
  8
0
  6
CONTINUOUS
 10
221.399536
 20
30.032187
 40
2.500000
 50
180.000000
 51
270.000000
  0
ARC
  8
0
  6
CONTINUOUS
 10
216.399536
 20
32.081451
 40
2.500000
 50
0.000000
 51
88.000000
  0
ARC
  8
0
  6
CONTINUOUS
 10
536.399536
 20
85.032188
 40
57.500000
 50
236.002823
 51
236.184402
  0
ARC
  8
0
  6
CONTINUOUS
 10
536.399536
 20
85.032188
 40
57.500000
 50
303.815582
 51
303.997162
  0
ARC
  8
0
  6
CONTINUOUS
 10
536.399536
 20
85.032188
 40
57.500000
 50
-33.997124
 51
33.406792
  0
ARC
  8
0
  6
CONTINUOUS
 10
536.399536
 20
85.032188
 40
57.500000
 50
160.176102
 51
213.997131
  0
LINE
  8
0
  6
CONTINUOUS
 10
60.899654
 20
341.509888
 11
60.899654
 21
328.509888
  0
LINE
  8
0
  6
CONTINUOUS
 10
60.899654
 20
341.509888
 11
51.399654
 21
341.509888
  0
LINE
  8
0
  6
CONTINUOUS
 10
60.899654
 20
265.509888
 11
51.399654
 21
265.509888
  0
LINE
  8
0
  6
CONTINUOUS
 10
51.899654
 20
280.509888
 11
51.399654
 21
280.509888
  0
LINE
  8
0
  6
CONTINUOUS
 10
51.899654
 20
326.509888
 11
51.399654
 21
326.509888
  0
LINE
  8
0
  6
CONTINUOUS
 10
60.899654
 20
278.509888
 11
60.899654
 21
265.509888
  0
LINE
  8
0
  6
CONTINUOUS
 10
51.399654
 20
263.509888
 11
51.399654
 21
303.509888
  0
LINE
  8
0
  6
CONTINUOUS
 10
7.399653
 20
343.509888
 11
51.399654
 21
343.509888
  0
LINE
  8
0
  6
CONTINUOUS
 10
7.399653
 20
263.509888
 11
51.399654
 21
263.509888
  0
LINE
  8
0
  6
CONTINUOUS
 10
2.399653
 20
268.509888
 11
2.399653
 21
338.509888
  0
ARC
  8
0
  6
CONTINUOUS
 10
7.399653
 20
338.509888
 40
5.000000
 50
90.000000
 51
180.000000
  0
ARC
  8
0
  6
CONTINUOUS
 10
7.399653
 20
268.509888
 40
5.000000
 50
180.000000
 51
270.000000
  0
LINE
  8
0
  6
CONTINUOUS
 10
4.899653
 20
327.509888
 11
51.399654
 21
327.509888
  0
LINE
  8
0
  6
CONTINUOUS
 10
4.899653
 20
277.509888
 11
51.399654
 21
277.509888
  0
LINE
  8
0
  6
CONTINUOUS
 10
51.399532
 20
112.032166
 11
60.899532
 21
112.032166
  0
LINE
  8
0
  6
CONTINUOUS
 10
51.399532
 20
36.032166
 11
60.899532
 21
36.032166
  0
LINE
  8
0
  6
CONTINUOUS
 10
51.399532
 20
34.032166
 11
51.399532
 21
114.032166
  0
LINE
  8
0
  6
CONTINUOUS
 10
51.399532
 20
104.281166
 11
60.899532
 21
104.281166
  0
LINE
  8
0
  6
CONTINUOUS
 10
51.399532
 20
43.783169
 11
60.899532
 21
43.783169
  0
LINE
  8
0
  6
CONTINUOUS
 10
7.399531
 20
114.032166
 11
51.399532
 21
114.032166
  0
LINE
  8
0
  6
CONTINUOUS
 10
7.399531
 20
34.032166
 11
51.399532
 21
34.032166
  0
LINE
  8
0
  6
CONTINUOUS
 10
2.399531
 20
39.032166
 11
2.399531
 21
109.032166
  0
ARC
  8
0
  6
CONTINUOUS
 10
7.399531
 20
109.032166
 40
5.000000
 50
90.000000
 51
180.000000
  0
ARC
  8
0
  6
CONTINUOUS
 10
7.399531
 20
39.032166
 40
5.000000
 50
180.000000
 51
270.000000
  0
LINE
  8
0
  6
CONTINUOUS
 10
4.899531
 20
100.032166
 11
51.399532
 21
100.032166
  0
LINE
  8
0
  6
CONTINUOUS
 10
4.899531
 20
50.032166
 11
51.399532
 21
50.032166
  0
LINE
  8
0
  6
CONTINUOUS
 10
60.899532
 20
36.032188
 11
60.899532
 21
112.032166
  0
LINE
  8
0
  6
CONTINUOUS
 10
51.399654
 20
303.509888
 11
51.399654
 21
343.509888
  0
LINE
  8
0
  6
CONTINUOUS
 10
51.899654
 20
280.509888
 11
51.899654
 21
326.509888
  0
LINE
  8
0
  6
CONTINUOUS
 10
53.899654
 20
328.509888
 11
51.899654
 21
326.509888
  0
LINE
  8
0
  6
CONTINUOUS
 10
53.899654
 20
328.509888
 11
99.899643
 21
328.509888
  0
LINE
  8
0
  6
CONTINUOUS
 10
94.399651
 20
324.009888
 11
94.399651
 21
328.509888
  0
ARC
  8
0
  6
CONTINUOUS
 10
97.399651
 20
324.009888
 40
3.000000
 50
180.000000
 51
270.000000
  0
LINE
  8
0
  6
CONTINUOUS
 10
97.399651
 20
321.009888
 11
101.899643
 21
321.009888
  0
CIRCLE
  8
0
  6
CONTINUOUS
 10
98.399651
 20
325.009888
 40
2.250000
  0
LINE
  8
0
  6
CONTINUOUS
 10
101.899651
 20
280.509888
 11
101.899643
 21
326.509888
  0
LINE
  8
0
  6
CONTINUOUS
 10
99.899643
 20
328.509888
 11
101.899643
 21
326.509888
  0
LINE
  8
0
  6
CONTINUOUS
 10
99.899651
 20
278.509888
 11
101.899651
 21
280.509888
  0
LINE
  8
0
  6
CONTINUOUS
 10
99.899651
 20
278.509888
 11
53.899654
 21
278.509888
  0
LINE
  8
0
  6
CONTINUOUS
 10
51.899654
 20
280.509888
 11
53.899654
 21
278.509888
  0
LINE
  8
0
  6
CONTINUOUS
 10
56.399654
 20
286.009888
 11
51.899662
 21
286.009888
  0
CIRCLE
  8
0
  6
CONTINUOUS
 10
55.399654
 20
282.009888
 40
2.250000
  0
ARC
  8
0
  6
CONTINUOUS
 10
56.399654
 20
283.009888
 40
3.000000
 50
0.000000
 51
90.000000
  0
LINE
  8
0
  6
CONTINUOUS
 10
59.399654
 20
283.009888
 11
59.399654
 21
278.509888
  0
LINE
  8
0
  6
CENTER
 10
76.899651
 20
271.044098
 11
76.899651
 21
335.176117
  0
LINE
  8
0
  6
CONTINUOUS
 10
52.899658
 20
286.009888
 11
52.899658
 21
321.009888
  0
LINE
  8
0
  6
CONTINUOUS
 10
94.399651
 20
327.509888
 11
59.399654
 21
327.509888
  0
LINE
  8
0
  6
CONTINUOUS
 10
100.899651
 20
321.009888
 11
100.899651
 21
286.009888
  0
LINE
  8
0
  6
CONTINUOUS
 10
59.399654
 20
279.509888
 11
94.399651
 21
279.509888
  0
LINE
  8
0
  6
CONTINUOUS
 10
56.399654
 20
321.009888
 11
51.899654
 21
321.009888
  0
ARC
  8
0
  6
CONTINUOUS
 10
56.399654
 20
324.009888
 40
3.000000
 50
-90.000000
 51
0.000000
  0
LINE
  8
0
  6
CONTINUOUS
 10
59.399654
 20
324.009888
 11
59.399654
 21
328.509857
  0
CIRCLE
  8
0
  6
CONTINUOUS
 10
55.399654
 20
325.009888
 40
2.250000
  0
ARC
  8
0
  6
CONTINUOUS
 10
97.399651
 20
283.009888
 40
3.000000
 50
90.000000
 51
180.000000
  0
LINE
  8
0
  6
CONTINUOUS
 10
94.399651
 20
283.009888
 11
94.399651
 21
278.509888
  0
LINE
  8
0
  6
CONTINUOUS
 10
97.399651
 20
286.009888
 11
101.899651
 21
286.009888
  0
CIRCLE
  8
0
  6
CONTINUOUS
 10
98.399651
 20
282.009888
 40
2.250000
  0
LINE
  8
0
  6
CONTINUOUS
 10
53.399532
 20
113.532166
 11
99.899529
 21
113.532166
  0
LINE
  8
0
  6
CONTINUOUS
 10
101.899513
 20
157.532166
 11
101.899529
 21
115.532166
  0
LINE
  8
0
  6
CONTINUOUS
 10
51.899532
 20
157.532166
 11
51.899532
 21
115.532166
  0
LINE
  8
0
  6
CONTINUOUS
 10
51.899532
 20
125.532166
 11
101.899529
 21
125.532166
  0
LINE
  8
0
  6
CONTINUOUS
 10
99.899529
 20
113.532166
 11
101.899529
 21
115.532166
  0
LINE
  8
0
  6
CONTINUOUS
 10
51.899532
 20
115.532166
 11
53.899532
 21
113.532166
  0
LINE
  8
0
  6
CONTINUOUS
 10
51.899532
 20
115.532166
 11
101.899529
 21
115.532166
  0
LINE
  8
0
  6
CONTINUOUS
 10
51.899532
 20
126.532166
 11
101.899513
 21
126.532166
  0
LINE
  8
0
  6
CONTINUOUS
 10
52.899532
 20
158.532166
 11
100.899513
 21
158.532166
  0
LINE
  8
0
  6
CONTINUOUS
 10
100.899513
 20
158.532166
 11
101.899513
 21
157.532166
  0
LINE
  8
0
  6
CONTINUOUS
 10
52.899532
 20
158.532166
 11
51.899532
 21
157.532166
  0
LINE
  8
0
  6
CONTINUOUS
 10
51.899532
 20
157.532166
 11
101.899513
 21
157.532166
  0
LINE
  8
0
  6
CENTER
 10
76.899529
 20
107.142654
 11
76.899529
 21
164.834671
  0
LINE
  8
0
  6
CENTER
 10
49.524532
 20
141.532166
 11
54.149532
 21
141.532166
  0
LINE
  8
0
  6
CONTINUOUS
 10
53.399532
 20
113.532166
 11
53.399532
 21
112.032166
  0
LINE
  8
0
  6
CONTINUOUS
 10
99.399529
 20
113.532166
 11
99.399529
 21
112.032166
  0
LINE
  8
0
  6
CONTINUOUS
 10
51.024532
 20
152.032166
 11
53.024532
 21
152.032166
  0
LINE
  8
0
  6
CONTINUOUS
 10
51.024532
 20
131.032166
 11
53.024532
 21
131.032166
  0
LINE
  8
0
  6
CONTINUOUS
 10
174.899536
 20
64.632187
 11
218.899536
 21
64.632187
  0
LINE
  8
0
  6
CONTINUOUS
 10
174.899536
 20
54.432186
 11
218.899536
 21
54.432186
  0
TEXT
  8
0
 10
-9.000000
 20
-5.000000
 40
4.000000
 41
1.000000
  1
HLM-22R-300~450-T60K
 50
0.000000
  0
ENDSEC
  0
EOF
