  0
SECTION
  2
HEADER
  9
$CLAYER
  8
1
  9
$LTSCALE
 40
3.0
  0
ENDSEC
  0
SECTION
  2
TABLES
  0
TABLE
  2
LTYPE
 70
     4
  0
LTYPE
  2
CONTINUOUS
  3
solid line
 70
    64
 72
    65
 73
     0
 40
0.0
  0
LTYPE
  2
DASHED
  3
__ __ __ __ __ __ __ __ __ __ __ __ __ __ __
 70
    64
 72
    65
 73
     2
 40
0.75
 49
0.5
 49
-0.25
  0
LTYPE
  2
CENTER
  3
____ _ ____ _ ____ _ ____ _ ____ _ ____ _ ____
 70
    64
 72
    65
 73
     4
 40
2.0
 49
1.25
 49
-0.25
 49
0.25
 49
-0.25
  0
LTYPE
  2
PHANTOM
  3
_____ _ _ _____ _ _ _____ _ _ _____ _ _ ____
 70
    64
 72
    65
 73
     6
 40
2.5
 49
1.25
 49
-0.25
 49
0.25
 49
-0.25
 49
0.25
 49
-0.25
  0
ENDTAB
  0
TABLE
  2
LAYER
 70
     1
  0
LAYER
  2
0
 70
    64
 62
     7
  6
CONTINUOUS
  0
ENDTAB
  0
TABLE
  2
STYLE
 70
     1
  0
STYLE
  2
STANDARD
 70
     0
 40
0.000000
 41
1.000000
 50
0.000000
 71
     0
 42
3.000000
  3
txt
  4
BIGFONT
  0
ENDTAB
  0
ENDSEC
  0
SECTION
  2
BLOCKS
  0
ENDSEC
  0
SECTION
  2
ENTITIES
  0
LINE
  8
0
  6
CENTER
 10
99.014999
 20
84.389687
 11
219.614532
 21
84.389687
  0
LINE
  8
0
  6
CENTER
 10
251.614532
 20
167.139694
 11
251.614532
 21
3.639687
  0
LINE
  8
0
  6
CENTER
 10
205.044128
 20
114.889687
 11
296.352509
 21
114.889687
  0
LINE
  8
0
  6
CONTINUOUS
 10
198.614532
 20
9.889687
 11
304.614532
 21
9.889687
  0
LINE
  8
0
  6
CONTINUOUS
 10
233.185135
 20
159.889694
 11
270.043945
 21
159.889694
  0
LINE
  8
0
  6
CONTINUOUS
 10
304.614532
 20
134.279922
 11
304.614532
 21
9.889708
  0
LINE
  8
0
  6
CONTINUOUS
 10
198.614532
 20
34.889687
 11
198.614532
 21
9.889687
  0
LINE
  8
0
  6
CONTINUOUS
 10
186.864532
 20
141.639694
 11
204.487534
 21
141.639694
  0
LINE
  8
0
  6
CONTINUOUS
 10
186.864532
 20
27.139687
 11
193.614548
 21
27.139687
  0
LINE
  8
0
  6
CONTINUOUS
 10
194.864532
 20
38.889687
 11
194.864532
 21
129.889694
  0
LINE
  8
0
  6
CONTINUOUS
 10
302.473541
 20
138.381927
 11
272.902924
 21
158.991669
  0
LINE
  8
0
  6
CONTINUOUS
 10
200.755524
 20
138.381927
 11
230.326126
 21
158.991669
  0
LINE
  8
0
  6
CONTINUOUS
 10
232.552933
 20
21.889687
 11
198.614532
 21
21.889687
  0
LINE
  8
0
  6
CONTINUOUS
 10
238.176132
 20
31.889687
 11
265.052917
 21
31.889687
  0
LINE
  8
0
  6
CONTINUOUS
 10
266.614532
 20
30.452187
 11
266.614532
 21
22.889687
  0
LINE
  8
0
  6
CONTINUOUS
 10
236.614532
 20
30.264687
 11
236.614532
 21
22.889687
  0
LINE
  8
0
  6
CONTINUOUS
 10
234.493332
 20
23.404608
 11
236.235733
 21
30.374767
  0
LINE
  8
0
  6
CONTINUOUS
 10
268.735718
 20
23.404608
 11
266.993317
 21
30.374748
  0
LINE
  8
0
  6
CONTINUOUS
 10
204.614532
 20
20.827187
 11
204.614532
 21
9.889687
  0
LINE
  8
0
  6
CONTINUOUS
 10
298.614532
 20
20.827187
 11
298.614532
 21
9.889687
  0
LINE
  8
0
  6
CENTER
 10
216.614532
 20
25.639687
 11
216.614532
 21
5.639687
  0
LINE
  8
0
  6
CENTER
 10
286.614532
 20
26.639687
 11
286.614532
 21
6.139687
  0
LINE
  8
0
  6
DASHED
 10
211.114532
 20
21.889687
 11
211.114532
 21
9.889687
  0
LINE
  8
0
  6
DASHED
 10
222.114532
 20
21.889687
 11
222.114532
 21
9.889687
  0
LINE
  8
0
  6
DASHED
 10
281.114532
 20
21.889687
 11
281.114532
 21
9.889687
  0
LINE
  8
0
  6
DASHED
 10
292.114532
 20
21.889687
 11
292.114532
 21
9.889687
  0
ARC
  8
0
  6
CONTINUOUS
 10
270.043945
 20
154.889694
 40
5.000000
 50
55.124809
 51
90.000000
  0
ARC
  8
0
  6
CONTINUOUS
 10
233.185135
 20
154.889694
 40
5.000000
 50
90.000000
 51
124.875603
  0
ARC
  8
0
  6
CONTINUOUS
 10
299.614532
 20
134.279922
 40
5.000000
 50
0.000000
 51
55.124851
  0
ARC
  8
0
  6
CONTINUOUS
 10
203.614532
 20
134.279953
 40
5.000000
 50
124.875702
 51
180.000000
  0
LINE
  8
0
  6
CONTINUOUS
 10
186.864532
 20
131.889694
 11
196.614532
 21
131.889694
  0
LINE
  8
0
  6
CONTINUOUS
 10
192.864532
 20
36.889687
 11
186.864532
 21
36.889687
  0
LINE
  8
0
  6
CONTINUOUS
 10
186.864532
 20
116.349686
 11
193.739532
 21
116.349686
  0
LINE
  8
0
  6
CONTINUOUS
 10
186.864532
 20
52.429688
 11
193.864532
 21
52.429688
  0
ARC
  8
0
  6
CONTINUOUS
 10
204.487335
 20
144.639694
 40
3.000000
 50
270.000000
 51
304.875397
  0
ARC
  8
0
  6
CONTINUOUS
 10
192.864548
 20
129.889694
 40
2.000000
 50
0.000000
 51
90.000000
  0
ARC
  8
0
  6
CONTINUOUS
 10
196.614532
 20
133.889694
 40
2.000000
 50
-90.000000
 51
0.000000
  0
LINE
  8
0
  6
CONTINUOUS
 10
198.614548
 20
134.279953
 11
198.614532
 21
133.889694
  0
ARC
  8
0
  6
CONTINUOUS
 10
196.614532
 20
34.889687
 40
2.000000
 50
0.000000
 51
90.000000
  0
LINE
  8
0
  6
CONTINUOUS
 10
192.864532
 20
36.889687
 11
196.614532
 21
36.889687
  0
ARC
  8
0
  6
CONTINUOUS
 10
192.864532
 20
38.889687
 40
2.000000
 50
-90.000000
 51
0.000000
  0
ARC
  8
0
  6
CONTINUOUS
 10
193.614548
 20
22.139668
 40
5.000000
 50
0.000000
 51
90.000000
  0
ARC
  8
0
  6
CONTINUOUS
 10
265.052917
 20
29.889687
 40
2.000000
 50
14.036440
 51
90.000000
  0
ARC
  8
0
  6
CONTINUOUS
 10
238.176132
 20
29.889687
 40
2.000000
 50
90.000000
 51
165.963898
  0
LINE
  8
0
  6
CONTINUOUS
 10
270.676117
 20
21.889687
 11
304.614532
 21
21.889687
  0
ARC
  8
0
  6
CONTINUOUS
 10
232.552933
 20
23.889687
 40
2.000000
 50
270.000000
 51
345.963715
  0
LINE
  8
0
  6
CONTINUOUS
 10
270.676117
 20
21.889687
 11
232.552933
 21
21.889687
  0
ARC
  8
0
  6
CONTINUOUS
 10
270.676117
 20
23.889687
 40
2.000000
 50
194.036194
 51
270.000000
  0
ARC
  8
0
  6
CONTINUOUS
 10
235.614532
 20
22.889687
 40
1.000000
 50
-90.000000
 51
0.000000
  0
ARC
  8
0
  6
CONTINUOUS
 10
267.614532
 20
22.889687
 40
1.000000
 50
180.000000
 51
270.000000
  0
CIRCLE
  8
0
  6
CONTINUOUS
 10
251.614532
 20
114.889687
 40
27.500000
  0
ARC
  8
0
  6
CONTINUOUS
 10
251.614532
 20
114.889687
 40
31.750000
 50
7.552697
 51
172.447403
  0
ARC
  8
0
  6
CONTINUOUS
 10
234.864532
 20
73.389687
 40
20.600000
 50
172.447403
 51
270.000000
  0
ARC
  8
0
  6
CONTINUOUS
 10
268.364532
 20
73.389687
 40
20.600000
 50
-90.000000
 51
7.552700
  0
LINE
  8
0
  6
CONTINUOUS
 10
283.089142
 20
119.062851
 11
288.785736
 21
76.097313
  0
LINE
  8
0
  6
CONTINUOUS
 10
214.443329
 20
76.097275
 11
220.139938
 21
119.062790
  0
LINE
  8
0
  6
CONTINUOUS
 10
234.864532
 20
52.789688
 11
268.364532
 21
52.789688
  0
ARC
  8
0
  6
CONTINUOUS
 10
234.864532
 20
73.389687
 40
19.000000
 50
172.447601
 51
270.000000
  0
ARC
  8
0
  6
CONTINUOUS
 10
268.364532
 20
73.389687
 40
19.000000
 50
-90.000000
 51
7.552700
  0
ARC
  8
0
  6
CONTINUOUS
 10
251.614532
 20
114.889687
 40
30.150000
 50
-187.552597
 51
7.552697
  0
LINE
  8
0
  6
CONTINUOUS
 10
216.029327
 20
75.886978
 11
221.726135
 21
118.852509
  0
LINE
  8
0
  6
CONTINUOUS
 10
281.502930
 20
118.852547
 11
287.199738
 21
75.887016
  0
LINE
  8
0
  6
CONTINUOUS
 10
234.864532
 20
54.389687
 11
268.364532
 21
54.389687
  0
LINE
  8
0
  6
CONTINUOUS
 10
241.318130
 20
61.889687
 11
237.157730
 21
61.889687
  0
LINE
  8
0
  6
CONTINUOUS
 10
243.614532
 20
68.858437
 11
243.614532
 21
61.889687
  0
LINE
  8
0
  6
CONTINUOUS
 10
247.614532
 20
71.389687
 11
247.614532
 21
73.889687
  0
LINE
  8
0
  6
CONTINUOUS
 10
255.614532
 20
71.389687
 11
255.614532
 21
73.889687
  0
LINE
  8
0
  6
CONTINUOUS
 10
250.833328
 20
72.420937
 11
250.833328
 21
63.202187
  0
LINE
  8
0
  6
CONTINUOUS
 10
252.333328
 20
72.420937
 11
252.333328
 21
63.202187
  0
LINE
  8
0
  6
CONTINUOUS
 10
260.208344
 20
72.420937
 11
260.208344
 21
63.139687
  0
LINE
  8
0
  6
CONTINUOUS
 10
261.583344
 20
67.499062
 11
261.583344
 21
63.139687
  0
LINE
  8
0
  6
CONTINUOUS
 10
241.716537
 20
72.295937
 11
237.861526
 21
72.295937
  0
LINE
  8
0
  6
CONTINUOUS
 10
237.861526
 20
72.295937
 11
236.958328
 21
71.175934
  0
LINE
  8
0
  6
CONTINUOUS
 10
237.066925
 20
73.889687
 11
235.614532
 21
72.029930
  0
LINE
  8
0
  6
CONTINUOUS
 10
236.958328
 20
64.262611
 11
237.875931
 21
63.295929
  0
LINE
  8
0
  6
CONTINUOUS
 10
235.614532
 20
63.446850
 11
237.157730
 21
61.889687
  0
LINE
  8
0
  6
CONTINUOUS
 10
235.614532
 20
72.029930
 11
235.614532
 21
63.446850
  0
LINE
  8
0
  6
CONTINUOUS
 10
236.958328
 20
71.175934
 11
236.958328
 21
64.262611
  0
LINE
  8
0
  6
CONTINUOUS
 10
242.458328
 20
71.578835
 11
241.701324
 21
72.295937
  0
LINE
  8
0
  6
CONTINUOUS
 10
242.446335
 20
73.889687
 11
243.614532
 21
72.593201
  0
LINE
  8
0
  6
CONTINUOUS
 10
242.458328
 20
71.389687
 11
243.614532
 21
71.389687
  0
LINE
  8
0
  6
CONTINUOUS
 10
237.066925
 20
73.889687
 11
242.446335
 21
73.889687
  0
LINE
  8
0
  6
CONTINUOUS
 10
240.364532
 20
68.858437
 11
243.614532
 21
68.858437
  0
LINE
  8
0
  6
CONTINUOUS
 10
242.458328
 20
67.545937
 11
240.364532
 21
67.545937
  0
LINE
  8
0
  6
CONTINUOUS
 10
239.958328
 20
63.295929
 11
237.875931
 21
63.295929
  0
LINE
  8
0
  6
CONTINUOUS
 10
242.458328
 20
66.295937
 11
242.458328
 21
67.295937
  0
ARC
  8
0
  6
CONTINUOUS
 10
239.958328
 20
65.795929
 40
2.500000
 50
-89.999786
 51
0.000109
  0
LINE
  8
0
  6
CONTINUOUS
 10
242.458328
 20
62.846249
 11
242.458328
 21
61.889687
  0
LINE
  8
0
  6
CONTINUOUS
 10
243.614532
 20
72.593201
 11
243.614532
 21
71.389687
  0
LINE
  8
0
  6
CONTINUOUS
 10
242.458328
 20
67.545937
 11
242.458328
 21
65.795937
  0
LINE
  8
0
  6
CONTINUOUS
 10
240.364532
 20
68.858437
 11
240.364532
 21
67.545937
  0
LINE
  8
0
  6
CONTINUOUS
 10
242.458328
 20
61.889687
 11
243.614532
 21
61.889687
  0
LINE
  8
0
  6
CONTINUOUS
 10
242.458328
 20
62.846249
 11
241.318130
 21
61.889687
  0
LINE
  8
0
  6
CONTINUOUS
 10
252.333328
 20
63.202187
 11
252.833328
 21
63.202187
  0
LINE
  8
0
  6
CONTINUOUS
 10
250.239532
 20
63.202187
 11
250.239532
 21
61.889687
  0
LINE
  8
0
  6
CONTINUOUS
 10
252.833328
 20
63.202187
 11
252.833328
 21
61.889687
  0
LINE
  8
0
  6
CONTINUOUS
 10
254.780136
 20
71.389687
 11
255.614532
 21
71.389687
  0
LINE
  8
0
  6
CONTINUOUS
 10
247.614532
 20
71.389687
 11
248.502533
 21
71.389687
  0
LINE
  8
0
  6
CONTINUOUS
 10
247.614532
 20
73.889687
 11
255.614532
 21
73.889687
  0
LINE
  8
0
  6
CONTINUOUS
 10
250.239532
 20
61.889687
 11
252.833328
 21
61.889687
  0
LINE
  8
0
  6
CONTINUOUS
 10
250.239532
 20
63.202187
 11
250.833328
 21
63.202187
  0
ARC
  8
0
  6
CONTINUOUS
 10
264.411530
 20
70.686562
 40
3.203126
 50
-73.981873
 51
90.003510
  0
ARC
  8
0
  6
CONTINUOUS
 10
264.411530
 20
70.686562
 40
1.954125
 50
-82.585274
 51
62.411850
  0
LINE
  8
0
  6
CONTINUOUS
 10
259.614532
 20
73.889687
 11
264.411530
 21
73.889687
  0
LINE
  8
0
  6
CONTINUOUS
 10
264.663544
 20
68.748779
 11
261.583344
 21
68.748779
  0
LINE
  8
0
  6
CONTINUOUS
 10
259.614532
 20
73.889687
 11
259.614532
 21
72.420937
  0
LINE
  8
0
  6
CONTINUOUS
 10
261.583344
 20
72.420937
 11
261.583344
 21
68.748779
  0
LINE
  8
0
  6
CONTINUOUS
 10
265.295319
 20
67.607796
 11
267.277740
 21
63.139687
  0
LINE
  8
0
  6
CONTINUOUS
 10
264.143738
 20
67.499062
 11
266.019928
 21
63.139687
  0
LINE
  8
0
  6
CONTINUOUS
 10
259.614532
 20
63.139687
 11
260.208344
 21
63.139687
  0
LINE
  8
0
  6
CONTINUOUS
 10
261.583344
 20
63.139687
 11
262.130127
 21
63.139687
  0
LINE
  8
0
  6
CONTINUOUS
 10
262.130127
 20
61.889687
 11
259.614532
 21
61.889687
  0
LINE
  8
0
  6
CONTINUOUS
 10
265.770721
 20
63.139687
 11
266.019928
 21
63.139687
  0
LINE
  8
0
  6
CONTINUOUS
 10
267.277740
 20
63.139687
 11
267.614532
 21
63.139687
  0
LINE
  8
0
  6
CONTINUOUS
 10
265.770721
 20
61.889687
 11
267.614532
 21
61.889687
  0
LINE
  8
0
  6
CONTINUOUS
 10
267.614532
 20
63.139687
 11
267.614532
 21
61.889687
  0
LINE
  8
0
  6
CONTINUOUS
 10
265.770721
 20
63.139687
 11
265.770721
 21
61.889687
  0
LINE
  8
0
  6
CONTINUOUS
 10
262.130127
 20
63.139687
 11
262.130127
 21
61.889687
  0
LINE
  8
0
  6
CONTINUOUS
 10
259.614532
 20
63.139687
 11
259.614532
 21
61.889687
  0
LINE
  8
0
  6
CONTINUOUS
 10
248.932327
 20
72.420937
 11
248.502533
 21
71.389687
  0
LINE
  8
0
  6
CONTINUOUS
 10
254.417725
 20
72.420937
 11
254.780136
 21
71.389687
  0
LINE
  8
0
  6
CONTINUOUS
 10
252.333328
 20
72.420937
 11
254.417725
 21
72.420937
  0
LINE
  8
0
  6
CONTINUOUS
 10
250.833328
 20
72.420937
 11
248.932327
 21
72.420937
  0
LINE
  8
0
  6
CONTINUOUS
 10
261.583344
 20
67.499062
 11
264.143738
 21
67.499062
  0
LINE
  8
0
  6
CONTINUOUS
 10
259.614532
 20
72.420937
 11
260.208344
 21
72.420937
  0
LINE
  8
0
  6
CONTINUOUS
 10
261.583344
 20
72.420937
 11
265.316345
 21
72.418510
  0
LINE
  8
0
  6
CONTINUOUS
 10
242.458328
 20
71.578835
 11
242.458328
 21
71.389687
  0
LINE
  8
0
  6
CONTINUOUS
 10
186.864548
 20
141.889694
 11
186.864532
 21
26.889687
  0
LINE
  8
0
  6
CONTINUOUS
 10
20.864531
 20
35.389709
 11
20.864531
 21
111.389687
  0
LINE
  8
0
  6
CONTINUOUS
 10
20.864531
 20
111.389664
 11
134.864532
 21
111.389664
  0
LINE
  8
0
  6
CONTINUOUS
 10
20.864531
 20
35.389709
 11
134.864532
 21
35.389709
  0
LINE
  8
0
  6
CONTINUOUS
 10
20.864531
 20
103.638664
 11
126.864532
 21
103.638664
  0
LINE
  8
0
  6
CONTINUOUS
 10
20.864531
 20
43.140709
 11
126.864532
 21
43.140709
  0
LINE
  8
0
  6
CONTINUOUS
 10
126.864532
 20
109.389664
 11
126.864532
 21
37.389687
  0
ARC
  8
0
  6
CONTINUOUS
 10
128.864532
 20
109.389687
 40
2.000000
 50
90.000000
 51
180.000000
  0
ARC
  8
0
  6
CONTINUOUS
 10
128.864532
 20
37.389709
 40
2.000000
 50
180.000000
 51
270.000000
  0
LINE
  8
0
  6
CONTINUOUS
 10
0.364531
 20
41.389687
 11
0.364531
 21
105.389687
  0
LINE
  8
0
  6
CONTINUOUS
 10
4.328611
 20
111.389687
 11
20.864531
 21
111.389687
  0
LINE
  8
0
  6
CONTINUOUS
 10
4.328627
 20
35.389687
 11
20.864531
 21
35.389687
  0
LINE
  8
0
  6
CONTINUOUS
 10
0.864531
 20
38.389687
 11
0.864531
 21
108.389687
  0
LINE
  8
0
  6
CONTINUOUS
 10
0.364531
 20
105.389687
 11
0.864531
 21
105.889687
  0
LINE
  8
0
  6
CONTINUOUS
 10
0.364531
 20
41.389687
 11
0.864531
 21
40.889687
  0
LINE
  8
0
  6
CONTINUOUS
 10
1.730544
 20
109.889664
 11
0.864531
 21
108.389687
  0
ARC
  8
0
  6
CONTINUOUS
 10
4.328627
 20
108.389709
 40
3.000000
 50
90.000000
 51
150.000397
  0
LINE
  8
0
  6
CONTINUOUS
 10
1.730544
 20
36.889709
 11
0.864531
 21
38.389687
  0
ARC
  8
0
  6
CONTINUOUS
 10
4.328627
 20
38.389687
 40
3.000000
 50
-150.000397
 51
-90.000000
  0
LINE
  8
0
  6
CONTINUOUS
 10
2.446165
 20
103.638695
 11
20.864531
 21
103.638695
  0
LINE
  8
0
  6
CONTINUOUS
 10
20.864531
 20
43.140690
 11
2.446165
 21
43.140690
  0
LINE
  8
0
  6
CONTINUOUS
 10
21.364531
 20
112.889687
 11
21.364531
 21
111.389687
  0
LINE
  8
0
  6
CONTINUOUS
 10
14.364531
 20
112.889687
 11
14.364531
 21
111.389687
  0
LINE
  8
0
  6
CONTINUOUS
 10
14.364531
 20
112.889687
 11
21.364531
 21
112.889687
  0
LINE
  8
0
  6
CONTINUOUS
 10
18.764524
 20
125.889687
 11
18.764524
 21
112.889687
  0
LINE
  8
0
  6
CONTINUOUS
 10
16.964537
 20
126.514687
 11
16.964537
 21
112.889687
  0
LINE
  8
0
  6
CONTINUOUS
 10
15.164519
 20
124.452187
 11
15.164519
 21
112.889687
  0
LINE
  8
0
  6
CONTINUOUS
 10
20.564531
 20
125.264687
 11
20.564531
 21
112.889687
  0
LINE
  8
0
  6
CONTINUOUS
 10
16.964537
 20
126.514687
 11
18.764524
 21
125.889687
  0
LINE
  8
0
  6
CONTINUOUS
 10
15.164519
 20
124.452187
 11
16.964537
 21
125.077187
  0
LINE
  8
0
  6
CONTINUOUS
 10
20.564531
 20
125.264687
 11
18.765532
 21
124.816986
  0
LINE
  8
0
  6
CENTER
 10
496.364532
 20
-5.735333
 11
496.364532
 21
173.814682
  0
LINE
  8
0
  6
CENTER
 10
426.139526
 20
84.389687
 11
565.264526
 21
84.389687
  0
LINE
  8
0
  6
CENTER
 10
394.614532
 20
114.889687
 11
599.614502
 21
114.889687
  0
LINE
  8
0
  6
CONTINUOUS
 10
438.364532
 20
9.889687
 11
471.364532
 21
9.889687
  0
LINE
  8
0
  6
CONTINUOUS
 10
438.364532
 20
20.516087
 11
438.364532
 21
9.889687
  0
LINE
  8
0
  6
CONTINUOUS
 10
554.364502
 20
20.516087
 11
554.364502
 21
9.889687
  0
LINE
  8
0
  6
CONTINUOUS
 10
440.364532
 20
21.889687
 11
461.364532
 21
21.889687
  0
LINE
  8
0
  6
CONTINUOUS
 10
552.364502
 20
21.889687
 11
531.364502
 21
21.889687
  0
LINE
  8
0
  6
CONTINUOUS
 10
464.364532
 20
33.263287
 11
464.364532
 21
157.365601
  0
LINE
  8
0
  6
CONTINUOUS
 10
528.364502
 20
33.263287
 11
528.364502
 21
157.365967
  0
LINE
  8
0
  6
CONTINUOUS
 10
526.399353
 20
159.365662
 11
496.364532
 21
159.889694
  0
LINE
  8
0
  6
CONTINUOUS
 10
466.329529
 20
159.365326
 11
496.364532
 21
159.889694
  0
ARC
  8
0
  6
CONTINUOUS
 10
466.364532
 20
157.365631
 40
2.000000
 50
91.000580
 51
180.000000
  0
ARC
  8
0
  6
CONTINUOUS
 10
526.364502
 20
157.365967
 40
2.000000
 50
0.000000
 51
89.000519
  0
LINE
  8
0
  6
CONTINUOUS
 10
528.364502
 20
24.889687
 11
528.364502
 21
9.889687
  0
ARC
  8
0
  6
CONTINUOUS
 10
531.364502
 20
24.889687
 40
3.000000
 50
180.000000
 51
270.000000
  0
LINE
  8
0
  6
CONTINUOUS
 10
464.364532
 20
24.889687
 11
464.364532
 21
9.889687
  0
ARC
  8
0
  6
CONTINUOUS
 10
461.364532
 20
24.889668
 40
3.000000
 50
-90.000000
 51
0.000000
  0
ARC
  8
0
  6
CONTINUOUS
 10
440.364532
 20
19.889687
 40
2.000000
 50
90.000000
 51
180.000000
  0
ARC
  8
0
  6
CONTINUOUS
 10
552.364502
 20
19.889687
 40
2.000000
 50
0.000000
 51
90.000000
  0
LINE
  8
0
  6
CENTER
 10
451.364532
 20
26.179688
 11
451.364532
 21
5.779688
  0
LINE
  8
0
  6
CENTER
 10
541.364502
 20
27.199688
 11
541.364502
 21
5.269687
  0
LINE
  8
0
  6
CONTINUOUS
 10
463.082520
 20
31.396608
 11
439.646545
 21
22.382788
  0
ARC
  8
0
  6
CONTINUOUS
 10
440.364532
 20
20.516108
 40
2.000000
 50
111.037903
 51
180.000000
  0
LINE
  8
0
  6
CONTINUOUS
 10
464.364532
 20
33.263287
 11
464.364532
 21
24.889687
  0
ARC
  8
0
  6
CONTINUOUS
 10
462.364532
 20
33.263287
 40
2.000000
 50
-68.962189
 51
0.000000
  0
LINE
  8
0
  6
CONTINUOUS
 10
529.646545
 20
31.396587
 11
553.082520
 21
22.382788
  0
ARC
  8
0
  6
CONTINUOUS
 10
552.364502
 20
20.516087
 40
2.000000
 50
0.000000
 51
68.962646
  0
LINE
  8
0
  6
CONTINUOUS
 10
528.364502
 20
33.263287
 11
528.364502
 21
24.889687
  0
ARC
  8
0
  6
CONTINUOUS
 10
530.364502
 20
33.263309
 40
2.000000
 50
180.000000
 51
248.962799
  0
LINE
  8
0
  6
CONTINUOUS
 10
448.364532
 20
89.696838
 11
448.364532
 21
140.082535
  0
LINE
  8
0
  6
CONTINUOUS
 10
544.364502
 20
89.696838
 11
544.364502
 21
140.082535
  0
LINE
  8
0
  6
CONTINUOUS
 10
534.364502
 20
56.694527
 11
534.364502
 21
116.959686
  0
LINE
  8
0
  6
CONTINUOUS
 10
458.364532
 20
56.694527
 11
458.364532
 21
116.959686
  0
LINE
  8
0
  6
CONTINUOUS
 10
542.134705
 20
142.981995
 11
530.594360
 21
146.047394
  0
LINE
  8
0
  6
CONTINUOUS
 10
542.134705
 20
86.797386
 11
536.594360
 21
85.325737
  0
LINE
  8
0
  6
CONTINUOUS
 10
532.137512
 20
53.795826
 11
530.591553
 21
53.383549
  0
LINE
  8
0
  6
CONTINUOUS
 10
460.591522
 20
53.795807
 11
462.137543
 21
53.383549
  0
LINE
  8
0
  6
CONTINUOUS
 10
450.594330
 20
86.797379
 11
456.134735
 21
85.325737
  0
LINE
  8
0
  6
CONTINUOUS
 10
450.594330
 20
142.981995
 11
462.134735
 21
146.047394
  0
ARC
  8
0
  6
CONTINUOUS
 10
451.364532
 20
140.082550
 40
3.000000
 50
104.876099
 51
180.000000
  0
ARC
  8
0
  6
CONTINUOUS
 10
451.364532
 20
89.696854
 40
3.000000
 50
180.000000
 51
255.124603
  0
ARC
  8
0
  6
CONTINUOUS
 10
541.364502
 20
140.082535
 40
3.000000
 50
0.000000
 51
75.124413
  0
ARC
  8
0
  6
CONTINUOUS
 10
541.364502
 20
89.696838
 40
3.000000
 50
-75.124207
 51
0.000000
  0
ARC
  8
0
  6
CONTINUOUS
 10
461.364532
 20
56.694550
 40
3.000000
 50
180.000000
 51
255.069000
  0
ARC
  8
0
  6
CONTINUOUS
 10
531.364502
 20
56.694527
 40
3.000000
 50
-75.068420
 51
0.000000
  0
ARC
  8
0
  6
CONTINUOUS
 10
531.364502
 20
148.946869
 40
3.000000
 50
180.000000
 51
255.124603
  0
ARC
  8
0
  6
CONTINUOUS
 10
537.364502
 20
82.426300
 40
3.000000
 50
104.876099
 51
180.000000
  0
ARC
  8
0
  6
CONTINUOUS
 10
531.364502
 20
50.484867
 40
3.000000
 50
104.931801
 51
180.000000
  0
ARC
  8
0
  6
CONTINUOUS
 10
461.364532
 20
50.484848
 40
3.000000
 50
0.000000
 51
75.068779
  0
ARC
  8
0
  6
CONTINUOUS
 10
455.364532
 20
82.426270
 40
3.000000
 50
0.000000
 51
75.124496
  0
ARC
  8
0
  6
CONTINUOUS
 10
461.364532
 20
148.946823
 40
3.000000
 50
-75.124153
 51
0.000000
  0
LINE
  8
0
  6
DASHED
 10
445.864532
 20
21.889687
 11
445.864532
 21
9.889687
  0
LINE
  8
0
  6
DASHED
 10
456.864532
 20
21.889687
 11
456.864532
 21
9.889687
  0
LINE
  8
0
  6
DASHED
 10
535.864502
 20
21.889687
 11
535.864502
 21
9.889687
  0
LINE
  8
0
  6
DASHED
 10
546.864502
 20
21.889687
 11
546.864502
 21
9.889687
  0
LINE
  8
0
  6
CONTINUOUS
 10
466.594543
 20
136.889694
 11
526.264526
 21
136.889694
  0
LINE
  8
0
  6
CONTINUOUS
 10
448.864532
 20
41.889687
 11
448.864532
 21
50.941029
  0
LINE
  8
0
  6
CONTINUOUS
 10
543.864502
 20
41.889687
 11
543.864502
 21
50.941029
  0
LINE
  8
0
  6
CONTINUOUS
 10
453.864532
 20
36.889687
 11
462.895721
 21
36.889687
  0
LINE
  8
0
  6
CONTINUOUS
 10
538.864502
 20
36.889687
 11
529.813110
 21
36.889687
  0
ARC
  8
0
  6
CONTINUOUS
 10
496.364532
 20
84.389687
 40
57.250000
 50
-32.501888
 51
19.914110
  0
ARC
  8
0
  6
CONTINUOUS
 10
496.364532
 20
84.389687
 40
57.250000
 50
160.085907
 51
212.501907
  0
ARC
  8
0
  6
CONTINUOUS
 10
453.864532
 20
41.889687
 40
5.000000
 50
180.000000
 51
270.000000
  0
ARC
  8
0
  6
CONTINUOUS
 10
538.864502
 20
41.889687
 40
5.000000
 50
-90.000000
 51
0.000000
  0
ARC
  8
0
  6
CONTINUOUS
 10
462.915924
 20
31.889687
 40
5.000000
 50
73.928284
 51
90.230461
  0
ARC
  8
0
  6
CONTINUOUS
 10
529.813110
 20
31.889687
 40
5.000000
 50
90.000000
 51
106.071800
  0
ARC
  8
0
  6
CONTINUOUS
 10
443.864532
 20
50.941029
 40
5.000000
 50
0.000000
 51
32.499691
  0
ARC
  8
0
  6
CONTINUOUS
 10
548.864502
 20
50.941029
 40
5.000000
 50
147.498306
 51
180.000000
  0
LINE
  8
0
  6
CONTINUOUS
 10
530.364502
 20
35.389687
 11
528.364502
 21
35.389687
  0
LINE
  8
0
  6
CONTINUOUS
 10
462.364532
 20
35.389687
 11
464.364532
 21
35.389687
  0
ARC
  8
0
  6
CONTINUOUS
 10
530.364502
 20
39.389687
 40
4.000000
 50
270.000000
 51
322.311005
  0
ARC
  8
0
  6
CONTINUOUS
 10
462.364532
 20
39.389687
 40
4.000000
 50
218.645996
 51
270.000000
  0
LINE
  8
0
  6
CONTINUOUS
 10
259.114532
 20
111.889709
 11
259.114532
 21
117.889709
  0
LINE
  8
0
  6
CONTINUOUS
 10
265.114532
 20
111.889725
 11
265.114532
 21
117.889725
  0
LINE
  8
0
  6
CONTINUOUS
 10
265.114532
 20
111.889725
 11
259.114532
 21
111.889709
  0
LINE
  8
0
  6
CONTINUOUS
 10
265.114532
 20
117.889725
 11
259.114532
 21
117.889709
  0
ARC
  8
0
  6
CONTINUOUS
 10
251.614532
 20
114.889687
 40
11.000000
 50
15.826600
 51
344.173401
  0
LINE
  8
0
  6
CONTINUOUS
 10
406.364532
 20
103.889687
 11
406.364532
 21
125.889687
  0
LINE
  8
0
  6
CONTINUOUS
 10
446.364532
 20
125.889687
 11
406.364532
 21
125.889687
  0
LINE
  8
0
  6
CONTINUOUS
 10
446.364532
 20
103.889687
 11
406.364532
 21
103.889687
  0
LINE
  8
0
  6
CONTINUOUS
 10
446.364532
 20
127.389687
 11
446.364532
 21
102.389687
  0
LINE
  8
0
  6
CONTINUOUS
 10
448.364532
 20
127.389687
 11
446.364532
 21
127.389687
  0
LINE
  8
0
  6
CONTINUOUS
 10
448.364532
 20
102.389687
 11
446.364532
 21
102.389687
  0
ARC
  8
0
  6
CONTINUOUS
 10
438.364532
 20
114.889687
 40
3.000000
 50
-90.000000
 51
90.000000
  0
LINE
  8
0
  6
CONTINUOUS
 10
438.364532
 20
117.889687
 11
406.364532
 21
117.889687
  0
LINE
  8
0
  6
CONTINUOUS
 10
438.364532
 20
111.889687
 11
406.364532
 21
111.889687
  0
LINE
  8
0
  6
CONTINUOUS
 10
586.364502
 20
103.889687
 11
586.364502
 21
125.889687
  0
LINE
  8
0
  6
CONTINUOUS
 10
546.364502
 20
125.889687
 11
586.364502
 21
125.889687
  0
LINE
  8
0
  6
CONTINUOUS
 10
546.364502
 20
103.889687
 11
586.364502
 21
103.889687
  0
LINE
  8
0
  6
CONTINUOUS
 10
546.364502
 20
127.389687
 11
546.364502
 21
102.389687
  0
LINE
  8
0
  6
CONTINUOUS
 10
544.364502
 20
127.389687
 11
546.364502
 21
127.389687
  0
LINE
  8
0
  6
CONTINUOUS
 10
544.364502
 20
102.389687
 11
546.364502
 21
102.389687
  0
ARC
  8
0
  6
CONTINUOUS
 10
554.364502
 20
114.889687
 40
3.000000
 50
90.000000
 51
270.000000
  0
LINE
  8
0
  6
CONTINUOUS
 10
554.364502
 20
117.889687
 11
586.364502
 21
117.889687
  0
LINE
  8
0
  6
CONTINUOUS
 10
554.364502
 20
111.889687
 11
586.364502
 21
111.889687
  0
LINE
  8
0
  6
CENTER
 10
-11.710469
 20
73.389687
 11
219.614532
 21
73.389687
  0
LINE
  8
0
  6
CONTINUOUS
 10
176.451782
 20
112.841949
 11
134.864532
 21
111.389687
  0
LINE
  8
0
  6
CONTINUOUS
 10
186.864532
 20
33.573807
 11
134.864532
 21
35.389687
  0
LINE
  8
0
  6
CONTINUOUS
 10
178.864532
 20
140.889694
 11
178.864532
 21
113.889687
  0
LINE
  8
0
  6
CONTINUOUS
 10
179.864532
 20
141.889694
 11
186.864548
 21
141.889694
  0
LINE
  8
0
  6
CONTINUOUS
 10
181.364532
 20
26.889687
 11
186.864532
 21
26.889687
  0
LINE
  8
0
  6
CONTINUOUS
 10
178.864532
 20
114.389687
 11
178.864532
 21
43.477032
  0
LINE
  8
0
  6
CONTINUOUS
 10
134.864532
 20
111.389687
 11
134.864532
 21
35.389687
  0
LINE
  8
0
  6
CONTINUOUS
 10
177.451401
 20
124.707489
 11
151.507980
 21
112.183083
  0
LINE
  8
0
  6
CENTER
 10
251.614532
 20
399.069092
 11
251.614532
 21
202.643433
  0
LINE
  8
0
  6
CENTER
 10
-11.082110
 20
302.867401
 11
320.953979
 21
302.867401
  0
LINE
  8
0
  6
CONTINUOUS
 10
200.396515
 20
334.867401
 11
299.142487
 21
334.867401
  0
LINE
  8
0
  6
CONTINUOUS
 10
200.396515
 20
270.867401
 11
299.142487
 21
270.867401
  0
LINE
  8
0
  6
CONTINUOUS
 10
294.552643
 20
360.867401
 11
265.114532
 21
360.867401
  0
LINE
  8
0
  6
CONTINUOUS
 10
208.676422
 20
244.867401
 11
240.614532
 21
244.867401
  0
LINE
  8
0
  6
CONTINUOUS
 10
304.614532
 20
302.867401
 11
304.055969
 21
334.867401
  0
LINE
  8
0
  6
CONTINUOUS
 10
299.446594
 20
356.891632
 11
304.055969
 21
334.867401
  0
ARC
  8
0
  6
CONTINUOUS
 10
294.552643
 20
355.867401
 40
5.000000
 50
11.820596
 51
90.000000
  0
LINE
  8
0
  6
CONTINUOUS
 10
304.614532
 20
302.867401
 11
304.055969
 21
270.867401
  0
LINE
  8
0
  6
CONTINUOUS
 10
299.446594
 20
248.843155
 11
304.055969
 21
270.867401
  0
ARC
  8
0
  6
CONTINUOUS
 10
294.552643
 20
249.867401
 40
5.000000
 50
-90.000000
 51
-11.820596
  0
LINE
  8
0
  6
CONTINUOUS
 10
271.614532
 20
272.867401
 11
271.614532
 21
332.867401
  0
LINE
  8
0
  6
CONTINUOUS
 10
231.614532
 20
272.867401
 11
231.614532
 21
332.867401
  0
ARC
  8
0
  6
CONTINUOUS
 10
299.142487
 20
329.867401
 40
5.000000
 50
1.000000
 51
90.000000
  0
ARC
  8
0
  6
CONTINUOUS
 10
299.142487
 20
275.867401
 40
5.000000
 50
270.000000
 51
359.000000
  0
LINE
  8
0
  6
CONTINUOUS
 10
194.941040
 20
248.538864
 11
195.398224
 21
265.998291
  0
LINE
  8
0
  6
CONTINUOUS
 10
186.864532
 20
360.367401
 11
186.864532
 21
245.367401
  0
LINE
  8
0
  6
CONTINUOUS
 10
205.429535
 20
320.867401
 11
205.429535
 21
284.867401
  0
LINE
  8
0
  6
CONTINUOUS
 10
186.864532
 20
360.117401
 11
191.942062
 21
360.117401
  0
LINE
  8
0
  6
CONTINUOUS
 10
191.942062
 20
245.617401
 11
186.864532
 21
245.617401
  0
ARC
  8
0
  6
CONTINUOUS
 10
200.396515
 20
265.867401
 40
5.000000
 50
90.000000
 51
178.500000
  0
ARC
  8
0
  6
CONTINUOUS
 10
191.942062
 20
248.617401
 40
3.000000
 50
270.000000
 51
358.500000
  0
LINE
  8
0
  6
CONTINUOUS
 10
194.941040
 20
357.195923
 11
195.398224
 21
339.736511
  0
ARC
  8
0
  6
CONTINUOUS
 10
200.396515
 20
339.867401
 40
5.000000
 50
-178.500000
 51
-90.000000
  0
ARC
  8
0
  6
CONTINUOUS
 10
191.942062
 20
357.117401
 40
3.000000
 50
-358.500000
 51
-270.000000
  0
LINE
  8
0
  6
CONTINUOUS
 10
203.782455
 20
356.891632
 11
199.203323
 21
335.011841
  0
ARC
  8
0
  6
CONTINUOUS
 10
208.676422
 20
355.867401
 40
5.000000
 50
90.000000
 51
168.179398
  0
LINE
  8
0
  6
CONTINUOUS
 10
203.782455
 20
248.843155
 11
199.203323
 21
270.722931
  0
ARC
  8
0
  6
CONTINUOUS
 10
208.676422
 20
249.867401
 40
5.000000
 50
-168.179398
 51
-90.000000
  0
LINE
  8
0
  6
CENTER
 10
276.164917
 20
257.867401
 11
297.019104
 21
257.867401
  0
LINE
  8
0
  6
CENTER
 10
286.614532
 20
265.424683
 11
286.614532
 21
248.653854
  0
CIRCLE
  8
0
  6
CONTINUOUS
 10
286.614532
 20
257.867401
 40
5.500000
  0
LINE
  8
0
  6
CENTER
 10
227.064133
 20
257.867401
 11
206.209961
 21
257.867401
  0
LINE
  8
0
  6
CENTER
 10
216.614532
 20
265.424683
 11
216.614532
 21
248.653854
  0
CIRCLE
  8
0
  6
CONTINUOUS
 10
216.614532
 20
257.867401
 40
5.500000
  0
LINE
  8
0
  6
CENTER
 10
276.164917
 20
347.867401
 11
297.019104
 21
347.867401
  0
LINE
  8
0
  6
CENTER
 10
286.614532
 20
340.310120
 11
286.614532
 21
357.080933
  0
CIRCLE
  8
0
  6
CONTINUOUS
 10
286.614532
 20
347.867401
 40
5.500000
  0
LINE
  8
0
  6
CENTER
 10
227.064133
 20
347.867401
 11
206.209961
 21
347.867401
  0
LINE
  8
0
  6
CENTER
 10
216.614532
 20
340.310120
 11
216.614532
 21
357.080933
  0
CIRCLE
  8
0
  6
CONTINUOUS
 10
216.614532
 20
347.867401
 40
5.500000
  0
LINE
  8
0
  6
CONTINUOUS
 10
226.421692
 20
254.867401
 11
276.807373
 21
254.867401
  0
LINE
  8
0
  6
CONTINUOUS
 10
281.770782
 20
264.867401
 11
285.057617
 21
264.867401
  0
ARC
  8
0
  6
CONTINUOUS
 10
276.807373
 20
257.867401
 40
3.000000
 50
270.000000
 51
345.124329
  0
LINE
  8
0
  6
CONTINUOUS
 10
287.957092
 20
267.097229
 11
288.366241
 21
268.637573
  0
ARC
  8
0
  6
CONTINUOUS
 10
285.057617
 20
267.867401
 40
3.000000
 50
270.000000
 51
345.124329
  0
ARC
  8
0
  6
CONTINUOUS
 10
291.265686
 20
267.867401
 40
3.000000
 50
90.000000
 51
165.124313
  0
LINE
  8
0
  6
CONTINUOUS
 10
281.770782
 20
264.867401
 11
279.706818
 21
257.097229
  0
LINE
  8
0
  6
CONTINUOUS
 10
215.271988
 20
267.097229
 11
214.862823
 21
268.637573
  0
ARC
  8
0
  6
CONTINUOUS
 10
218.171432
 20
267.867401
 40
3.000000
 50
-165.124313
 51
-90.000000
  0
ARC
  8
0
  6
CONTINUOUS
 10
211.963379
 20
267.867401
 40
3.000000
 50
14.875682
 51
90.000000
  0
LINE
  8
0
  6
CONTINUOUS
 10
221.458282
 20
264.867401
 11
218.171432
 21
264.867401
  0
ARC
  8
0
  6
CONTINUOUS
 10
226.421692
 20
257.867401
 40
3.000000
 50
-165.124313
 51
-90.000000
  0
LINE
  8
0
  6
CONTINUOUS
 10
221.458282
 20
264.867401
 11
223.522232
 21
257.097229
  0
CIRCLE
  8
0
  6
CONTINUOUS
 10
286.614532
 20
347.867401
 40
5.500000
  0
LINE
  8
0
  6
CONTINUOUS
 10
226.421692
 20
350.867401
 11
276.807373
 21
350.867401
  0
LINE
  8
0
  6
CONTINUOUS
 10
281.770782
 20
340.867401
 11
285.057617
 21
340.867401
  0
ARC
  8
0
  6
CONTINUOUS
 10
276.807373
 20
347.867401
 40
3.000000
 50
-345.124329
 51
-270.000000
  0
LINE
  8
0
  6
CONTINUOUS
 10
287.957092
 20
338.637573
 11
288.366241
 21
337.097229
  0
ARC
  8
0
  6
CONTINUOUS
 10
285.057617
 20
337.867401
 40
3.000000
 50
-345.124329
 51
-270.000000
  0
ARC
  8
0
  6
CONTINUOUS
 10
291.265686
 20
337.867401
 40
3.000000
 50
-165.124313
 51
-90.000000
  0
LINE
  8
0
  6
CONTINUOUS
 10
281.770782
 20
340.867401
 11
279.706818
 21
348.637573
  0
LINE
  8
0
  6
CONTINUOUS
 10
215.271988
 20
338.637573
 11
214.862823
 21
337.097229
  0
ARC
  8
0
  6
CONTINUOUS
 10
218.171432
 20
337.867401
 40
3.000000
 50
90.000000
 51
165.124313
  0
ARC
  8
0
  6
CONTINUOUS
 10
211.963379
 20
337.867401
 40
3.000000
 50
-90.000000
 51
-14.875682
  0
LINE
  8
0
  6
CONTINUOUS
 10
221.458282
 20
340.867401
 11
218.171432
 21
340.867401
  0
ARC
  8
0
  6
CONTINUOUS
 10
226.421692
 20
347.867401
 40
3.000000
 50
90.000000
 51
165.124313
  0
LINE
  8
0
  6
CONTINUOUS
 10
221.458282
 20
340.867401
 11
223.522232
 21
348.637573
  0
LINE
  8
0
  6
CONTINUOUS
 10
240.614532
 20
212.867401
 11
265.114532
 21
212.867401
  0
LINE
  8
0
  6
CONTINUOUS
 10
262.614532
 20
252.867401
 11
262.614532
 21
247.867401
  0
LINE
  8
0
  6
CONTINUOUS
 10
240.614532
 20
252.867401
 11
240.614532
 21
212.867401
  0
LINE
  8
0
  6
CONTINUOUS
 10
264.114532
 20
254.867401
 11
264.114532
 21
252.867401
  0
LINE
  8
0
  6
CONTINUOUS
 10
239.114532
 20
254.867401
 11
239.114532
 21
252.867401
  0
LINE
  8
0
  6
CONTINUOUS
 10
239.114532
 20
252.867401
 11
264.114532
 21
252.867401
  0
LINE
  8
0
  6
CONTINUOUS
 10
265.114532
 20
244.867401
 11
294.552643
 21
244.867401
  0
LINE
  8
0
  6
CONTINUOUS
 10
265.114532
 20
247.867401
 11
265.114532
 21
212.867401
  0
LINE
  8
0
  6
CONTINUOUS
 10
262.197540
 20
212.867401
 11
262.197540
 21
247.867401
  0
LINE
  8
0
  6
CONTINUOUS
 10
262.197540
 20
247.867401
 11
265.114532
 21
247.867401
  0
LINE
  8
0
  6
CONTINUOUS
 10
240.614532
 20
392.867401
 11
265.114532
 21
392.867401
  0
LINE
  8
0
  6
CONTINUOUS
 10
262.614532
 20
352.867401
 11
262.614532
 21
357.867401
  0
LINE
  8
0
  6
CONTINUOUS
 10
240.614532
 20
352.867401
 11
240.614532
 21
392.867401
  0
LINE
  8
0
  6
CONTINUOUS
 10
264.114532
 20
350.867401
 11
264.114532
 21
352.867401
  0
LINE
  8
0
  6
CONTINUOUS
 10
239.114532
 20
350.867401
 11
239.114532
 21
352.867401
  0
LINE
  8
0
  6
CONTINUOUS
 10
239.114532
 20
352.867401
 11
264.114532
 21
352.867401
  0
LINE
  8
0
  6
CONTINUOUS
 10
265.114532
 20
357.867401
 11
265.114532
 21
392.867401
  0
LINE
  8
0
  6
CONTINUOUS
 10
262.197540
 20
392.867401
 11
262.197540
 21
357.867401
  0
LINE
  8
0
  6
CONTINUOUS
 10
262.197540
 20
357.867401
 11
265.114532
 21
357.867401
  0
LINE
  8
0
  6
CONTINUOUS
 10
240.614532
 20
360.867401
 11
208.498260
 21
360.867401
  0
LINE
  8
0
  6
CONTINUOUS
 10
186.864532
 20
350.367401
 11
192.197372
 21
350.367401
  0
ARC
  8
0
  6
CONTINUOUS
 10
192.197372
 20
347.367401
 40
3.000000
 50
1.500000
 51
90.000000
  0
LINE
  8
0
  6
CONTINUOUS
 10
195.154999
 20
334.867401
 11
186.864532
 21
334.867401
  0
LINE
  8
0
  6
CONTINUOUS
 10
195.154999
 20
270.867401
 11
186.864532
 21
270.867401
  0
LINE
  8
0
  6
CONTINUOUS
 10
186.864532
 20
255.367401
 11
192.197372
 21
255.367401
  0
ARC
  8
0
  6
CONTINUOUS
 10
192.197372
 20
258.367401
 40
3.000000
 50
-90.000000
 51
-1.500000
  0
LINE
  8
0
  6
CONTINUOUS
 10
472.364532
 20
10.889687
 11
520.364502
 21
10.889687
  0
LINE
  8
0
  6
CONTINUOUS
 10
521.364502
 20
9.889687
 11
520.364502
 21
10.889687
  0
LINE
  8
0
  6
CONTINUOUS
 10
471.364532
 20
9.889687
 11
472.364532
 21
10.889687
  0
LINE
  8
0
  6
CONTINUOUS
 10
521.364502
 20
9.889687
 11
554.364502
 21
9.889687
  0
LINE
  8
0
  6
CONTINUOUS
 10
181.364532
 20
245.367401
 11
186.864532
 21
245.367401
  0
LINE
  8
0
  6
CONTINUOUS
 10
181.364532
 20
360.367401
 11
186.864532
 21
360.367401
  0
LINE
  8
0
  6
CONTINUOUS
 10
178.864532
 20
247.867401
 11
178.864532
 21
357.867401
  0
LINE
  8
0
  6
CONTINUOUS
 10
134.864532
 20
340.867401
 11
134.864532
 21
264.867401
  0
LINE
  8
0
  6
CONTINUOUS
 10
176.451782
 20
342.319641
 11
134.864532
 21
340.867401
  0
LINE
  8
0
  6
CONTINUOUS
 10
176.451782
 20
263.415131
 11
134.864532
 21
264.867401
  0
ARC
  8
0
  6
CONTINUOUS
 10
181.364532
 20
357.867401
 40
2.500000
 50
90.000000
 51
180.000000
  0
ARC
  8
0
  6
CONTINUOUS
 10
181.364532
 20
247.867401
 40
2.500000
 50
180.000000
 51
270.000000
  0
ARC
  8
0
  6
CONTINUOUS
 10
179.864532
 20
140.889694
 40
1.000000
 50
90.000000
 51
180.000000
  0
ARC
  8
0
  6
CONTINUOUS
 10
176.364532
 20
126.958870
 40
2.500000
 50
-64.230675
 51
0.000000
  0
ARC
  8
0
  6
CONTINUOUS
 10
176.364532
 20
115.340424
 40
2.500000
 50
-88.000000
 51
0.000000
  0
ARC
  8
0
  6
CONTINUOUS
 10
150.421097
 20
114.434456
 40
2.500000
 50
272.000000
 51
295.769318
  0
LINE
  8
0
  6
CONTINUOUS
 10
134.864532
 20
340.867401
 11
134.864532
 21
264.867401
  0
LINE
  8
0
  6
CONTINUOUS
 10
20.864653
 20
264.867401
 11
20.864653
 21
296.001373
  0
LINE
  8
0
  6
CONTINUOUS
 10
20.864653
 20
340.867371
 11
134.864655
 21
340.867371
  0
LINE
  8
0
  6
CONTINUOUS
 10
20.864653
 20
264.867401
 11
134.864655
 21
264.867401
  0
LINE
  8
0
  6
CONTINUOUS
 10
126.864655
 20
338.867371
 11
126.864655
 21
325.867401
  0
ARC
  8
0
  6
CONTINUOUS
 10
128.864655
 20
338.867401
 40
2.000000
 50
90.000000
 51
180.000000
  0
ARC
  8
0
  6
CONTINUOUS
 10
128.864655
 20
266.867401
 40
2.000000
 50
180.000000
 51
270.000000
  0
LINE
  8
0
  6
CONTINUOUS
 10
0.364653
 20
270.867401
 11
0.364653
 21
334.867401
  0
LINE
  8
0
  6
CONTINUOUS
 10
4.328733
 20
340.867401
 11
20.864653
 21
340.867401
  0
LINE
  8
0
  6
CONTINUOUS
 10
4.328753
 20
264.867401
 11
20.864653
 21
264.867401
  0
LINE
  8
0
  6
CONTINUOUS
 10
0.864653
 20
267.867401
 11
0.864653
 21
337.867401
  0
LINE
  8
0
  6
CONTINUOUS
 10
0.364653
 20
334.867401
 11
0.864653
 21
335.367401
  0
LINE
  8
0
  6
CONTINUOUS
 10
0.364653
 20
270.867401
 11
0.864653
 21
270.367401
  0
LINE
  8
0
  6
CONTINUOUS
 10
1.730673
 20
339.367371
 11
0.864653
 21
337.867401
  0
ARC
  8
0
  6
CONTINUOUS
 10
4.328753
 20
337.867401
 40
3.000000
 50
90.000000
 51
150.000397
  0
LINE
  8
0
  6
CONTINUOUS
 10
1.730673
 20
266.367401
 11
0.864653
 21
267.867401
  0
ARC
  8
0
  6
CONTINUOUS
 10
4.328753
 20
267.867401
 40
3.000000
 50
-150.000397
 51
-90.000000
  0
LINE
  8
0
  6
CONTINUOUS
 10
20.864653
 20
325.867401
 11
126.864655
 21
325.867401
  0
LINE
  8
0
  6
CONTINUOUS
 10
20.864653
 20
325.867401
 11
2.446283
 21
325.867401
  0
LINE
  8
0
  6
CONTINUOUS
 10
20.864653
 20
279.867401
 11
126.864655
 21
279.867401
  0
LINE
  8
0
  6
CONTINUOUS
 10
20.864653
 20
279.867401
 11
2.446283
 21
279.867401
  0
LINE
  8
0
  6
CONTINUOUS
 10
126.864655
 20
279.867401
 11
126.864655
 21
266.867401
  0
LINE
  8
0
  6
CONTINUOUS
 10
14.364653
 20
296.867401
 11
14.364653
 21
308.867401
  0
LINE
  8
0
  6
CONTINUOUS
 10
21.364653
 20
296.867401
 11
21.364653
 21
308.867401
  0
LINE
  8
0
  6
CONTINUOUS
 10
15.364653
 20
309.867401
 11
20.364653
 21
309.867401
  0
LINE
  8
0
  6
CONTINUOUS
 10
20.364653
 20
295.867401
 11
15.364653
 21
295.867401
  0
ARC
  8
0
  6
CONTINUOUS
 10
20.364653
 20
308.867401
 40
1.000000
 50
0.000000
 51
90.000000
  0
ARC
  8
0
  6
CONTINUOUS
 10
15.364653
 20
308.867401
 40
1.000000
 50
90.000000
 51
180.000000
  0
ARC
  8
0
  6
CONTINUOUS
 10
15.364653
 20
296.867401
 40
1.000000
 50
180.000000
 51
270.000000
  0
ARC
  8
0
  6
CONTINUOUS
 10
20.364653
 20
296.867401
 40
1.000000
 50
-90.000000
 51
0.000000
  0
LINE
  8
0
  6
CONTINUOUS
 10
18.864653
 20
299.367401
 11
18.864653
 21
306.367401
  0
LINE
  8
0
  6
CONTINUOUS
 10
16.864653
 20
299.367401
 11
16.864653
 21
306.367401
  0
ARC
  8
0
  6
CONTINUOUS
 10
17.864653
 20
306.367401
 40
1.000000
 50
90.000000
 51
180.000000
  0
ARC
  8
0
  6
CONTINUOUS
 10
17.864653
 20
306.367401
 40
1.000000
 50
0.000000
 51
90.000000
  0
ARC
  8
0
  6
CONTINUOUS
 10
17.864653
 20
299.367401
 40
1.000000
 50
180.000000
 51
270.000000
  0
ARC
  8
0
  6
CONTINUOUS
 10
17.864653
 20
299.367401
 40
1.000000
 50
-90.000000
 51
0.000000
  0
LINE
  8
0
  6
CONTINUOUS
 10
20.864653
 20
309.733429
 11
20.864653
 21
340.867401
  0
ARC
  8
0
  6
CONTINUOUS
 10
166.034164
 20
302.867401
 40
15.000000
 50
130.747620
 51
229.252380
  0
LINE
  8
0
  6
CONTINUOUS
 10
177.996353
 20
332.973389
 11
156.243240
 21
314.231262
  0
LINE
  8
0
  6
CONTINUOUS
 10
177.996353
 20
272.761414
 11
156.243240
 21
291.503510
  0
ARC
  8
0
  6
CONTINUOUS
 10
176.364532
 20
334.867371
 40
2.500000
 50
-49.252373
 51
0.000000
  0
ARC
  8
0
  6
CONTINUOUS
 10
176.364532
 20
344.818146
 40
2.500000
 50
-88.000000
 51
0.000000
  0
ARC
  8
0
  6
CONTINUOUS
 10
176.364532
 20
270.867432
 40
2.500000
 50
0.000000
 51
49.252373
  0
ARC
  8
0
  6
CONTINUOUS
 10
176.364532
 20
260.916656
 40
2.500000
 50
0.000000
 51
88.000000
  0
LINE
  8
0
  6
CONTINUOUS
 10
179.989609
 20
41.235687
 11
186.864532
 21
41.235687
  0
LINE
  8
0
  6
CONTINUOUS
 10
178.864532
 20
29.389687
 11
178.864532
 21
31.438951
  0
ARC
  8
0
  6
CONTINUOUS
 10
181.364532
 20
29.389687
 40
2.500000
 50
180.000000
 51
270.000000
  0
ARC
  8
0
  6
CONTINUOUS
 10
176.364532
 20
31.438951
 40
2.500000
 50
0.000000
 51
88.000000
  0
ARC
  8
0
  6
CONTINUOUS
 10
496.364532
 20
84.389687
 40
57.500000
 50
236.002823
 51
236.184402
  0
ARC
  8
0
  6
CONTINUOUS
 10
496.364532
 20
84.389687
 40
57.500000
 50
303.815582
 51
303.997162
  0
ARC
  8
0
  6
CONTINUOUS
 10
496.364532
 20
84.389687
 40
57.500000
 50
-33.997124
 51
19.823904
  0
ARC
  8
0
  6
CONTINUOUS
 10
496.364532
 20
84.389687
 40
57.500000
 50
160.176102
 51
213.997131
  0
LINE
  8
0
  6
CONTINUOUS
 10
134.864532
 20
63.989689
 11
178.864532
 21
63.989689
  0
LINE
  8
0
  6
CONTINUOUS
 10
134.864532
 20
53.789688
 11
178.864532
 21
53.789688
  0
TEXT
  8
0
 10
-11.000000
 20
-5.000000
 40
4.000000
 41
1.000000
  1
HLM-22T-300~1800-S15
 50
0.000000
  0
ENDSEC
  0
EOF
