  0
SECTION
  2
HEADER
  9
$CLAYER
  8
1
  9
$LTSCALE
 40
3.0
  0
ENDSEC
  0
SECTION
  2
TABLES
  0
TABLE
  2
LTYPE
 70
     4
  0
LTYPE
  2
CONTINUOUS
  3
solid line
 70
    64
 72
    65
 73
     0
 40
0.0
  0
LTYPE
  2
DASHED
  3
__ __ __ __ __ __ __ __ __ __ __ __ __ __ __
 70
    64
 72
    65
 73
     2
 40
0.75
 49
0.5
 49
-0.25
  0
LTYPE
  2
CENTER
  3
____ _ ____ _ ____ _ ____ _ ____ _ ____ _ ____
 70
    64
 72
    65
 73
     4
 40
2.0
 49
1.25
 49
-0.25
 49
0.25
 49
-0.25
  0
LTYPE
  2
PHANTOM
  3
_____ _ _ _____ _ _ _____ _ _ _____ _ _ ____
 70
    64
 72
    65
 73
     6
 40
2.5
 49
1.25
 49
-0.25
 49
0.25
 49
-0.25
 49
0.25
 49
-0.25
  0
ENDTAB
  0
TABLE
  2
LAYER
 70
     1
  0
LAYER
  2
0
 70
    64
 62
     7
  6
CONTINUOUS
  0
ENDTAB
  0
TABLE
  2
STYLE
 70
     1
  0
STYLE
  2
STANDARD
 70
     0
 40
0.000000
 41
1.000000
 50
0.000000
 71
     0
 42
3.000000
  3
txt
  4
BIGFONT
  0
ENDTAB
  0
ENDSEC
  0
SECTION
  2
BLOCKS
  0
ENDSEC
  0
SECTION
  2
ENTITIES
  0
LINE
  8
0
  6
CENTER
 10
140.630005
 20
75.479691
 11
262.664520
 21
75.479691
  0
LINE
  8
0
  6
CENTER
 10
294.664520
 20
158.229691
 11
294.664520
 21
-5.270313
  0
LINE
  8
0
  6
CENTER
 10
248.094131
 20
105.979691
 11
342.167511
 21
105.979691
  0
LINE
  8
0
  6
CONTINUOUS
 10
241.664536
 20
0.979687
 11
347.664520
 21
0.979687
  0
LINE
  8
0
  6
CONTINUOUS
 10
276.235138
 20
150.979691
 11
313.093933
 21
150.979691
  0
LINE
  8
0
  6
CONTINUOUS
 10
347.664520
 20
125.369926
 11
347.664520
 21
0.979708
  0
LINE
  8
0
  6
CONTINUOUS
 10
241.664536
 20
25.979687
 11
241.664536
 21
0.979687
  0
LINE
  8
0
  6
CONTINUOUS
 10
229.914536
 20
132.729691
 11
247.537537
 21
132.729691
  0
LINE
  8
0
  6
CONTINUOUS
 10
229.914536
 20
18.229687
 11
236.664551
 21
18.229687
  0
LINE
  8
0
  6
CONTINUOUS
 10
237.914536
 20
29.979689
 11
237.914536
 21
120.979691
  0
LINE
  8
0
  6
CONTINUOUS
 10
345.523529
 20
129.471924
 11
315.952942
 21
150.081665
  0
LINE
  8
0
  6
CONTINUOUS
 10
243.805527
 20
129.471924
 11
273.376129
 21
150.081665
  0
LINE
  8
0
  6
CONTINUOUS
 10
275.602936
 20
12.979687
 11
241.664536
 21
12.979687
  0
LINE
  8
0
  6
CONTINUOUS
 10
281.226135
 20
22.979687
 11
308.102936
 21
22.979687
  0
LINE
  8
0
  6
CONTINUOUS
 10
309.664520
 20
21.542187
 11
309.664520
 21
13.979687
  0
LINE
  8
0
  6
CONTINUOUS
 10
279.664520
 20
21.354687
 11
279.664520
 21
13.979687
  0
LINE
  8
0
  6
CONTINUOUS
 10
277.543335
 20
14.494607
 11
279.285736
 21
21.464767
  0
LINE
  8
0
  6
CONTINUOUS
 10
311.785736
 20
14.494607
 11
310.043335
 21
21.464748
  0
LINE
  8
0
  6
CONTINUOUS
 10
247.664536
 20
11.917187
 11
247.664536
 21
0.979687
  0
LINE
  8
0
  6
CONTINUOUS
 10
341.664520
 20
11.917187
 11
341.664520
 21
0.979687
  0
LINE
  8
0
  6
CENTER
 10
259.664520
 20
16.729687
 11
259.664520
 21
-3.270313
  0
LINE
  8
0
  6
CENTER
 10
329.664520
 20
17.729687
 11
329.664520
 21
-2.770313
  0
LINE
  8
0
  6
DASHED
 10
254.164536
 20
12.979687
 11
254.164536
 21
0.979687
  0
LINE
  8
0
  6
DASHED
 10
265.164520
 20
12.979687
 11
265.164520
 21
0.979687
  0
LINE
  8
0
  6
DASHED
 10
324.164520
 20
12.979687
 11
324.164520
 21
0.979687
  0
LINE
  8
0
  6
DASHED
 10
335.164520
 20
12.979687
 11
335.164520
 21
0.979687
  0
ARC
  8
0
  6
CONTINUOUS
 10
313.093933
 20
145.979691
 40
5.000000
 50
55.124809
 51
90.000000
  0
ARC
  8
0
  6
CONTINUOUS
 10
276.235138
 20
145.979691
 40
5.000000
 50
90.000000
 51
124.875603
  0
ARC
  8
0
  6
CONTINUOUS
 10
342.664520
 20
125.369926
 40
5.000000
 50
0.000000
 51
55.124851
  0
ARC
  8
0
  6
CONTINUOUS
 10
246.664536
 20
125.369949
 40
5.000000
 50
124.875702
 51
180.000000
  0
LINE
  8
0
  6
CONTINUOUS
 10
229.914536
 20
122.979691
 11
239.664536
 21
122.979691
  0
LINE
  8
0
  6
CONTINUOUS
 10
235.914536
 20
27.979687
 11
229.914536
 21
27.979687
  0
LINE
  8
0
  6
CONTINUOUS
 10
229.914536
 20
107.439690
 11
236.789536
 21
107.439690
  0
LINE
  8
0
  6
CONTINUOUS
 10
229.914536
 20
43.519688
 11
236.914536
 21
43.519688
  0
ARC
  8
0
  6
CONTINUOUS
 10
247.537338
 20
135.729691
 40
3.000000
 50
270.000000
 51
304.875397
  0
ARC
  8
0
  6
CONTINUOUS
 10
235.914551
 20
120.979691
 40
2.000000
 50
0.000000
 51
90.000000
  0
ARC
  8
0
  6
CONTINUOUS
 10
239.664536
 20
124.979691
 40
2.000000
 50
-90.000000
 51
0.000000
  0
LINE
  8
0
  6
CONTINUOUS
 10
241.664551
 20
125.369949
 11
241.664536
 21
124.979691
  0
ARC
  8
0
  6
CONTINUOUS
 10
239.664536
 20
25.979687
 40
2.000000
 50
0.000000
 51
90.000000
  0
LINE
  8
0
  6
CONTINUOUS
 10
235.914536
 20
27.979687
 11
239.664536
 21
27.979687
  0
ARC
  8
0
  6
CONTINUOUS
 10
235.914536
 20
29.979689
 40
2.000000
 50
-90.000000
 51
0.000000
  0
ARC
  8
0
  6
CONTINUOUS
 10
236.664551
 20
13.229667
 40
5.000000
 50
0.000000
 51
90.000000
  0
ARC
  8
0
  6
CONTINUOUS
 10
308.102936
 20
20.979687
 40
2.000000
 50
14.036440
 51
90.000000
  0
ARC
  8
0
  6
CONTINUOUS
 10
281.226135
 20
20.979687
 40
2.000000
 50
90.000000
 51
165.963898
  0
LINE
  8
0
  6
CONTINUOUS
 10
313.726135
 20
12.979687
 11
347.664520
 21
12.979687
  0
ARC
  8
0
  6
CONTINUOUS
 10
275.602936
 20
14.979687
 40
2.000000
 50
270.000000
 51
345.963715
  0
LINE
  8
0
  6
CONTINUOUS
 10
313.726135
 20
12.979687
 11
275.602936
 21
12.979687
  0
ARC
  8
0
  6
CONTINUOUS
 10
313.726135
 20
14.979687
 40
2.000000
 50
194.036194
 51
270.000000
  0
ARC
  8
0
  6
CONTINUOUS
 10
278.664520
 20
13.979687
 40
1.000000
 50
-90.000000
 51
0.000000
  0
ARC
  8
0
  6
CONTINUOUS
 10
310.664520
 20
13.979687
 40
1.000000
 50
180.000000
 51
270.000000
  0
CIRCLE
  8
0
  6
CONTINUOUS
 10
294.664520
 20
105.979691
 40
27.500000
  0
ARC
  8
0
  6
CONTINUOUS
 10
294.664520
 20
105.979691
 40
31.750000
 50
7.552697
 51
172.447403
  0
ARC
  8
0
  6
CONTINUOUS
 10
277.914520
 20
64.479691
 40
20.600000
 50
172.447403
 51
270.000000
  0
ARC
  8
0
  6
CONTINUOUS
 10
311.414520
 20
64.479691
 40
20.600000
 50
-90.000000
 51
7.552700
  0
LINE
  8
0
  6
CONTINUOUS
 10
326.139130
 20
110.152847
 11
331.835724
 21
67.187317
  0
LINE
  8
0
  6
CONTINUOUS
 10
257.493317
 20
67.187279
 11
263.189941
 21
110.152786
  0
LINE
  8
0
  6
CONTINUOUS
 10
277.914520
 20
43.879688
 11
311.414520
 21
43.879688
  0
ARC
  8
0
  6
CONTINUOUS
 10
277.914520
 20
64.479691
 40
19.000000
 50
172.447601
 51
270.000000
  0
ARC
  8
0
  6
CONTINUOUS
 10
311.414520
 20
64.479691
 40
19.000000
 50
-90.000000
 51
7.552700
  0
ARC
  8
0
  6
CONTINUOUS
 10
294.664520
 20
105.979691
 40
30.150000
 50
-187.552597
 51
7.552697
  0
LINE
  8
0
  6
CONTINUOUS
 10
259.079346
 20
66.976974
 11
264.776123
 21
109.942505
  0
LINE
  8
0
  6
CONTINUOUS
 10
324.552917
 20
109.942551
 11
330.249725
 21
66.977013
  0
LINE
  8
0
  6
CONTINUOUS
 10
277.914520
 20
45.479687
 11
311.414520
 21
45.479687
  0
LINE
  8
0
  6
CONTINUOUS
 10
284.368134
 20
52.979687
 11
280.207733
 21
52.979687
  0
LINE
  8
0
  6
CONTINUOUS
 10
286.664520
 20
59.948437
 11
286.664520
 21
52.979687
  0
LINE
  8
0
  6
CONTINUOUS
 10
290.664520
 20
62.479687
 11
290.664520
 21
64.979691
  0
LINE
  8
0
  6
CONTINUOUS
 10
298.664520
 20
62.479687
 11
298.664520
 21
64.979691
  0
LINE
  8
0
  6
CONTINUOUS
 10
293.883331
 20
63.510937
 11
293.883331
 21
54.292187
  0
LINE
  8
0
  6
CONTINUOUS
 10
295.383331
 20
63.510937
 11
295.383331
 21
54.292187
  0
LINE
  8
0
  6
CONTINUOUS
 10
303.258331
 20
63.510937
 11
303.258331
 21
54.229687
  0
LINE
  8
0
  6
CONTINUOUS
 10
304.633331
 20
58.589062
 11
304.633331
 21
54.229687
  0
LINE
  8
0
  6
CONTINUOUS
 10
284.766541
 20
63.385937
 11
280.911530
 21
63.385937
  0
LINE
  8
0
  6
CONTINUOUS
 10
280.911530
 20
63.385937
 11
280.008331
 21
62.265938
  0
LINE
  8
0
  6
CONTINUOUS
 10
280.116943
 20
64.979691
 11
278.664520
 21
63.119926
  0
LINE
  8
0
  6
CONTINUOUS
 10
280.008331
 20
55.352608
 11
280.925934
 21
54.385929
  0
LINE
  8
0
  6
CONTINUOUS
 10
278.664520
 20
54.536846
 11
280.207733
 21
52.979687
  0
LINE
  8
0
  6
CONTINUOUS
 10
278.664520
 20
63.119926
 11
278.664520
 21
54.536846
  0
LINE
  8
0
  6
CONTINUOUS
 10
280.008331
 20
62.265938
 11
280.008331
 21
55.352608
  0
LINE
  8
0
  6
CONTINUOUS
 10
285.508331
 20
62.668831
 11
284.751343
 21
63.385937
  0
LINE
  8
0
  6
CONTINUOUS
 10
285.496338
 20
64.979691
 11
286.664520
 21
63.683197
  0
LINE
  8
0
  6
CONTINUOUS
 10
285.508331
 20
62.479687
 11
286.664520
 21
62.479687
  0
LINE
  8
0
  6
CONTINUOUS
 10
280.116943
 20
64.979691
 11
285.496338
 21
64.979691
  0
LINE
  8
0
  6
CONTINUOUS
 10
283.414520
 20
59.948437
 11
286.664520
 21
59.948437
  0
LINE
  8
0
  6
CONTINUOUS
 10
285.508331
 20
58.635937
 11
283.414520
 21
58.635937
  0
LINE
  8
0
  6
CONTINUOUS
 10
283.008331
 20
54.385929
 11
280.925934
 21
54.385929
  0
LINE
  8
0
  6
CONTINUOUS
 10
285.508331
 20
57.385937
 11
285.508331
 21
58.385937
  0
ARC
  8
0
  6
CONTINUOUS
 10
283.008331
 20
56.885933
 40
2.500000
 50
-89.999786
 51
0.000109
  0
LINE
  8
0
  6
CONTINUOUS
 10
285.508331
 20
53.936249
 11
285.508331
 21
52.979687
  0
LINE
  8
0
  6
CONTINUOUS
 10
286.664520
 20
63.683197
 11
286.664520
 21
62.479687
  0
LINE
  8
0
  6
CONTINUOUS
 10
285.508331
 20
58.635937
 11
285.508331
 21
56.885933
  0
LINE
  8
0
  6
CONTINUOUS
 10
283.414520
 20
59.948437
 11
283.414520
 21
58.635937
  0
LINE
  8
0
  6
CONTINUOUS
 10
285.508331
 20
52.979687
 11
286.664520
 21
52.979687
  0
LINE
  8
0
  6
CONTINUOUS
 10
285.508331
 20
53.936249
 11
284.368134
 21
52.979687
  0
LINE
  8
0
  6
CONTINUOUS
 10
295.383331
 20
54.292187
 11
295.883331
 21
54.292187
  0
LINE
  8
0
  6
CONTINUOUS
 10
293.289520
 20
54.292187
 11
293.289520
 21
52.979687
  0
LINE
  8
0
  6
CONTINUOUS
 10
295.883331
 20
54.292187
 11
295.883331
 21
52.979687
  0
LINE
  8
0
  6
CONTINUOUS
 10
297.830139
 20
62.479687
 11
298.664520
 21
62.479687
  0
LINE
  8
0
  6
CONTINUOUS
 10
290.664520
 20
62.479687
 11
291.552521
 21
62.479687
  0
LINE
  8
0
  6
CONTINUOUS
 10
290.664520
 20
64.979691
 11
298.664520
 21
64.979691
  0
LINE
  8
0
  6
CONTINUOUS
 10
293.289520
 20
52.979687
 11
295.883331
 21
52.979687
  0
LINE
  8
0
  6
CONTINUOUS
 10
293.289520
 20
54.292187
 11
293.883331
 21
54.292187
  0
ARC
  8
0
  6
CONTINUOUS
 10
307.461517
 20
61.776566
 40
3.203126
 50
-73.981873
 51
90.003510
  0
ARC
  8
0
  6
CONTINUOUS
 10
307.461517
 20
61.776566
 40
1.954125
 50
-82.585274
 51
62.411850
  0
LINE
  8
0
  6
CONTINUOUS
 10
302.664520
 20
64.979691
 11
307.461517
 21
64.979691
  0
LINE
  8
0
  6
CONTINUOUS
 10
307.713531
 20
59.838779
 11
304.633331
 21
59.838779
  0
LINE
  8
0
  6
CONTINUOUS
 10
302.664520
 20
64.979691
 11
302.664520
 21
63.510937
  0
LINE
  8
0
  6
CONTINUOUS
 10
304.633331
 20
63.510937
 11
304.633331
 21
59.838779
  0
LINE
  8
0
  6
CONTINUOUS
 10
308.345337
 20
58.697800
 11
310.327728
 21
54.229687
  0
LINE
  8
0
  6
CONTINUOUS
 10
307.193726
 20
58.589062
 11
309.069916
 21
54.229687
  0
LINE
  8
0
  6
CONTINUOUS
 10
302.664520
 20
54.229687
 11
303.258331
 21
54.229687
  0
LINE
  8
0
  6
CONTINUOUS
 10
304.633331
 20
54.229687
 11
305.180145
 21
54.229687
  0
LINE
  8
0
  6
CONTINUOUS
 10
305.180145
 20
52.979687
 11
302.664520
 21
52.979687
  0
LINE
  8
0
  6
CONTINUOUS
 10
308.820740
 20
54.229687
 11
309.069916
 21
54.229687
  0
LINE
  8
0
  6
CONTINUOUS
 10
310.327728
 20
54.229687
 11
310.664520
 21
54.229687
  0
LINE
  8
0
  6
CONTINUOUS
 10
308.820740
 20
52.979687
 11
310.664520
 21
52.979687
  0
LINE
  8
0
  6
CONTINUOUS
 10
310.664520
 20
54.229687
 11
310.664520
 21
52.979687
  0
LINE
  8
0
  6
CONTINUOUS
 10
308.820740
 20
54.229687
 11
308.820740
 21
52.979687
  0
LINE
  8
0
  6
CONTINUOUS
 10
305.180145
 20
54.229687
 11
305.180145
 21
52.979687
  0
LINE
  8
0
  6
CONTINUOUS
 10
302.664520
 20
54.229687
 11
302.664520
 21
52.979687
  0
LINE
  8
0
  6
CONTINUOUS
 10
291.982330
 20
63.510937
 11
291.552521
 21
62.479687
  0
LINE
  8
0
  6
CONTINUOUS
 10
297.467743
 20
63.510937
 11
297.830139
 21
62.479687
  0
LINE
  8
0
  6
CONTINUOUS
 10
295.383331
 20
63.510937
 11
297.467743
 21
63.510937
  0
LINE
  8
0
  6
CONTINUOUS
 10
293.883331
 20
63.510937
 11
291.982330
 21
63.510937
  0
LINE
  8
0
  6
CONTINUOUS
 10
304.633331
 20
58.589062
 11
307.193726
 21
58.589062
  0
LINE
  8
0
  6
CONTINUOUS
 10
302.664520
 20
63.510937
 11
303.258331
 21
63.510937
  0
LINE
  8
0
  6
CONTINUOUS
 10
304.633331
 20
63.510937
 11
308.366333
 21
63.508507
  0
LINE
  8
0
  6
CONTINUOUS
 10
285.508331
 20
62.668831
 11
285.508331
 21
62.479687
  0
LINE
  8
0
  6
CONTINUOUS
 10
229.914551
 20
132.979691
 11
229.914536
 21
17.979687
  0
LINE
  8
0
  6
CONTINUOUS
 10
63.914532
 20
102.479668
 11
177.914536
 21
102.479668
  0
LINE
  8
0
  6
CONTINUOUS
 10
63.914532
 20
26.479708
 11
177.914536
 21
26.479708
  0
LINE
  8
0
  6
CONTINUOUS
 10
63.914532
 20
94.728668
 11
169.914536
 21
94.728668
  0
LINE
  8
0
  6
CONTINUOUS
 10
63.914532
 20
34.230709
 11
169.914536
 21
34.230709
  0
LINE
  8
0
  6
CONTINUOUS
 10
169.914536
 20
100.479668
 11
169.914536
 21
28.479687
  0
ARC
  8
0
  6
CONTINUOUS
 10
171.914536
 20
100.479691
 40
2.000000
 50
90.000000
 51
180.000000
  0
ARC
  8
0
  6
CONTINUOUS
 10
171.914536
 20
28.479708
 40
2.000000
 50
180.000000
 51
270.000000
  0
LINE
  8
0
  6
CENTER
 10
517.900024
 20
-14.645333
 11
517.900024
 21
164.904694
  0
LINE
  8
0
  6
CENTER
 10
447.674988
 20
75.479691
 11
586.799988
 21
75.479691
  0
LINE
  8
0
  6
CENTER
 10
416.149994
 20
105.979691
 11
621.150024
 21
105.979691
  0
LINE
  8
0
  6
CONTINUOUS
 10
459.899994
 20
0.979687
 11
492.899994
 21
0.979687
  0
LINE
  8
0
  6
CONTINUOUS
 10
459.899994
 20
11.606087
 11
459.899994
 21
0.979687
  0
LINE
  8
0
  6
CONTINUOUS
 10
575.900024
 20
11.606087
 11
575.900024
 21
0.979687
  0
LINE
  8
0
  6
CONTINUOUS
 10
461.899994
 20
12.979687
 11
482.899994
 21
12.979687
  0
LINE
  8
0
  6
CONTINUOUS
 10
573.900024
 20
12.979687
 11
552.900024
 21
12.979687
  0
LINE
  8
0
  6
CONTINUOUS
 10
485.899994
 20
24.353289
 11
485.899994
 21
148.455612
  0
LINE
  8
0
  6
CONTINUOUS
 10
549.900024
 20
24.353289
 11
549.900024
 21
148.455963
  0
LINE
  8
0
  6
CONTINUOUS
 10
547.934814
 20
150.455673
 11
517.900024
 21
150.979691
  0
LINE
  8
0
  6
CONTINUOUS
 10
487.864990
 20
150.455322
 11
517.900024
 21
150.979691
  0
ARC
  8
0
  6
CONTINUOUS
 10
487.899994
 20
148.455627
 40
2.000000
 50
91.000580
 51
180.000000
  0
ARC
  8
0
  6
CONTINUOUS
 10
547.900024
 20
148.455963
 40
2.000000
 50
0.000000
 51
89.000519
  0
LINE
  8
0
  6
CONTINUOUS
 10
549.900024
 20
15.979687
 11
549.900024
 21
0.979687
  0
ARC
  8
0
  6
CONTINUOUS
 10
552.900024
 20
15.979687
 40
3.000000
 50
180.000000
 51
270.000000
  0
LINE
  8
0
  6
CONTINUOUS
 10
485.899994
 20
15.979687
 11
485.899994
 21
0.979687
  0
ARC
  8
0
  6
CONTINUOUS
 10
482.899994
 20
15.979667
 40
3.000000
 50
-90.000000
 51
0.000000
  0
ARC
  8
0
  6
CONTINUOUS
 10
461.899994
 20
10.979687
 40
2.000000
 50
90.000000
 51
180.000000
  0
ARC
  8
0
  6
CONTINUOUS
 10
573.900024
 20
10.979687
 40
2.000000
 50
0.000000
 51
90.000000
  0
LINE
  8
0
  6
CENTER
 10
472.899994
 20
17.269688
 11
472.899994
 21
-3.130312
  0
LINE
  8
0
  6
CENTER
 10
562.900024
 20
18.289688
 11
562.900024
 21
-3.640313
  0
LINE
  8
0
  6
CONTINUOUS
 10
484.618011
 20
22.486609
 11
461.182007
 21
13.472788
  0
ARC
  8
0
  6
CONTINUOUS
 10
461.899994
 20
11.606107
 40
2.000000
 50
111.037903
 51
180.000000
  0
LINE
  8
0
  6
CONTINUOUS
 10
485.899994
 20
24.353289
 11
485.899994
 21
15.979687
  0
ARC
  8
0
  6
CONTINUOUS
 10
483.899994
 20
24.353289
 40
2.000000
 50
-68.962189
 51
0.000000
  0
LINE
  8
0
  6
CONTINUOUS
 10
551.182007
 20
22.486588
 11
574.617981
 21
13.472788
  0
ARC
  8
0
  6
CONTINUOUS
 10
573.900024
 20
11.606087
 40
2.000000
 50
0.000000
 51
68.962646
  0
LINE
  8
0
  6
CONTINUOUS
 10
549.900024
 20
24.353289
 11
549.900024
 21
15.979687
  0
ARC
  8
0
  6
CONTINUOUS
 10
551.900024
 20
24.353308
 40
2.000000
 50
180.000000
 51
248.962799
  0
LINE
  8
0
  6
CONTINUOUS
 10
469.899994
 20
80.786835
 11
469.899994
 21
131.172531
  0
LINE
  8
0
  6
CONTINUOUS
 10
565.900024
 20
80.786842
 11
565.900024
 21
131.172531
  0
LINE
  8
0
  6
CONTINUOUS
 10
555.900024
 20
47.784527
 11
555.900024
 21
108.049690
  0
LINE
  8
0
  6
CONTINUOUS
 10
479.899994
 20
47.784527
 11
479.899994
 21
108.049690
  0
LINE
  8
0
  6
CONTINUOUS
 10
563.670227
 20
134.071991
 11
552.129822
 21
137.137390
  0
LINE
  8
0
  6
CONTINUOUS
 10
563.670227
 20
77.887383
 11
558.129822
 21
76.415733
  0
LINE
  8
0
  6
CONTINUOUS
 10
553.672974
 20
44.885826
 11
552.127014
 21
44.473549
  0
LINE
  8
0
  6
CONTINUOUS
 10
482.127014
 20
44.885807
 11
483.673004
 21
44.473549
  0
LINE
  8
0
  6
CONTINUOUS
 10
472.129791
 20
77.887383
 11
477.670197
 21
76.415733
  0
LINE
  8
0
  6
CONTINUOUS
 10
472.129791
 20
134.071991
 11
483.670197
 21
137.137390
  0
ARC
  8
0
  6
CONTINUOUS
 10
472.899994
 20
131.172546
 40
3.000000
 50
104.876099
 51
180.000000
  0
ARC
  8
0
  6
CONTINUOUS
 10
472.899994
 20
80.786858
 40
3.000000
 50
180.000000
 51
255.124603
  0
ARC
  8
0
  6
CONTINUOUS
 10
562.900024
 20
131.172531
 40
3.000000
 50
0.000000
 51
75.124413
  0
ARC
  8
0
  6
CONTINUOUS
 10
562.900024
 20
80.786835
 40
3.000000
 50
-75.124207
 51
0.000000
  0
ARC
  8
0
  6
CONTINUOUS
 10
482.899994
 20
47.784550
 40
3.000000
 50
180.000000
 51
255.069000
  0
ARC
  8
0
  6
CONTINUOUS
 10
552.900024
 20
47.784527
 40
3.000000
 50
-75.068420
 51
0.000000
  0
ARC
  8
0
  6
CONTINUOUS
 10
552.900024
 20
140.036865
 40
3.000000
 50
180.000000
 51
255.124603
  0
ARC
  8
0
  6
CONTINUOUS
 10
558.900024
 20
73.516296
 40
3.000000
 50
104.876099
 51
180.000000
  0
ARC
  8
0
  6
CONTINUOUS
 10
552.900024
 20
41.574867
 40
3.000000
 50
104.931801
 51
180.000000
  0
ARC
  8
0
  6
CONTINUOUS
 10
482.899994
 20
41.574848
 40
3.000000
 50
0.000000
 51
75.068779
  0
ARC
  8
0
  6
CONTINUOUS
 10
476.899994
 20
73.516266
 40
3.000000
 50
0.000000
 51
75.124496
  0
ARC
  8
0
  6
CONTINUOUS
 10
482.899994
 20
140.036835
 40
3.000000
 50
-75.124153
 51
0.000000
  0
LINE
  8
0
  6
DASHED
 10
467.399994
 20
12.979687
 11
467.399994
 21
0.979687
  0
LINE
  8
0
  6
DASHED
 10
478.399994
 20
12.979687
 11
478.399994
 21
0.979687
  0
LINE
  8
0
  6
DASHED
 10
557.400024
 20
12.979687
 11
557.400024
 21
0.979687
  0
LINE
  8
0
  6
DASHED
 10
568.400024
 20
12.979687
 11
568.400024
 21
0.979687
  0
LINE
  8
0
  6
CONTINUOUS
 10
488.130005
 20
127.979691
 11
547.799988
 21
127.979691
  0
LINE
  8
0
  6
CONTINUOUS
 10
470.399994
 20
32.979687
 11
470.399994
 21
42.031029
  0
LINE
  8
0
  6
CONTINUOUS
 10
565.400024
 20
32.979687
 11
565.400024
 21
42.031029
  0
LINE
  8
0
  6
CONTINUOUS
 10
475.399994
 20
27.979687
 11
484.431213
 21
27.979687
  0
LINE
  8
0
  6
CONTINUOUS
 10
560.400024
 20
27.979687
 11
551.348572
 21
27.979687
  0
ARC
  8
0
  6
CONTINUOUS
 10
517.900024
 20
75.479691
 40
57.250000
 50
-32.501888
 51
19.914110
  0
ARC
  8
0
  6
CONTINUOUS
 10
517.900024
 20
75.479691
 40
57.250000
 50
160.085907
 51
212.501907
  0
ARC
  8
0
  6
CONTINUOUS
 10
475.399994
 20
32.979687
 40
5.000000
 50
180.000000
 51
270.000000
  0
ARC
  8
0
  6
CONTINUOUS
 10
560.400024
 20
32.979687
 40
5.000000
 50
-90.000000
 51
0.000000
  0
ARC
  8
0
  6
CONTINUOUS
 10
484.451385
 20
22.979687
 40
5.000000
 50
73.928284
 51
90.230461
  0
ARC
  8
0
  6
CONTINUOUS
 10
551.348572
 20
22.979687
 40
5.000000
 50
90.000000
 51
106.071800
  0
ARC
  8
0
  6
CONTINUOUS
 10
465.399994
 20
42.031029
 40
5.000000
 50
0.000000
 51
32.499691
  0
ARC
  8
0
  6
CONTINUOUS
 10
570.400024
 20
42.031029
 40
5.000000
 50
147.498306
 51
180.000000
  0
LINE
  8
0
  6
CONTINUOUS
 10
551.900024
 20
26.479687
 11
549.900024
 21
26.479687
  0
LINE
  8
0
  6
CONTINUOUS
 10
483.899994
 20
26.479687
 11
485.899994
 21
26.479687
  0
ARC
  8
0
  6
CONTINUOUS
 10
551.900024
 20
30.479689
 40
4.000000
 50
270.000000
 51
322.311005
  0
ARC
  8
0
  6
CONTINUOUS
 10
483.899994
 20
30.479689
 40
4.000000
 50
218.645996
 51
270.000000
  0
LINE
  8
0
  6
CONTINUOUS
 10
302.164520
 20
102.979706
 11
302.164520
 21
108.979706
  0
LINE
  8
0
  6
CONTINUOUS
 10
308.164520
 20
102.979729
 11
308.164520
 21
108.979729
  0
LINE
  8
0
  6
CONTINUOUS
 10
308.164520
 20
102.979729
 11
302.164520
 21
102.979706
  0
LINE
  8
0
  6
CONTINUOUS
 10
308.164520
 20
108.979729
 11
302.164520
 21
108.979706
  0
ARC
  8
0
  6
CONTINUOUS
 10
294.664520
 20
105.979691
 40
11.000000
 50
15.826600
 51
344.173401
  0
LINE
  8
0
  6
CONTINUOUS
 10
427.899994
 20
94.979691
 11
427.899994
 21
116.979691
  0
LINE
  8
0
  6
CONTINUOUS
 10
467.899994
 20
116.979691
 11
427.899994
 21
116.979691
  0
LINE
  8
0
  6
CONTINUOUS
 10
467.899994
 20
94.979691
 11
427.899994
 21
94.979691
  0
LINE
  8
0
  6
CONTINUOUS
 10
467.899994
 20
118.479691
 11
467.899994
 21
93.479691
  0
LINE
  8
0
  6
CONTINUOUS
 10
469.899994
 20
118.479691
 11
467.899994
 21
118.479691
  0
LINE
  8
0
  6
CONTINUOUS
 10
469.899994
 20
93.479691
 11
467.899994
 21
93.479691
  0
ARC
  8
0
  6
CONTINUOUS
 10
459.899994
 20
105.979691
 40
3.000000
 50
-90.000000
 51
90.000000
  0
LINE
  8
0
  6
CONTINUOUS
 10
459.899994
 20
108.979691
 11
427.899994
 21
108.979691
  0
LINE
  8
0
  6
CONTINUOUS
 10
459.899994
 20
102.979691
 11
427.899994
 21
102.979691
  0
LINE
  8
0
  6
CONTINUOUS
 10
607.900024
 20
94.979691
 11
607.900024
 21
116.979691
  0
LINE
  8
0
  6
CONTINUOUS
 10
567.900024
 20
116.979691
 11
607.900024
 21
116.979691
  0
LINE
  8
0
  6
CONTINUOUS
 10
567.900024
 20
94.979691
 11
607.900024
 21
94.979691
  0
LINE
  8
0
  6
CONTINUOUS
 10
567.900024
 20
118.479691
 11
567.900024
 21
93.479691
  0
LINE
  8
0
  6
CONTINUOUS
 10
565.900024
 20
118.479691
 11
567.900024
 21
118.479691
  0
LINE
  8
0
  6
CONTINUOUS
 10
565.900024
 20
93.479691
 11
567.900024
 21
93.479691
  0
ARC
  8
0
  6
CONTINUOUS
 10
575.900024
 20
105.979691
 40
3.000000
 50
90.000000
 51
270.000000
  0
LINE
  8
0
  6
CONTINUOUS
 10
575.900024
 20
108.979691
 11
607.900024
 21
108.979691
  0
LINE
  8
0
  6
CONTINUOUS
 10
575.900024
 20
102.979691
 11
607.900024
 21
102.979691
  0
LINE
  8
0
  6
CENTER
 10
-8.592500
 20
64.479691
 11
262.664520
 21
64.479691
  0
LINE
  8
0
  6
CONTINUOUS
 10
219.501785
 20
103.931946
 11
177.914536
 21
102.479691
  0
LINE
  8
0
  6
CONTINUOUS
 10
229.914536
 20
24.663809
 11
177.914536
 21
26.479687
  0
LINE
  8
0
  6
CONTINUOUS
 10
221.914536
 20
131.979691
 11
221.914536
 21
104.979691
  0
LINE
  8
0
  6
CONTINUOUS
 10
222.914536
 20
132.979691
 11
229.914551
 21
132.979691
  0
LINE
  8
0
  6
CONTINUOUS
 10
224.414536
 20
17.979687
 11
229.914536
 21
17.979687
  0
LINE
  8
0
  6
CONTINUOUS
 10
221.914536
 20
105.479691
 11
221.914536
 21
34.567032
  0
LINE
  8
0
  6
CONTINUOUS
 10
177.914536
 20
102.479691
 11
177.914536
 21
26.479687
  0
LINE
  8
0
  6
CONTINUOUS
 10
220.501404
 20
115.797493
 11
194.557968
 21
103.273079
  0
LINE
  8
0
  6
CENTER
 10
294.664520
 20
408.805664
 11
294.664520
 21
212.380005
  0
LINE
  8
0
  6
CENTER
 10
-8.592500
 20
312.603943
 11
364.003998
 21
312.603943
  0
LINE
  8
0
  6
CONTINUOUS
 10
243.446503
 20
344.603943
 11
342.192474
 21
344.603943
  0
LINE
  8
0
  6
CONTINUOUS
 10
243.446503
 20
280.603943
 11
342.192474
 21
280.603943
  0
LINE
  8
0
  6
CONTINUOUS
 10
337.602631
 20
370.603943
 11
308.164520
 21
370.603943
  0
LINE
  8
0
  6
CONTINUOUS
 10
251.726425
 20
254.603958
 11
283.664520
 21
254.603958
  0
LINE
  8
0
  6
CONTINUOUS
 10
347.664520
 20
312.603943
 11
347.105957
 21
344.603943
  0
LINE
  8
0
  6
CONTINUOUS
 10
342.496613
 20
366.628204
 11
347.105957
 21
344.603943
  0
ARC
  8
0
  6
CONTINUOUS
 10
337.602631
 20
365.603943
 40
5.000000
 50
11.820596
 51
90.000000
  0
LINE
  8
0
  6
CONTINUOUS
 10
347.664520
 20
312.603943
 11
347.105957
 21
280.603943
  0
LINE
  8
0
  6
CONTINUOUS
 10
342.496613
 20
258.579712
 11
347.105957
 21
280.603943
  0
ARC
  8
0
  6
CONTINUOUS
 10
337.602631
 20
259.603943
 40
5.000000
 50
-90.000000
 51
-11.820596
  0
LINE
  8
0
  6
CONTINUOUS
 10
314.664520
 20
282.603943
 11
314.664520
 21
342.603943
  0
LINE
  8
0
  6
CONTINUOUS
 10
274.664520
 20
282.603943
 11
274.664520
 21
342.603943
  0
ARC
  8
0
  6
CONTINUOUS
 10
342.192474
 20
339.603943
 40
5.000000
 50
1.000000
 51
90.000000
  0
ARC
  8
0
  6
CONTINUOUS
 10
342.192474
 20
285.603943
 40
5.000000
 50
270.000000
 51
359.000000
  0
LINE
  8
0
  6
CONTINUOUS
 10
237.991028
 20
258.275421
 11
238.448227
 21
275.734833
  0
LINE
  8
0
  6
CONTINUOUS
 10
229.914536
 20
370.103943
 11
229.914536
 21
255.103958
  0
LINE
  8
0
  6
CONTINUOUS
 10
248.479538
 20
330.603943
 11
248.479538
 21
294.603943
  0
LINE
  8
0
  6
CONTINUOUS
 10
229.914536
 20
369.853943
 11
234.992065
 21
369.853943
  0
LINE
  8
0
  6
CONTINUOUS
 10
234.992065
 20
255.353958
 11
229.914536
 21
255.353958
  0
ARC
  8
0
  6
CONTINUOUS
 10
243.446503
 20
275.603943
 40
5.000000
 50
90.000000
 51
178.500000
  0
ARC
  8
0
  6
CONTINUOUS
 10
234.992065
 20
258.353943
 40
3.000000
 50
270.000000
 51
358.500000
  0
LINE
  8
0
  6
CONTINUOUS
 10
237.991028
 20
366.932495
 11
238.448227
 21
349.473083
  0
ARC
  8
0
  6
CONTINUOUS
 10
243.446503
 20
349.603943
 40
5.000000
 50
-178.500000
 51
-90.000000
  0
ARC
  8
0
  6
CONTINUOUS
 10
234.992065
 20
366.853943
 40
3.000000
 50
-358.500000
 51
-270.000000
  0
LINE
  8
0
  6
CONTINUOUS
 10
246.832458
 20
366.628204
 11
242.253326
 21
344.748413
  0
ARC
  8
0
  6
CONTINUOUS
 10
251.726425
 20
365.603943
 40
5.000000
 50
90.000000
 51
168.179398
  0
LINE
  8
0
  6
CONTINUOUS
 10
246.832458
 20
258.579712
 11
242.253326
 21
280.459503
  0
ARC
  8
0
  6
CONTINUOUS
 10
251.726425
 20
259.603943
 40
5.000000
 50
-168.179398
 51
-90.000000
  0
LINE
  8
0
  6
CENTER
 10
319.214935
 20
267.603943
 11
340.069092
 21
267.603943
  0
LINE
  8
0
  6
CENTER
 10
329.664520
 20
275.161255
 11
329.664520
 21
258.390411
  0
CIRCLE
  8
0
  6
CONTINUOUS
 10
329.664520
 20
267.603943
 40
5.500000
  0
LINE
  8
0
  6
CENTER
 10
270.114136
 20
267.603943
 11
249.259964
 21
267.603943
  0
LINE
  8
0
  6
CENTER
 10
259.664520
 20
275.161255
 11
259.664520
 21
258.390411
  0
CIRCLE
  8
0
  6
CONTINUOUS
 10
259.664520
 20
267.603943
 40
5.500000
  0
LINE
  8
0
  6
CENTER
 10
319.214935
 20
357.603943
 11
340.069092
 21
357.603943
  0
LINE
  8
0
  6
CENTER
 10
329.664520
 20
350.046661
 11
329.664520
 21
366.817505
  0
CIRCLE
  8
0
  6
CONTINUOUS
 10
329.664520
 20
357.603943
 40
5.500000
  0
LINE
  8
0
  6
CENTER
 10
270.114136
 20
357.603943
 11
249.259964
 21
357.603943
  0
LINE
  8
0
  6
CENTER
 10
259.664520
 20
350.046661
 11
259.664520
 21
366.817505
  0
CIRCLE
  8
0
  6
CONTINUOUS
 10
259.664520
 20
357.603943
 40
5.500000
  0
LINE
  8
0
  6
CONTINUOUS
 10
269.471680
 20
264.603943
 11
319.857361
 21
264.603943
  0
LINE
  8
0
  6
CONTINUOUS
 10
324.820770
 20
274.603943
 11
328.107635
 21
274.603943
  0
ARC
  8
0
  6
CONTINUOUS
 10
319.857361
 20
267.603943
 40
3.000000
 50
270.000000
 51
345.124329
  0
LINE
  8
0
  6
CONTINUOUS
 10
331.007080
 20
276.833801
 11
331.416229
 21
278.374115
  0
ARC
  8
0
  6
CONTINUOUS
 10
328.107635
 20
277.603943
 40
3.000000
 50
270.000000
 51
345.124329
  0
ARC
  8
0
  6
CONTINUOUS
 10
334.315674
 20
277.603943
 40
3.000000
 50
90.000000
 51
165.124313
  0
LINE
  8
0
  6
CONTINUOUS
 10
324.820770
 20
274.603943
 11
322.756836
 21
266.833801
  0
LINE
  8
0
  6
CONTINUOUS
 10
258.321991
 20
276.833801
 11
257.912842
 21
278.374115
  0
ARC
  8
0
  6
CONTINUOUS
 10
261.221436
 20
277.603943
 40
3.000000
 50
-165.124313
 51
-90.000000
  0
ARC
  8
0
  6
CONTINUOUS
 10
255.013382
 20
277.603943
 40
3.000000
 50
14.875682
 51
90.000000
  0
LINE
  8
0
  6
CONTINUOUS
 10
264.508270
 20
274.603943
 11
261.221436
 21
274.603943
  0
ARC
  8
0
  6
CONTINUOUS
 10
269.471680
 20
267.603943
 40
3.000000
 50
-165.124313
 51
-90.000000
  0
LINE
  8
0
  6
CONTINUOUS
 10
264.508270
 20
274.603943
 11
266.572235
 21
266.833801
  0
CIRCLE
  8
0
  6
CONTINUOUS
 10
329.664520
 20
357.603943
 40
5.500000
  0
LINE
  8
0
  6
CONTINUOUS
 10
269.471680
 20
360.603943
 11
319.857361
 21
360.603943
  0
LINE
  8
0
  6
CONTINUOUS
 10
324.820770
 20
350.603943
 11
328.107635
 21
350.603943
  0
ARC
  8
0
  6
CONTINUOUS
 10
319.857361
 20
357.603943
 40
3.000000
 50
-345.124329
 51
-270.000000
  0
LINE
  8
0
  6
CONTINUOUS
 10
331.007080
 20
348.374115
 11
331.416229
 21
346.833801
  0
ARC
  8
0
  6
CONTINUOUS
 10
328.107635
 20
347.603943
 40
3.000000
 50
-345.124329
 51
-270.000000
  0
ARC
  8
0
  6
CONTINUOUS
 10
334.315674
 20
347.603943
 40
3.000000
 50
-165.124313
 51
-90.000000
  0
LINE
  8
0
  6
CONTINUOUS
 10
324.820770
 20
350.603943
 11
322.756836
 21
358.374115
  0
LINE
  8
0
  6
CONTINUOUS
 10
258.321991
 20
348.374115
 11
257.912842
 21
346.833801
  0
ARC
  8
0
  6
CONTINUOUS
 10
261.221436
 20
347.603943
 40
3.000000
 50
90.000000
 51
165.124313
  0
ARC
  8
0
  6
CONTINUOUS
 10
255.013382
 20
347.603943
 40
3.000000
 50
-90.000000
 51
-14.875682
  0
LINE
  8
0
  6
CONTINUOUS
 10
264.508270
 20
350.603943
 11
261.221436
 21
350.603943
  0
ARC
  8
0
  6
CONTINUOUS
 10
269.471680
 20
357.603943
 40
3.000000
 50
90.000000
 51
165.124313
  0
LINE
  8
0
  6
CONTINUOUS
 10
264.508270
 20
350.603943
 11
266.572235
 21
358.374115
  0
LINE
  8
0
  6
CONTINUOUS
 10
283.664520
 20
222.603958
 11
308.164520
 21
222.603958
  0
LINE
  8
0
  6
CONTINUOUS
 10
305.664520
 20
262.603943
 11
305.664520
 21
257.603943
  0
LINE
  8
0
  6
CONTINUOUS
 10
283.664520
 20
262.603943
 11
283.664520
 21
222.603958
  0
LINE
  8
0
  6
CONTINUOUS
 10
307.164520
 20
264.603943
 11
307.164520
 21
262.603943
  0
LINE
  8
0
  6
CONTINUOUS
 10
282.164520
 20
264.603943
 11
282.164520
 21
262.603943
  0
LINE
  8
0
  6
CONTINUOUS
 10
282.164520
 20
262.603943
 11
307.164520
 21
262.603943
  0
LINE
  8
0
  6
CONTINUOUS
 10
308.164520
 20
254.603958
 11
337.602631
 21
254.603958
  0
LINE
  8
0
  6
CONTINUOUS
 10
308.164520
 20
257.603943
 11
308.164520
 21
222.603958
  0
LINE
  8
0
  6
CONTINUOUS
 10
305.247528
 20
222.603958
 11
305.247528
 21
257.603943
  0
LINE
  8
0
  6
CONTINUOUS
 10
305.247528
 20
257.603943
 11
308.164520
 21
257.603943
  0
LINE
  8
0
  6
CONTINUOUS
 10
283.664520
 20
402.603943
 11
308.164520
 21
402.603943
  0
LINE
  8
0
  6
CONTINUOUS
 10
305.664520
 20
362.603943
 11
305.664520
 21
367.603943
  0
LINE
  8
0
  6
CONTINUOUS
 10
283.664520
 20
362.603943
 11
283.664520
 21
402.603943
  0
LINE
  8
0
  6
CONTINUOUS
 10
307.164520
 20
360.603943
 11
307.164520
 21
362.603943
  0
LINE
  8
0
  6
CONTINUOUS
 10
282.164520
 20
360.603943
 11
282.164520
 21
362.603943
  0
LINE
  8
0
  6
CONTINUOUS
 10
282.164520
 20
362.603943
 11
307.164520
 21
362.603943
  0
LINE
  8
0
  6
CONTINUOUS
 10
308.164520
 20
367.603943
 11
308.164520
 21
402.603943
  0
LINE
  8
0
  6
CONTINUOUS
 10
305.247528
 20
402.603943
 11
305.247528
 21
367.603943
  0
LINE
  8
0
  6
CONTINUOUS
 10
305.247528
 20
367.603943
 11
308.164520
 21
367.603943
  0
LINE
  8
0
  6
CONTINUOUS
 10
283.664520
 20
370.603943
 11
251.548264
 21
370.603943
  0
LINE
  8
0
  6
CONTINUOUS
 10
229.914536
 20
360.103943
 11
235.247375
 21
360.103943
  0
ARC
  8
0
  6
CONTINUOUS
 10
235.247375
 20
357.103943
 40
3.000000
 50
1.500000
 51
90.000000
  0
LINE
  8
0
  6
CONTINUOUS
 10
238.205002
 20
344.603943
 11
229.914536
 21
344.603943
  0
LINE
  8
0
  6
CONTINUOUS
 10
238.205002
 20
280.603943
 11
229.914536
 21
280.603943
  0
LINE
  8
0
  6
CONTINUOUS
 10
229.914536
 20
265.103943
 11
235.247375
 21
265.103943
  0
ARC
  8
0
  6
CONTINUOUS
 10
235.247375
 20
268.103943
 40
3.000000
 50
-90.000000
 51
-1.500000
  0
LINE
  8
0
  6
CONTINUOUS
 10
493.899994
 20
1.979687
 11
541.900024
 21
1.979687
  0
LINE
  8
0
  6
CONTINUOUS
 10
542.900024
 20
0.979687
 11
541.900024
 21
1.979687
  0
LINE
  8
0
  6
CONTINUOUS
 10
492.899994
 20
0.979687
 11
493.899994
 21
1.979687
  0
LINE
  8
0
  6
CONTINUOUS
 10
542.900024
 20
0.979687
 11
575.900024
 21
0.979687
  0
LINE
  8
0
  6
CONTINUOUS
 10
224.414536
 20
255.103958
 11
229.914536
 21
255.103958
  0
LINE
  8
0
  6
CONTINUOUS
 10
224.414536
 20
370.103943
 11
229.914536
 21
370.103943
  0
LINE
  8
0
  6
CONTINUOUS
 10
221.914536
 20
257.603943
 11
221.914536
 21
367.603943
  0
LINE
  8
0
  6
CONTINUOUS
 10
177.914536
 20
350.603943
 11
177.914536
 21
274.603943
  0
LINE
  8
0
  6
CONTINUOUS
 10
219.501785
 20
352.056213
 11
177.914536
 21
350.603943
  0
LINE
  8
0
  6
CONTINUOUS
 10
219.501785
 20
273.151703
 11
177.914536
 21
274.603943
  0
ARC
  8
0
  6
CONTINUOUS
 10
224.414536
 20
367.603943
 40
2.500000
 50
90.000000
 51
180.000000
  0
ARC
  8
0
  6
CONTINUOUS
 10
224.414536
 20
257.603943
 40
2.500000
 50
180.000000
 51
270.000000
  0
ARC
  8
0
  6
CONTINUOUS
 10
222.914536
 20
131.979691
 40
1.000000
 50
90.000000
 51
180.000000
  0
ARC
  8
0
  6
CONTINUOUS
 10
219.414536
 20
118.048866
 40
2.500000
 50
-64.230675
 51
0.000000
  0
ARC
  8
0
  6
CONTINUOUS
 10
219.414536
 20
106.430428
 40
2.500000
 50
-88.000000
 51
0.000000
  0
ARC
  8
0
  6
CONTINUOUS
 10
193.471100
 20
105.524460
 40
2.500000
 50
272.000000
 51
295.769318
  0
LINE
  8
0
  6
CONTINUOUS
 10
177.914536
 20
350.603943
 11
177.914536
 21
274.603943
  0
LINE
  8
0
  6
CONTINUOUS
 10
63.914654
 20
350.603943
 11
177.914658
 21
350.603943
  0
LINE
  8
0
  6
CONTINUOUS
 10
63.914654
 20
274.603973
 11
177.914658
 21
274.603973
  0
LINE
  8
0
  6
CONTINUOUS
 10
169.914658
 20
348.603943
 11
169.914658
 21
335.603943
  0
ARC
  8
0
  6
CONTINUOUS
 10
171.914658
 20
348.603943
 40
2.000000
 50
90.000000
 51
180.000000
  0
ARC
  8
0
  6
CONTINUOUS
 10
171.914658
 20
276.603973
 40
2.000000
 50
180.000000
 51
270.000000
  0
LINE
  8
0
  6
CONTINUOUS
 10
104.914642
 20
335.603943
 11
169.914658
 21
335.603943
  0
LINE
  8
0
  6
CONTINUOUS
 10
104.914650
 20
289.603943
 11
169.914658
 21
289.603943
  0
LINE
  8
0
  6
CONTINUOUS
 10
169.914658
 20
289.603943
 11
169.914658
 21
276.603943
  0
ARC
  8
0
  6
CONTINUOUS
 10
209.084167
 20
312.603943
 40
15.000000
 50
130.747620
 51
229.252380
  0
LINE
  8
0
  6
CONTINUOUS
 10
221.046356
 20
342.709961
 11
199.293243
 21
323.967834
  0
LINE
  8
0
  6
CONTINUOUS
 10
221.046356
 20
282.497955
 11
199.293243
 21
301.240082
  0
ARC
  8
0
  6
CONTINUOUS
 10
219.414536
 20
344.603943
 40
2.500000
 50
-49.252373
 51
0.000000
  0
ARC
  8
0
  6
CONTINUOUS
 10
219.414536
 20
354.554688
 40
2.500000
 50
-88.000000
 51
0.000000
  0
ARC
  8
0
  6
CONTINUOUS
 10
219.414536
 20
280.603973
 40
2.500000
 50
0.000000
 51
49.252373
  0
ARC
  8
0
  6
CONTINUOUS
 10
219.414536
 20
270.653229
 40
2.500000
 50
0.000000
 51
88.000000
  0
LINE
  8
0
  6
CONTINUOUS
 10
223.039612
 20
32.325687
 11
229.914536
 21
32.325687
  0
LINE
  8
0
  6
CONTINUOUS
 10
221.914536
 20
20.479687
 11
221.914536
 21
22.528952
  0
ARC
  8
0
  6
CONTINUOUS
 10
224.414536
 20
20.479687
 40
2.500000
 50
180.000000
 51
270.000000
  0
ARC
  8
0
  6
CONTINUOUS
 10
219.414536
 20
22.528952
 40
2.500000
 50
0.000000
 51
88.000000
  0
ARC
  8
0
  6
CONTINUOUS
 10
517.900024
 20
75.479691
 40
57.500000
 50
236.002823
 51
236.184402
  0
ARC
  8
0
  6
CONTINUOUS
 10
517.900024
 20
75.479691
 40
57.500000
 50
303.815582
 51
303.997162
  0
ARC
  8
0
  6
CONTINUOUS
 10
517.900024
 20
75.479691
 40
57.500000
 50
-33.997124
 51
19.823904
  0
ARC
  8
0
  6
CONTINUOUS
 10
517.900024
 20
75.479691
 40
57.500000
 50
160.176102
 51
213.997131
  0
LINE
  8
0
  6
CONTINUOUS
 10
63.914654
 20
350.603943
 11
63.914654
 21
337.603943
  0
LINE
  8
0
  6
CONTINUOUS
 10
63.914654
 20
350.603943
 11
54.414654
 21
350.603943
  0
LINE
  8
0
  6
CONTINUOUS
 10
63.914654
 20
274.603943
 11
54.414654
 21
274.603943
  0
LINE
  8
0
  6
CONTINUOUS
 10
54.914654
 20
289.603943
 11
54.414654
 21
289.603943
  0
LINE
  8
0
  6
CONTINUOUS
 10
54.914654
 20
335.603943
 11
54.414654
 21
335.603943
  0
LINE
  8
0
  6
CONTINUOUS
 10
63.914654
 20
287.603943
 11
63.914654
 21
274.603943
  0
LINE
  8
0
  6
CONTINUOUS
 10
54.414654
 20
272.603943
 11
54.414654
 21
312.603943
  0
LINE
  8
0
  6
CONTINUOUS
 10
10.414653
 20
352.603943
 11
54.414654
 21
352.603943
  0
LINE
  8
0
  6
CONTINUOUS
 10
10.414653
 20
272.603943
 11
54.414654
 21
272.603943
  0
LINE
  8
0
  6
CONTINUOUS
 10
5.414653
 20
277.603943
 11
5.414653
 21
347.603943
  0
ARC
  8
0
  6
CONTINUOUS
 10
10.414653
 20
347.603943
 40
5.000000
 50
90.000000
 51
180.000000
  0
ARC
  8
0
  6
CONTINUOUS
 10
10.414653
 20
277.603943
 40
5.000000
 50
180.000000
 51
270.000000
  0
LINE
  8
0
  6
CONTINUOUS
 10
7.914653
 20
336.603943
 11
54.414654
 21
336.603943
  0
LINE
  8
0
  6
CONTINUOUS
 10
7.914653
 20
286.603943
 11
54.414654
 21
286.603943
  0
LINE
  8
0
  6
CONTINUOUS
 10
54.414532
 20
102.479668
 11
63.914532
 21
102.479668
  0
LINE
  8
0
  6
CONTINUOUS
 10
54.414532
 20
26.479668
 11
63.914532
 21
26.479668
  0
LINE
  8
0
  6
CONTINUOUS
 10
54.414532
 20
24.479668
 11
54.414532
 21
104.479668
  0
LINE
  8
0
  6
CONTINUOUS
 10
54.414532
 20
94.728668
 11
63.914532
 21
94.728668
  0
LINE
  8
0
  6
CONTINUOUS
 10
54.414532
 20
34.230667
 11
63.914532
 21
34.230667
  0
LINE
  8
0
  6
CONTINUOUS
 10
10.414531
 20
104.479668
 11
54.414532
 21
104.479668
  0
LINE
  8
0
  6
CONTINUOUS
 10
10.414531
 20
24.479668
 11
54.414532
 21
24.479668
  0
LINE
  8
0
  6
CONTINUOUS
 10
5.414531
 20
29.479668
 11
5.414531
 21
99.479668
  0
ARC
  8
0
  6
CONTINUOUS
 10
10.414531
 20
99.479668
 40
5.000000
 50
90.000000
 51
180.000000
  0
ARC
  8
0
  6
CONTINUOUS
 10
10.414531
 20
29.479668
 40
5.000000
 50
180.000000
 51
270.000000
  0
LINE
  8
0
  6
CONTINUOUS
 10
7.914531
 20
90.479668
 11
54.414532
 21
90.479668
  0
LINE
  8
0
  6
CONTINUOUS
 10
7.914531
 20
40.479668
 11
54.414532
 21
40.479668
  0
LINE
  8
0
  6
CONTINUOUS
 10
63.914532
 20
26.479687
 11
63.914532
 21
102.479668
  0
LINE
  8
0
  6
CONTINUOUS
 10
54.414654
 20
312.603943
 11
54.414654
 21
352.603943
  0
LINE
  8
0
  6
CONTINUOUS
 10
54.914654
 20
289.603943
 11
54.914654
 21
335.603943
  0
LINE
  8
0
  6
CONTINUOUS
 10
56.914654
 20
337.603943
 11
54.914654
 21
335.603943
  0
LINE
  8
0
  6
CONTINUOUS
 10
56.914654
 20
337.603943
 11
102.914642
 21
337.603943
  0
LINE
  8
0
  6
CONTINUOUS
 10
97.414650
 20
333.103943
 11
97.414650
 21
337.603943
  0
ARC
  8
0
  6
CONTINUOUS
 10
100.414650
 20
333.103943
 40
3.000000
 50
180.000000
 51
270.000000
  0
LINE
  8
0
  6
CONTINUOUS
 10
100.414650
 20
330.103943
 11
104.914642
 21
330.103943
  0
CIRCLE
  8
0
  6
CONTINUOUS
 10
101.414650
 20
334.103943
 40
2.250000
  0
LINE
  8
0
  6
CONTINUOUS
 10
104.914650
 20
289.603943
 11
104.914642
 21
335.603943
  0
LINE
  8
0
  6
CONTINUOUS
 10
102.914642
 20
337.603943
 11
104.914642
 21
335.603943
  0
LINE
  8
0
  6
CONTINUOUS
 10
102.914650
 20
287.603943
 11
104.914650
 21
289.603943
  0
LINE
  8
0
  6
CONTINUOUS
 10
102.914650
 20
287.603943
 11
56.914654
 21
287.603943
  0
LINE
  8
0
  6
CONTINUOUS
 10
54.914654
 20
289.603943
 11
56.914654
 21
287.603943
  0
LINE
  8
0
  6
CONTINUOUS
 10
59.414654
 20
295.103943
 11
54.914661
 21
295.103943
  0
CIRCLE
  8
0
  6
CONTINUOUS
 10
58.414654
 20
291.103943
 40
2.250000
  0
ARC
  8
0
  6
CONTINUOUS
 10
59.414654
 20
292.103943
 40
3.000000
 50
0.000000
 51
90.000000
  0
LINE
  8
0
  6
CONTINUOUS
 10
62.414654
 20
292.103943
 11
62.414654
 21
287.603943
  0
LINE
  8
0
  6
CENTER
 10
79.914650
 20
280.138153
 11
79.914650
 21
344.270203
  0
LINE
  8
0
  6
CONTINUOUS
 10
55.914658
 20
295.103943
 11
55.914658
 21
330.103943
  0
LINE
  8
0
  6
CONTINUOUS
 10
97.414650
 20
336.603943
 11
62.414654
 21
336.603943
  0
LINE
  8
0
  6
CONTINUOUS
 10
103.914650
 20
330.103943
 11
103.914650
 21
295.103943
  0
LINE
  8
0
  6
CONTINUOUS
 10
62.414654
 20
288.603943
 11
97.414650
 21
288.603943
  0
LINE
  8
0
  6
CONTINUOUS
 10
59.414654
 20
330.103943
 11
54.914654
 21
330.103943
  0
ARC
  8
0
  6
CONTINUOUS
 10
59.414654
 20
333.103943
 40
3.000000
 50
-90.000000
 51
0.000000
  0
LINE
  8
0
  6
CONTINUOUS
 10
62.414654
 20
333.103943
 11
62.414654
 21
337.603943
  0
CIRCLE
  8
0
  6
CONTINUOUS
 10
58.414654
 20
334.103943
 40
2.250000
  0
ARC
  8
0
  6
CONTINUOUS
 10
100.414650
 20
292.103943
 40
3.000000
 50
90.000000
 51
180.000000
  0
LINE
  8
0
  6
CONTINUOUS
 10
97.414650
 20
292.103943
 11
97.414650
 21
287.603943
  0
LINE
  8
0
  6
CONTINUOUS
 10
100.414650
 20
295.103943
 11
104.914650
 21
295.103943
  0
CIRCLE
  8
0
  6
CONTINUOUS
 10
101.414650
 20
291.103943
 40
2.250000
  0
LINE
  8
0
  6
CONTINUOUS
 10
56.414532
 20
103.979668
 11
102.914528
 21
103.979668
  0
LINE
  8
0
  6
CONTINUOUS
 10
104.914513
 20
147.979660
 11
104.914528
 21
105.979668
  0
LINE
  8
0
  6
CONTINUOUS
 10
54.914532
 20
147.979660
 11
54.914532
 21
105.979668
  0
LINE
  8
0
  6
CONTINUOUS
 10
54.914532
 20
115.979668
 11
104.914528
 21
115.979668
  0
LINE
  8
0
  6
CONTINUOUS
 10
102.914528
 20
103.979668
 11
104.914528
 21
105.979668
  0
LINE
  8
0
  6
CONTINUOUS
 10
54.914532
 20
105.979668
 11
56.914532
 21
103.979668
  0
LINE
  8
0
  6
CONTINUOUS
 10
54.914532
 20
105.979668
 11
104.914528
 21
105.979668
  0
LINE
  8
0
  6
CONTINUOUS
 10
54.914532
 20
116.979668
 11
104.914513
 21
116.979668
  0
LINE
  8
0
  6
CONTINUOUS
 10
55.914532
 20
148.979660
 11
103.914513
 21
148.979660
  0
LINE
  8
0
  6
CONTINUOUS
 10
103.914513
 20
148.979660
 11
104.914513
 21
147.979660
  0
LINE
  8
0
  6
CONTINUOUS
 10
55.914532
 20
148.979660
 11
54.914532
 21
147.979660
  0
LINE
  8
0
  6
CONTINUOUS
 10
54.914532
 20
147.979660
 11
104.914513
 21
147.979660
  0
LINE
  8
0
  6
CENTER
 10
79.914528
 20
97.590157
 11
79.914528
 21
155.282166
  0
LINE
  8
0
  6
CENTER
 10
52.539532
 20
131.979660
 11
57.164532
 21
131.979660
  0
LINE
  8
0
  6
CONTINUOUS
 10
56.414532
 20
103.979668
 11
56.414532
 21
102.479668
  0
LINE
  8
0
  6
CONTINUOUS
 10
102.414528
 20
103.979668
 11
102.414528
 21
102.479668
  0
LINE
  8
0
  6
CONTINUOUS
 10
54.039532
 20
142.479660
 11
56.039532
 21
142.479660
  0
LINE
  8
0
  6
CONTINUOUS
 10
54.039532
 20
121.479668
 11
56.039532
 21
121.479668
  0
LINE
  8
0
  6
CONTINUOUS
 10
177.914536
 20
55.079689
 11
221.914536
 21
55.079689
  0
LINE
  8
0
  6
CONTINUOUS
 10
177.914536
 20
44.879688
 11
221.914536
 21
44.879688
  0
TEXT
  8
0
 10
-8.000000
 20
-14.000000
 40
4.000000
 41
1.000000
  1
HLM-22T-300~450-S60WK
 50
0.000000
  0
ENDSEC
  0
EOF
