  0
SECTION
  2
HEADER
  9
$CLAYER
  8
1
  9
$LTSCALE
 40
3.0
  0
ENDSEC
  0
SECTION
  2
TABLES
  0
TABLE
  2
LTYPE
 70
     4
  0
LTYPE
  2
CONTINUOUS
  3
solid line
 70
    64
 72
    65
 73
     0
 40
0.0
  0
LTYPE
  2
DASHED
  3
__ __ __ __ __ __ __ __ __ __ __ __ __ __ __
 70
    64
 72
    65
 73
     2
 40
0.75
 49
0.5
 49
-0.25
  0
LTYPE
  2
CENTER
  3
____ _ ____ _ ____ _ ____ _ ____ _ ____ _ ____
 70
    64
 72
    65
 73
     4
 40
2.0
 49
1.25
 49
-0.25
 49
0.25
 49
-0.25
  0
LTYPE
  2
PHANTOM
  3
_____ _ _ _____ _ _ _____ _ _ _____ _ _ ____
 70
    64
 72
    65
 73
     6
 40
2.5
 49
1.25
 49
-0.25
 49
0.25
 49
-0.25
 49
0.25
 49
-0.25
  0
ENDTAB
  0
TABLE
  2
LAYER
 70
     1
  0
LAYER
  2
0
 70
    64
 62
     7
  6
CONTINUOUS
  0
ENDTAB
  0
TABLE
  2
STYLE
 70
     1
  0
STYLE
  2
STANDARD
 70
     0
 40
0.000000
 41
1.000000
 50
0.000000
 71
     0
 42
3.000000
  3
txt
  4
BIGFONT
  0
ENDTAB
  0
ENDSEC
  0
SECTION
  2
BLOCKS
  0
ENDSEC
  0
SECTION
  2
ENTITIES
  0
LINE
  8
0
  6
CENTER
 10
150.316254
 20
81.219688
 11
264.099518
 21
81.219688
  0
LINE
  8
0
  6
CENTER
 10
296.099518
 20
163.969681
 11
296.099518
 21
0.469687
  0
LINE
  8
0
  6
CENTER
 10
249.529129
 20
111.719688
 11
343.602509
 21
111.719688
  0
LINE
  8
0
  6
CONTINUOUS
 10
243.099533
 20
6.719687
 11
349.099518
 21
6.719687
  0
LINE
  8
0
  6
CONTINUOUS
 10
277.670135
 20
156.719681
 11
314.528931
 21
156.719681
  0
LINE
  8
0
  6
CONTINUOUS
 10
349.099518
 20
131.109924
 11
349.099518
 21
6.719708
  0
LINE
  8
0
  6
CONTINUOUS
 10
243.099533
 20
31.719687
 11
243.099533
 21
6.719687
  0
LINE
  8
0
  6
CONTINUOUS
 10
231.349533
 20
138.469681
 11
248.972534
 21
138.469681
  0
LINE
  8
0
  6
CONTINUOUS
 10
231.349533
 20
23.969687
 11
238.099548
 21
23.969687
  0
LINE
  8
0
  6
CONTINUOUS
 10
239.349533
 20
35.719688
 11
239.349533
 21
126.719688
  0
LINE
  8
0
  6
CONTINUOUS
 10
346.958527
 20
135.211929
 11
317.387939
 21
155.821671
  0
LINE
  8
0
  6
CONTINUOUS
 10
245.240524
 20
135.211929
 11
274.811127
 21
155.821671
  0
LINE
  8
0
  6
CONTINUOUS
 10
277.037933
 20
18.719687
 11
243.099533
 21
18.719687
  0
LINE
  8
0
  6
CONTINUOUS
 10
282.661133
 20
28.719687
 11
309.537933
 21
28.719687
  0
LINE
  8
0
  6
CONTINUOUS
 10
311.099518
 20
27.282187
 11
311.099518
 21
19.719687
  0
LINE
  8
0
  6
CONTINUOUS
 10
281.099518
 20
27.094687
 11
281.099518
 21
19.719687
  0
LINE
  8
0
  6
CONTINUOUS
 10
278.978333
 20
20.234608
 11
280.720734
 21
27.204767
  0
LINE
  8
0
  6
CONTINUOUS
 10
313.220734
 20
20.234608
 11
311.478333
 21
27.204748
  0
LINE
  8
0
  6
CONTINUOUS
 10
249.099533
 20
17.657187
 11
249.099533
 21
6.719687
  0
LINE
  8
0
  6
CONTINUOUS
 10
343.099518
 20
17.657187
 11
343.099518
 21
6.719687
  0
LINE
  8
0
  6
CENTER
 10
261.099518
 20
22.469687
 11
261.099518
 21
2.469687
  0
LINE
  8
0
  6
CENTER
 10
331.099518
 20
23.469687
 11
331.099518
 21
2.969687
  0
LINE
  8
0
  6
DASHED
 10
255.599533
 20
18.719687
 11
255.599533
 21
6.719687
  0
LINE
  8
0
  6
DASHED
 10
266.599518
 20
18.719687
 11
266.599518
 21
6.719687
  0
LINE
  8
0
  6
DASHED
 10
325.599518
 20
18.719687
 11
325.599518
 21
6.719687
  0
LINE
  8
0
  6
DASHED
 10
336.599518
 20
18.719687
 11
336.599518
 21
6.719687
  0
ARC
  8
0
  6
CONTINUOUS
 10
314.528931
 20
151.719681
 40
5.000000
 50
55.124809
 51
90.000000
  0
ARC
  8
0
  6
CONTINUOUS
 10
277.670135
 20
151.719681
 40
5.000000
 50
90.000000
 51
124.875603
  0
ARC
  8
0
  6
CONTINUOUS
 10
344.099518
 20
131.109924
 40
5.000000
 50
0.000000
 51
55.124851
  0
ARC
  8
0
  6
CONTINUOUS
 10
248.099533
 20
131.109940
 40
5.000000
 50
124.875702
 51
180.000000
  0
LINE
  8
0
  6
CONTINUOUS
 10
231.349533
 20
128.719681
 11
241.099533
 21
128.719681
  0
LINE
  8
0
  6
CONTINUOUS
 10
237.349533
 20
33.719688
 11
231.349533
 21
33.719688
  0
LINE
  8
0
  6
CONTINUOUS
 10
231.349533
 20
113.179688
 11
238.224533
 21
113.179688
  0
LINE
  8
0
  6
CONTINUOUS
 10
231.349533
 20
49.259689
 11
238.349533
 21
49.259689
  0
ARC
  8
0
  6
CONTINUOUS
 10
248.972336
 20
141.469681
 40
3.000000
 50
270.000000
 51
304.875397
  0
ARC
  8
0
  6
CONTINUOUS
 10
237.349548
 20
126.719688
 40
2.000000
 50
0.000000
 51
90.000000
  0
ARC
  8
0
  6
CONTINUOUS
 10
241.099533
 20
130.719681
 40
2.000000
 50
-90.000000
 51
0.000000
  0
LINE
  8
0
  6
CONTINUOUS
 10
243.099548
 20
131.109940
 11
243.099533
 21
130.719681
  0
ARC
  8
0
  6
CONTINUOUS
 10
241.099533
 20
31.719687
 40
2.000000
 50
0.000000
 51
90.000000
  0
LINE
  8
0
  6
CONTINUOUS
 10
237.349533
 20
33.719688
 11
241.099533
 21
33.719688
  0
ARC
  8
0
  6
CONTINUOUS
 10
237.349533
 20
35.719688
 40
2.000000
 50
-90.000000
 51
0.000000
  0
ARC
  8
0
  6
CONTINUOUS
 10
238.099548
 20
18.969667
 40
5.000000
 50
0.000000
 51
90.000000
  0
ARC
  8
0
  6
CONTINUOUS
 10
309.537933
 20
26.719687
 40
2.000000
 50
14.036440
 51
90.000000
  0
ARC
  8
0
  6
CONTINUOUS
 10
282.661133
 20
26.719687
 40
2.000000
 50
90.000000
 51
165.963898
  0
LINE
  8
0
  6
CONTINUOUS
 10
315.161133
 20
18.719687
 11
349.099518
 21
18.719687
  0
ARC
  8
0
  6
CONTINUOUS
 10
277.037933
 20
20.719687
 40
2.000000
 50
270.000000
 51
345.963715
  0
LINE
  8
0
  6
CONTINUOUS
 10
315.161133
 20
18.719687
 11
277.037933
 21
18.719687
  0
ARC
  8
0
  6
CONTINUOUS
 10
315.161133
 20
20.719687
 40
2.000000
 50
194.036194
 51
270.000000
  0
ARC
  8
0
  6
CONTINUOUS
 10
280.099518
 20
19.719687
 40
1.000000
 50
-90.000000
 51
0.000000
  0
ARC
  8
0
  6
CONTINUOUS
 10
312.099518
 20
19.719687
 40
1.000000
 50
180.000000
 51
270.000000
  0
CIRCLE
  8
0
  6
CONTINUOUS
 10
296.099518
 20
111.719688
 40
27.500000
  0
ARC
  8
0
  6
CONTINUOUS
 10
296.099518
 20
111.719688
 40
31.750000
 50
7.552697
 51
172.447403
  0
ARC
  8
0
  6
CONTINUOUS
 10
279.349518
 20
70.219688
 40
20.600000
 50
172.447403
 51
270.000000
  0
ARC
  8
0
  6
CONTINUOUS
 10
312.849518
 20
70.219688
 40
20.600000
 50
-90.000000
 51
7.552700
  0
LINE
  8
0
  6
CONTINUOUS
 10
327.574127
 20
115.892845
 11
333.270721
 21
72.927315
  0
LINE
  8
0
  6
CONTINUOUS
 10
258.928345
 20
72.927277
 11
264.624939
 21
115.892792
  0
LINE
  8
0
  6
CONTINUOUS
 10
279.349518
 20
49.619686
 11
312.849518
 21
49.619686
  0
ARC
  8
0
  6
CONTINUOUS
 10
279.349518
 20
70.219688
 40
19.000000
 50
172.447601
 51
270.000000
  0
ARC
  8
0
  6
CONTINUOUS
 10
312.849518
 20
70.219688
 40
19.000000
 50
-90.000000
 51
7.552700
  0
ARC
  8
0
  6
CONTINUOUS
 10
296.099518
 20
111.719688
 40
30.150000
 50
-187.552597
 51
7.552697
  0
LINE
  8
0
  6
CONTINUOUS
 10
260.514343
 20
72.716980
 11
266.211121
 21
115.682510
  0
LINE
  8
0
  6
CONTINUOUS
 10
325.987946
 20
115.682549
 11
331.684723
 21
72.717010
  0
LINE
  8
0
  6
CONTINUOUS
 10
279.349518
 20
51.219688
 11
312.849518
 21
51.219688
  0
LINE
  8
0
  6
CONTINUOUS
 10
285.803131
 20
58.719688
 11
281.642731
 21
58.719688
  0
LINE
  8
0
  6
CONTINUOUS
 10
288.099518
 20
65.688438
 11
288.099518
 21
58.719688
  0
LINE
  8
0
  6
CONTINUOUS
 10
292.099518
 20
68.219688
 11
292.099518
 21
70.719688
  0
LINE
  8
0
  6
CONTINUOUS
 10
300.099518
 20
68.219688
 11
300.099518
 21
70.719688
  0
LINE
  8
0
  6
CONTINUOUS
 10
295.318329
 20
69.250938
 11
295.318329
 21
60.032188
  0
LINE
  8
0
  6
CONTINUOUS
 10
296.818329
 20
69.250938
 11
296.818329
 21
60.032188
  0
LINE
  8
0
  6
CONTINUOUS
 10
304.693329
 20
69.250938
 11
304.693329
 21
59.969688
  0
LINE
  8
0
  6
CONTINUOUS
 10
306.068329
 20
64.329063
 11
306.068329
 21
59.969688
  0
LINE
  8
0
  6
CONTINUOUS
 10
286.201538
 20
69.125938
 11
282.346527
 21
69.125938
  0
LINE
  8
0
  6
CONTINUOUS
 10
282.346527
 20
69.125938
 11
281.443329
 21
68.005936
  0
LINE
  8
0
  6
CONTINUOUS
 10
281.551941
 20
70.719688
 11
280.099518
 21
68.859924
  0
LINE
  8
0
  6
CONTINUOUS
 10
281.443329
 20
61.092609
 11
282.360931
 21
60.125927
  0
LINE
  8
0
  6
CONTINUOUS
 10
280.099518
 20
60.276848
 11
281.642731
 21
58.719688
  0
LINE
  8
0
  6
CONTINUOUS
 10
280.099518
 20
68.859924
 11
280.099518
 21
60.276848
  0
LINE
  8
0
  6
CONTINUOUS
 10
281.443329
 20
68.005936
 11
281.443329
 21
61.092609
  0
LINE
  8
0
  6
CONTINUOUS
 10
286.943329
 20
68.408829
 11
286.186340
 21
69.125938
  0
LINE
  8
0
  6
CONTINUOUS
 10
286.931335
 20
70.719688
 11
288.099518
 21
69.423195
  0
LINE
  8
0
  6
CONTINUOUS
 10
286.943329
 20
68.219688
 11
288.099518
 21
68.219688
  0
LINE
  8
0
  6
CONTINUOUS
 10
281.551941
 20
70.719688
 11
286.931335
 21
70.719688
  0
LINE
  8
0
  6
CONTINUOUS
 10
284.849518
 20
65.688438
 11
288.099518
 21
65.688438
  0
LINE
  8
0
  6
CONTINUOUS
 10
286.943329
 20
64.375938
 11
284.849518
 21
64.375938
  0
LINE
  8
0
  6
CONTINUOUS
 10
284.443329
 20
60.125927
 11
282.360931
 21
60.125927
  0
LINE
  8
0
  6
CONTINUOUS
 10
286.943329
 20
63.125938
 11
286.943329
 21
64.125938
  0
ARC
  8
0
  6
CONTINUOUS
 10
284.443329
 20
62.625931
 40
2.500000
 50
-89.999786
 51
0.000109
  0
LINE
  8
0
  6
CONTINUOUS
 10
286.943329
 20
59.676247
 11
286.943329
 21
58.719688
  0
LINE
  8
0
  6
CONTINUOUS
 10
288.099518
 20
69.423195
 11
288.099518
 21
68.219688
  0
LINE
  8
0
  6
CONTINUOUS
 10
286.943329
 20
64.375938
 11
286.943329
 21
62.625935
  0
LINE
  8
0
  6
CONTINUOUS
 10
284.849518
 20
65.688438
 11
284.849518
 21
64.375938
  0
LINE
  8
0
  6
CONTINUOUS
 10
286.943329
 20
58.719688
 11
288.099518
 21
58.719688
  0
LINE
  8
0
  6
CONTINUOUS
 10
286.943329
 20
59.676247
 11
285.803131
 21
58.719688
  0
LINE
  8
0
  6
CONTINUOUS
 10
296.818329
 20
60.032188
 11
297.318329
 21
60.032188
  0
LINE
  8
0
  6
CONTINUOUS
 10
294.724518
 20
60.032188
 11
294.724518
 21
58.719688
  0
LINE
  8
0
  6
CONTINUOUS
 10
297.318329
 20
60.032188
 11
297.318329
 21
58.719688
  0
LINE
  8
0
  6
CONTINUOUS
 10
299.265137
 20
68.219688
 11
300.099518
 21
68.219688
  0
LINE
  8
0
  6
CONTINUOUS
 10
292.099518
 20
68.219688
 11
292.987518
 21
68.219688
  0
LINE
  8
0
  6
CONTINUOUS
 10
292.099518
 20
70.719688
 11
300.099518
 21
70.719688
  0
LINE
  8
0
  6
CONTINUOUS
 10
294.724518
 20
58.719688
 11
297.318329
 21
58.719688
  0
LINE
  8
0
  6
CONTINUOUS
 10
294.724518
 20
60.032188
 11
295.318329
 21
60.032188
  0
ARC
  8
0
  6
CONTINUOUS
 10
308.896545
 20
67.516563
 40
3.203126
 50
-73.981873
 51
90.003510
  0
ARC
  8
0
  6
CONTINUOUS
 10
308.896545
 20
67.516563
 40
1.954125
 50
-82.585274
 51
62.411850
  0
LINE
  8
0
  6
CONTINUOUS
 10
304.099518
 20
70.719688
 11
308.896545
 21
70.719688
  0
LINE
  8
0
  6
CONTINUOUS
 10
309.148529
 20
65.578781
 11
306.068329
 21
65.578781
  0
LINE
  8
0
  6
CONTINUOUS
 10
304.099518
 20
70.719688
 11
304.099518
 21
69.250938
  0
LINE
  8
0
  6
CONTINUOUS
 10
306.068329
 20
69.250938
 11
306.068329
 21
65.578781
  0
LINE
  8
0
  6
CONTINUOUS
 10
309.780334
 20
64.437798
 11
311.762726
 21
59.969688
  0
LINE
  8
0
  6
CONTINUOUS
 10
308.628723
 20
64.329063
 11
310.504944
 21
59.969688
  0
LINE
  8
0
  6
CONTINUOUS
 10
304.099518
 20
59.969688
 11
304.693329
 21
59.969688
  0
LINE
  8
0
  6
CONTINUOUS
 10
306.068329
 20
59.969688
 11
306.615143
 21
59.969688
  0
LINE
  8
0
  6
CONTINUOUS
 10
306.615143
 20
58.719688
 11
304.099518
 21
58.719688
  0
LINE
  8
0
  6
CONTINUOUS
 10
310.255737
 20
59.969688
 11
310.504944
 21
59.969688
  0
LINE
  8
0
  6
CONTINUOUS
 10
311.762726
 20
59.969688
 11
312.099518
 21
59.969688
  0
LINE
  8
0
  6
CONTINUOUS
 10
310.255737
 20
58.719688
 11
312.099518
 21
58.719688
  0
LINE
  8
0
  6
CONTINUOUS
 10
312.099518
 20
59.969688
 11
312.099518
 21
58.719688
  0
LINE
  8
0
  6
CONTINUOUS
 10
310.255737
 20
59.969688
 11
310.255737
 21
58.719688
  0
LINE
  8
0
  6
CONTINUOUS
 10
306.615143
 20
59.969688
 11
306.615143
 21
58.719688
  0
LINE
  8
0
  6
CONTINUOUS
 10
304.099518
 20
59.969688
 11
304.099518
 21
58.719688
  0
LINE
  8
0
  6
CONTINUOUS
 10
293.417328
 20
69.250938
 11
292.987518
 21
68.219688
  0
LINE
  8
0
  6
CONTINUOUS
 10
298.902740
 20
69.250938
 11
299.265137
 21
68.219688
  0
LINE
  8
0
  6
CONTINUOUS
 10
296.818329
 20
69.250938
 11
298.902740
 21
69.250938
  0
LINE
  8
0
  6
CONTINUOUS
 10
295.318329
 20
69.250938
 11
293.417328
 21
69.250938
  0
LINE
  8
0
  6
CONTINUOUS
 10
306.068329
 20
64.329063
 11
308.628723
 21
64.329063
  0
LINE
  8
0
  6
CONTINUOUS
 10
304.099518
 20
69.250938
 11
304.693329
 21
69.250938
  0
LINE
  8
0
  6
CONTINUOUS
 10
306.068329
 20
69.250938
 11
309.801331
 21
69.248505
  0
LINE
  8
0
  6
CONTINUOUS
 10
286.943329
 20
68.408829
 11
286.943329
 21
68.219688
  0
LINE
  8
0
  6
CONTINUOUS
 10
231.349548
 20
138.719681
 11
231.349533
 21
23.719687
  0
LINE
  8
0
  6
CONTINUOUS
 10
65.349533
 20
108.219666
 11
179.349533
 21
108.219666
  0
LINE
  8
0
  6
CONTINUOUS
 10
65.349533
 20
32.219707
 11
179.349533
 21
32.219707
  0
LINE
  8
0
  6
CONTINUOUS
 10
65.349533
 20
100.468666
 11
171.349533
 21
100.468666
  0
LINE
  8
0
  6
CONTINUOUS
 10
65.349533
 20
39.970707
 11
171.349533
 21
39.970707
  0
LINE
  8
0
  6
CONTINUOUS
 10
171.349533
 20
106.219666
 11
171.349533
 21
34.219688
  0
ARC
  8
0
  6
CONTINUOUS
 10
173.349533
 20
106.219688
 40
2.000000
 50
90.000000
 51
180.000000
  0
ARC
  8
0
  6
CONTINUOUS
 10
173.349533
 20
34.219707
 40
2.000000
 50
180.000000
 51
270.000000
  0
LINE
  8
0
  6
CENTER
 10
522.205017
 20
-8.905333
 11
522.205017
 21
170.644684
  0
LINE
  8
0
  6
CENTER
 10
451.980011
 20
81.219688
 11
591.104980
 21
81.219688
  0
LINE
  8
0
  6
CENTER
 10
420.454987
 20
111.719688
 11
625.455017
 21
111.719688
  0
LINE
  8
0
  6
CONTINUOUS
 10
464.204987
 20
6.719687
 11
497.204987
 21
6.719687
  0
LINE
  8
0
  6
CONTINUOUS
 10
464.204987
 20
17.346087
 11
464.204987
 21
6.719687
  0
LINE
  8
0
  6
CONTINUOUS
 10
580.205017
 20
17.346087
 11
580.205017
 21
6.719687
  0
LINE
  8
0
  6
CONTINUOUS
 10
466.204987
 20
18.719687
 11
487.204987
 21
18.719687
  0
LINE
  8
0
  6
CONTINUOUS
 10
578.205017
 20
18.719687
 11
557.205017
 21
18.719687
  0
LINE
  8
0
  6
CONTINUOUS
 10
490.204987
 20
30.093288
 11
490.204987
 21
154.195602
  0
LINE
  8
0
  6
CONTINUOUS
 10
554.205017
 20
30.093288
 11
554.205017
 21
154.195969
  0
LINE
  8
0
  6
CONTINUOUS
 10
552.239807
 20
156.195663
 11
522.205017
 21
156.719681
  0
LINE
  8
0
  6
CONTINUOUS
 10
492.170013
 20
156.195328
 11
522.205017
 21
156.719681
  0
ARC
  8
0
  6
CONTINUOUS
 10
492.204987
 20
154.195633
 40
2.000000
 50
91.000580
 51
180.000000
  0
ARC
  8
0
  6
CONTINUOUS
 10
552.205017
 20
154.195969
 40
2.000000
 50
0.000000
 51
89.000519
  0
LINE
  8
0
  6
CONTINUOUS
 10
554.205017
 20
21.719687
 11
554.205017
 21
6.719687
  0
ARC
  8
0
  6
CONTINUOUS
 10
557.205017
 20
21.719687
 40
3.000000
 50
180.000000
 51
270.000000
  0
LINE
  8
0
  6
CONTINUOUS
 10
490.204987
 20
21.719687
 11
490.204987
 21
6.719687
  0
ARC
  8
0
  6
CONTINUOUS
 10
487.204987
 20
21.719667
 40
3.000000
 50
-90.000000
 51
0.000000
  0
ARC
  8
0
  6
CONTINUOUS
 10
466.204987
 20
16.719687
 40
2.000000
 50
90.000000
 51
180.000000
  0
ARC
  8
0
  6
CONTINUOUS
 10
578.205017
 20
16.719687
 40
2.000000
 50
0.000000
 51
90.000000
  0
LINE
  8
0
  6
CENTER
 10
477.204987
 20
23.009687
 11
477.204987
 21
2.609688
  0
LINE
  8
0
  6
CENTER
 10
567.205017
 20
24.029688
 11
567.205017
 21
2.099687
  0
LINE
  8
0
  6
CONTINUOUS
 10
488.923004
 20
28.226608
 11
465.487000
 21
19.212788
  0
ARC
  8
0
  6
CONTINUOUS
 10
466.204987
 20
17.346107
 40
2.000000
 50
111.037903
 51
180.000000
  0
LINE
  8
0
  6
CONTINUOUS
 10
490.204987
 20
30.093288
 11
490.204987
 21
21.719687
  0
ARC
  8
0
  6
CONTINUOUS
 10
488.204987
 20
30.093288
 40
2.000000
 50
-68.962189
 51
0.000000
  0
LINE
  8
0
  6
CONTINUOUS
 10
555.487000
 20
28.226587
 11
578.922974
 21
19.212788
  0
ARC
  8
0
  6
CONTINUOUS
 10
578.205017
 20
17.346087
 40
2.000000
 50
0.000000
 51
68.962646
  0
LINE
  8
0
  6
CONTINUOUS
 10
554.205017
 20
30.093288
 11
554.205017
 21
21.719687
  0
ARC
  8
0
  6
CONTINUOUS
 10
556.205017
 20
30.093307
 40
2.000000
 50
180.000000
 51
248.962799
  0
LINE
  8
0
  6
CONTINUOUS
 10
474.204987
 20
86.526840
 11
474.204987
 21
136.912521
  0
LINE
  8
0
  6
CONTINUOUS
 10
570.205017
 20
86.526840
 11
570.205017
 21
136.912521
  0
LINE
  8
0
  6
CONTINUOUS
 10
560.205017
 20
53.524529
 11
560.205017
 21
113.789688
  0
LINE
  8
0
  6
CONTINUOUS
 10
484.204987
 20
53.524529
 11
484.204987
 21
113.789688
  0
LINE
  8
0
  6
CONTINUOUS
 10
567.975220
 20
139.811981
 11
556.434814
 21
142.877380
  0
LINE
  8
0
  6
CONTINUOUS
 10
567.975220
 20
83.627388
 11
562.434814
 21
82.155731
  0
LINE
  8
0
  6
CONTINUOUS
 10
557.978027
 20
50.625828
 11
556.432007
 21
50.213547
  0
LINE
  8
0
  6
CONTINUOUS
 10
486.432007
 20
50.625809
 11
487.977997
 21
50.213547
  0
LINE
  8
0
  6
CONTINUOUS
 10
476.434814
 20
83.627380
 11
481.975189
 21
82.155731
  0
LINE
  8
0
  6
CONTINUOUS
 10
476.434814
 20
139.811981
 11
487.975189
 21
142.877380
  0
ARC
  8
0
  6
CONTINUOUS
 10
477.204987
 20
136.912552
 40
3.000000
 50
104.876099
 51
180.000000
  0
ARC
  8
0
  6
CONTINUOUS
 10
477.204987
 20
86.526855
 40
3.000000
 50
180.000000
 51
255.124603
  0
ARC
  8
0
  6
CONTINUOUS
 10
567.205017
 20
136.912521
 40
3.000000
 50
0.000000
 51
75.124413
  0
ARC
  8
0
  6
CONTINUOUS
 10
567.205017
 20
86.526833
 40
3.000000
 50
-75.124207
 51
0.000000
  0
ARC
  8
0
  6
CONTINUOUS
 10
487.204987
 20
53.524548
 40
3.000000
 50
180.000000
 51
255.069000
  0
ARC
  8
0
  6
CONTINUOUS
 10
557.205017
 20
53.524529
 40
3.000000
 50
-75.068420
 51
0.000000
  0
ARC
  8
0
  6
CONTINUOUS
 10
557.205017
 20
145.776871
 40
3.000000
 50
180.000000
 51
255.124603
  0
ARC
  8
0
  6
CONTINUOUS
 10
563.205017
 20
79.256294
 40
3.000000
 50
104.876099
 51
180.000000
  0
ARC
  8
0
  6
CONTINUOUS
 10
557.205017
 20
47.314869
 40
3.000000
 50
104.931801
 51
180.000000
  0
ARC
  8
0
  6
CONTINUOUS
 10
487.204987
 20
47.314850
 40
3.000000
 50
0.000000
 51
75.068779
  0
ARC
  8
0
  6
CONTINUOUS
 10
481.204987
 20
79.256271
 40
3.000000
 50
0.000000
 51
75.124496
  0
ARC
  8
0
  6
CONTINUOUS
 10
487.204987
 20
145.776825
 40
3.000000
 50
-75.124153
 51
0.000000
  0
LINE
  8
0
  6
DASHED
 10
471.704987
 20
18.719687
 11
471.704987
 21
6.719687
  0
LINE
  8
0
  6
DASHED
 10
482.704987
 20
18.719687
 11
482.704987
 21
6.719687
  0
LINE
  8
0
  6
DASHED
 10
561.705017
 20
18.719687
 11
561.705017
 21
6.719687
  0
LINE
  8
0
  6
DASHED
 10
572.705017
 20
18.719687
 11
572.705017
 21
6.719687
  0
LINE
  8
0
  6
CONTINUOUS
 10
492.434998
 20
133.719681
 11
552.104980
 21
133.719681
  0
LINE
  8
0
  6
CONTINUOUS
 10
474.704987
 20
38.719688
 11
474.704987
 21
47.771027
  0
LINE
  8
0
  6
CONTINUOUS
 10
569.705017
 20
38.719688
 11
569.705017
 21
47.771027
  0
LINE
  8
0
  6
CONTINUOUS
 10
479.704987
 20
33.719688
 11
488.736206
 21
33.719688
  0
LINE
  8
0
  6
CONTINUOUS
 10
564.705017
 20
33.719688
 11
555.653625
 21
33.719688
  0
ARC
  8
0
  6
CONTINUOUS
 10
522.205017
 20
81.219688
 40
57.250000
 50
-32.501888
 51
19.914110
  0
ARC
  8
0
  6
CONTINUOUS
 10
522.205017
 20
81.219688
 40
57.250000
 50
160.085907
 51
212.501907
  0
ARC
  8
0
  6
CONTINUOUS
 10
479.704987
 20
38.719688
 40
5.000000
 50
180.000000
 51
270.000000
  0
ARC
  8
0
  6
CONTINUOUS
 10
564.705017
 20
38.719688
 40
5.000000
 50
-90.000000
 51
0.000000
  0
ARC
  8
0
  6
CONTINUOUS
 10
488.756409
 20
28.719687
 40
5.000000
 50
73.928284
 51
90.230461
  0
ARC
  8
0
  6
CONTINUOUS
 10
555.653625
 20
28.719687
 40
5.000000
 50
90.000000
 51
106.071800
  0
ARC
  8
0
  6
CONTINUOUS
 10
469.704987
 20
47.771027
 40
5.000000
 50
0.000000
 51
32.499691
  0
ARC
  8
0
  6
CONTINUOUS
 10
574.705017
 20
47.771027
 40
5.000000
 50
147.498306
 51
180.000000
  0
LINE
  8
0
  6
CONTINUOUS
 10
556.205017
 20
32.219688
 11
554.205017
 21
32.219688
  0
LINE
  8
0
  6
CONTINUOUS
 10
488.204987
 20
32.219688
 11
490.204987
 21
32.219688
  0
ARC
  8
0
  6
CONTINUOUS
 10
556.205017
 20
36.219688
 40
4.000000
 50
270.000000
 51
322.311005
  0
ARC
  8
0
  6
CONTINUOUS
 10
488.204987
 20
36.219688
 40
4.000000
 50
218.645996
 51
270.000000
  0
LINE
  8
0
  6
CONTINUOUS
 10
303.599518
 20
108.719711
 11
303.599518
 21
114.719711
  0
LINE
  8
0
  6
CONTINUOUS
 10
309.599518
 20
108.719727
 11
309.599518
 21
114.719727
  0
LINE
  8
0
  6
CONTINUOUS
 10
309.599518
 20
108.719727
 11
303.599518
 21
108.719711
  0
LINE
  8
0
  6
CONTINUOUS
 10
309.599518
 20
114.719727
 11
303.599518
 21
114.719711
  0
ARC
  8
0
  6
CONTINUOUS
 10
296.099518
 20
111.719688
 40
11.000000
 50
15.826600
 51
344.173401
  0
LINE
  8
0
  6
CONTINUOUS
 10
432.204987
 20
100.719688
 11
432.204987
 21
122.719688
  0
LINE
  8
0
  6
CONTINUOUS
 10
472.204987
 20
122.719688
 11
432.204987
 21
122.719688
  0
LINE
  8
0
  6
CONTINUOUS
 10
472.204987
 20
100.719688
 11
432.204987
 21
100.719688
  0
LINE
  8
0
  6
CONTINUOUS
 10
472.204987
 20
124.219688
 11
472.204987
 21
99.219688
  0
LINE
  8
0
  6
CONTINUOUS
 10
474.204987
 20
124.219688
 11
472.204987
 21
124.219688
  0
LINE
  8
0
  6
CONTINUOUS
 10
474.204987
 20
99.219688
 11
472.204987
 21
99.219688
  0
ARC
  8
0
  6
CONTINUOUS
 10
464.204987
 20
111.719688
 40
3.000000
 50
-90.000000
 51
90.000000
  0
LINE
  8
0
  6
CONTINUOUS
 10
464.204987
 20
114.719688
 11
432.204987
 21
114.719688
  0
LINE
  8
0
  6
CONTINUOUS
 10
464.204987
 20
108.719688
 11
432.204987
 21
108.719688
  0
LINE
  8
0
  6
CONTINUOUS
 10
612.205017
 20
100.719688
 11
612.205017
 21
122.719688
  0
LINE
  8
0
  6
CONTINUOUS
 10
572.205017
 20
122.719688
 11
612.205017
 21
122.719688
  0
LINE
  8
0
  6
CONTINUOUS
 10
572.205017
 20
100.719688
 11
612.205017
 21
100.719688
  0
LINE
  8
0
  6
CONTINUOUS
 10
572.205017
 20
124.219688
 11
572.205017
 21
99.219688
  0
LINE
  8
0
  6
CONTINUOUS
 10
570.205017
 20
124.219688
 11
572.205017
 21
124.219688
  0
LINE
  8
0
  6
CONTINUOUS
 10
570.205017
 20
99.219688
 11
572.205017
 21
99.219688
  0
ARC
  8
0
  6
CONTINUOUS
 10
580.205017
 20
111.719688
 40
3.000000
 50
90.000000
 51
270.000000
  0
LINE
  8
0
  6
CONTINUOUS
 10
580.205017
 20
114.719688
 11
612.205017
 21
114.719688
  0
LINE
  8
0
  6
CONTINUOUS
 10
580.205017
 20
108.719688
 11
612.205017
 21
108.719688
  0
LINE
  8
0
  6
CENTER
 10
-7.157500
 20
70.219688
 11
264.099518
 21
70.219688
  0
LINE
  8
0
  6
CONTINUOUS
 10
220.936783
 20
109.671944
 11
179.349533
 21
108.219688
  0
LINE
  8
0
  6
CONTINUOUS
 10
231.349533
 20
30.403809
 11
179.349533
 21
32.219688
  0
LINE
  8
0
  6
CONTINUOUS
 10
223.349533
 20
137.719681
 11
223.349533
 21
110.719688
  0
LINE
  8
0
  6
CONTINUOUS
 10
224.349533
 20
138.719681
 11
231.349548
 21
138.719681
  0
LINE
  8
0
  6
CONTINUOUS
 10
225.849533
 20
23.719687
 11
231.349533
 21
23.719687
  0
LINE
  8
0
  6
CONTINUOUS
 10
223.349533
 20
111.219688
 11
223.349533
 21
40.307030
  0
LINE
  8
0
  6
CONTINUOUS
 10
179.349533
 20
108.219688
 11
179.349533
 21
32.219688
  0
LINE
  8
0
  6
CONTINUOUS
 10
221.936401
 20
121.537491
 11
195.992981
 21
109.013077
  0
LINE
  8
0
  6
CENTER
 10
296.099518
 20
413.110657
 11
296.099518
 21
216.684998
  0
LINE
  8
0
  6
CENTER
 10
-7.157500
 20
316.908966
 11
365.438995
 21
316.908966
  0
LINE
  8
0
  6
CONTINUOUS
 10
244.881516
 20
348.908966
 11
343.627472
 21
348.908966
  0
LINE
  8
0
  6
CONTINUOUS
 10
244.881516
 20
284.908966
 11
343.627472
 21
284.908966
  0
LINE
  8
0
  6
CONTINUOUS
 10
339.037628
 20
374.908966
 11
309.599518
 21
374.908966
  0
LINE
  8
0
  6
CONTINUOUS
 10
253.161423
 20
258.908966
 11
285.099518
 21
258.908966
  0
LINE
  8
0
  6
CONTINUOUS
 10
349.099518
 20
316.908966
 11
348.540955
 21
348.908966
  0
LINE
  8
0
  6
CONTINUOUS
 10
343.931610
 20
370.933197
 11
348.540955
 21
348.908966
  0
ARC
  8
0
  6
CONTINUOUS
 10
339.037628
 20
369.908966
 40
5.000000
 50
11.820596
 51
90.000000
  0
LINE
  8
0
  6
CONTINUOUS
 10
349.099518
 20
316.908966
 11
348.540955
 21
284.908966
  0
LINE
  8
0
  6
CONTINUOUS
 10
343.931610
 20
262.884705
 11
348.540955
 21
284.908966
  0
ARC
  8
0
  6
CONTINUOUS
 10
339.037628
 20
263.908966
 40
5.000000
 50
-90.000000
 51
-11.820596
  0
LINE
  8
0
  6
CONTINUOUS
 10
316.099518
 20
286.908966
 11
316.099518
 21
346.908966
  0
LINE
  8
0
  6
CONTINUOUS
 10
276.099518
 20
286.908966
 11
276.099518
 21
346.908966
  0
ARC
  8
0
  6
CONTINUOUS
 10
343.627472
 20
343.908966
 40
5.000000
 50
1.000000
 51
90.000000
  0
ARC
  8
0
  6
CONTINUOUS
 10
343.627472
 20
289.908966
 40
5.000000
 50
270.000000
 51
359.000000
  0
LINE
  8
0
  6
CONTINUOUS
 10
239.426025
 20
262.580414
 11
239.883224
 21
280.039856
  0
LINE
  8
0
  6
CONTINUOUS
 10
231.349533
 20
374.408966
 11
231.349533
 21
259.408966
  0
LINE
  8
0
  6
CONTINUOUS
 10
249.914536
 20
334.908966
 11
249.914536
 21
298.908966
  0
LINE
  8
0
  6
CONTINUOUS
 10
231.349533
 20
374.158966
 11
236.427063
 21
374.158966
  0
LINE
  8
0
  6
CONTINUOUS
 10
236.427063
 20
259.658966
 11
231.349533
 21
259.658966
  0
ARC
  8
0
  6
CONTINUOUS
 10
244.881516
 20
279.908966
 40
5.000000
 50
90.000000
 51
178.500000
  0
ARC
  8
0
  6
CONTINUOUS
 10
236.427063
 20
262.658966
 40
3.000000
 50
270.000000
 51
358.500000
  0
LINE
  8
0
  6
CONTINUOUS
 10
239.426025
 20
371.237488
 11
239.883224
 21
353.778076
  0
ARC
  8
0
  6
CONTINUOUS
 10
244.881516
 20
353.908966
 40
5.000000
 50
-178.500000
 51
-90.000000
  0
ARC
  8
0
  6
CONTINUOUS
 10
236.427063
 20
371.158966
 40
3.000000
 50
-358.500000
 51
-270.000000
  0
LINE
  8
0
  6
CONTINUOUS
 10
248.267456
 20
370.933197
 11
243.688324
 21
349.053406
  0
ARC
  8
0
  6
CONTINUOUS
 10
253.161423
 20
369.908966
 40
5.000000
 50
90.000000
 51
168.179398
  0
LINE
  8
0
  6
CONTINUOUS
 10
248.267456
 20
262.884705
 11
243.688324
 21
284.764496
  0
ARC
  8
0
  6
CONTINUOUS
 10
253.161423
 20
263.908966
 40
5.000000
 50
-168.179398
 51
-90.000000
  0
LINE
  8
0
  6
CENTER
 10
320.649933
 20
271.908966
 11
341.504089
 21
271.908966
  0
LINE
  8
0
  6
CENTER
 10
331.099518
 20
279.466248
 11
331.099518
 21
262.695404
  0
CIRCLE
  8
0
  6
CONTINUOUS
 10
331.099518
 20
271.908966
 40
5.500000
  0
LINE
  8
0
  6
CENTER
 10
271.549133
 20
271.908966
 11
250.694962
 21
271.908966
  0
LINE
  8
0
  6
CENTER
 10
261.099518
 20
279.466248
 11
261.099518
 21
262.695404
  0
CIRCLE
  8
0
  6
CONTINUOUS
 10
261.099518
 20
271.908966
 40
5.500000
  0
LINE
  8
0
  6
CENTER
 10
320.649933
 20
361.908966
 11
341.504089
 21
361.908966
  0
LINE
  8
0
  6
CENTER
 10
331.099518
 20
354.351654
 11
331.099518
 21
371.122498
  0
CIRCLE
  8
0
  6
CONTINUOUS
 10
331.099518
 20
361.908966
 40
5.500000
  0
LINE
  8
0
  6
CENTER
 10
271.549133
 20
361.908966
 11
250.694962
 21
361.908966
  0
LINE
  8
0
  6
CENTER
 10
261.099518
 20
354.351654
 11
261.099518
 21
371.122498
  0
CIRCLE
  8
0
  6
CONTINUOUS
 10
261.099518
 20
361.908966
 40
5.500000
  0
LINE
  8
0
  6
CONTINUOUS
 10
270.906677
 20
268.908966
 11
321.292389
 21
268.908966
  0
LINE
  8
0
  6
CONTINUOUS
 10
326.255768
 20
278.908966
 11
329.542633
 21
278.908966
  0
ARC
  8
0
  6
CONTINUOUS
 10
321.292389
 20
271.908966
 40
3.000000
 50
270.000000
 51
345.124329
  0
LINE
  8
0
  6
CONTINUOUS
 10
332.442078
 20
281.138794
 11
332.851227
 21
282.679138
  0
ARC
  8
0
  6
CONTINUOUS
 10
329.542633
 20
281.908966
 40
3.000000
 50
270.000000
 51
345.124329
  0
ARC
  8
0
  6
CONTINUOUS
 10
335.750702
 20
281.908966
 40
3.000000
 50
90.000000
 51
165.124313
  0
LINE
  8
0
  6
CONTINUOUS
 10
326.255768
 20
278.908966
 11
324.191833
 21
271.138794
  0
LINE
  8
0
  6
CONTINUOUS
 10
259.756989
 20
281.138794
 11
259.347839
 21
282.679138
  0
ARC
  8
0
  6
CONTINUOUS
 10
262.656433
 20
281.908966
 40
3.000000
 50
-165.124313
 51
-90.000000
  0
ARC
  8
0
  6
CONTINUOUS
 10
256.448364
 20
281.908966
 40
3.000000
 50
14.875682
 51
90.000000
  0
LINE
  8
0
  6
CONTINUOUS
 10
265.943268
 20
278.908966
 11
262.656433
 21
278.908966
  0
ARC
  8
0
  6
CONTINUOUS
 10
270.906677
 20
271.908966
 40
3.000000
 50
-165.124313
 51
-90.000000
  0
LINE
  8
0
  6
CONTINUOUS
 10
265.943268
 20
278.908966
 11
268.007233
 21
271.138794
  0
CIRCLE
  8
0
  6
CONTINUOUS
 10
331.099518
 20
361.908966
 40
5.500000
  0
LINE
  8
0
  6
CONTINUOUS
 10
270.906677
 20
364.908966
 11
321.292389
 21
364.908966
  0
LINE
  8
0
  6
CONTINUOUS
 10
326.255768
 20
354.908966
 11
329.542633
 21
354.908966
  0
ARC
  8
0
  6
CONTINUOUS
 10
321.292389
 20
361.908966
 40
3.000000
 50
-345.124329
 51
-270.000000
  0
LINE
  8
0
  6
CONTINUOUS
 10
332.442078
 20
352.679138
 11
332.851227
 21
351.138794
  0
ARC
  8
0
  6
CONTINUOUS
 10
329.542633
 20
351.908966
 40
3.000000
 50
-345.124329
 51
-270.000000
  0
ARC
  8
0
  6
CONTINUOUS
 10
335.750702
 20
351.908966
 40
3.000000
 50
-165.124313
 51
-90.000000
  0
LINE
  8
0
  6
CONTINUOUS
 10
326.255768
 20
354.908966
 11
324.191833
 21
362.679138
  0
LINE
  8
0
  6
CONTINUOUS
 10
259.756989
 20
352.679138
 11
259.347839
 21
351.138794
  0
ARC
  8
0
  6
CONTINUOUS
 10
262.656433
 20
351.908966
 40
3.000000
 50
90.000000
 51
165.124313
  0
ARC
  8
0
  6
CONTINUOUS
 10
256.448364
 20
351.908966
 40
3.000000
 50
-90.000000
 51
-14.875682
  0
LINE
  8
0
  6
CONTINUOUS
 10
265.943268
 20
354.908966
 11
262.656433
 21
354.908966
  0
ARC
  8
0
  6
CONTINUOUS
 10
270.906677
 20
361.908966
 40
3.000000
 50
90.000000
 51
165.124313
  0
LINE
  8
0
  6
CONTINUOUS
 10
265.943268
 20
354.908966
 11
268.007233
 21
362.679138
  0
LINE
  8
0
  6
CONTINUOUS
 10
285.099518
 20
226.908951
 11
309.599518
 21
226.908951
  0
LINE
  8
0
  6
CONTINUOUS
 10
307.099518
 20
266.908966
 11
307.099518
 21
261.908966
  0
LINE
  8
0
  6
CONTINUOUS
 10
285.099518
 20
266.908966
 11
285.099518
 21
226.908951
  0
LINE
  8
0
  6
CONTINUOUS
 10
308.599518
 20
268.908966
 11
308.599518
 21
266.908966
  0
LINE
  8
0
  6
CONTINUOUS
 10
283.599518
 20
268.908966
 11
283.599518
 21
266.908966
  0
LINE
  8
0
  6
CONTINUOUS
 10
283.599518
 20
266.908966
 11
308.599518
 21
266.908966
  0
LINE
  8
0
  6
CONTINUOUS
 10
309.599518
 20
258.908966
 11
339.037628
 21
258.908966
  0
LINE
  8
0
  6
CONTINUOUS
 10
309.599518
 20
261.908966
 11
309.599518
 21
226.908951
  0
LINE
  8
0
  6
CONTINUOUS
 10
306.682526
 20
226.908951
 11
306.682526
 21
261.908966
  0
LINE
  8
0
  6
CONTINUOUS
 10
306.682526
 20
261.908966
 11
309.599518
 21
261.908966
  0
LINE
  8
0
  6
CONTINUOUS
 10
285.099518
 20
406.908966
 11
309.599518
 21
406.908966
  0
LINE
  8
0
  6
CONTINUOUS
 10
307.099518
 20
366.908966
 11
307.099518
 21
371.908966
  0
LINE
  8
0
  6
CONTINUOUS
 10
285.099518
 20
366.908966
 11
285.099518
 21
406.908966
  0
LINE
  8
0
  6
CONTINUOUS
 10
308.599518
 20
364.908966
 11
308.599518
 21
366.908966
  0
LINE
  8
0
  6
CONTINUOUS
 10
283.599518
 20
364.908966
 11
283.599518
 21
366.908966
  0
LINE
  8
0
  6
CONTINUOUS
 10
283.599518
 20
366.908966
 11
308.599518
 21
366.908966
  0
LINE
  8
0
  6
CONTINUOUS
 10
309.599518
 20
371.908966
 11
309.599518
 21
406.908966
  0
LINE
  8
0
  6
CONTINUOUS
 10
306.682526
 20
406.908966
 11
306.682526
 21
371.908966
  0
LINE
  8
0
  6
CONTINUOUS
 10
306.682526
 20
371.908966
 11
309.599518
 21
371.908966
  0
LINE
  8
0
  6
CONTINUOUS
 10
285.099518
 20
374.908966
 11
252.983261
 21
374.908966
  0
LINE
  8
0
  6
CONTINUOUS
 10
231.349533
 20
364.408966
 11
236.682373
 21
364.408966
  0
ARC
  8
0
  6
CONTINUOUS
 10
236.682373
 20
361.408966
 40
3.000000
 50
1.500000
 51
90.000000
  0
LINE
  8
0
  6
CONTINUOUS
 10
239.639999
 20
348.908966
 11
231.349533
 21
348.908966
  0
LINE
  8
0
  6
CONTINUOUS
 10
239.639999
 20
284.908966
 11
231.349533
 21
284.908966
  0
LINE
  8
0
  6
CONTINUOUS
 10
231.349533
 20
269.408966
 11
236.682373
 21
269.408966
  0
ARC
  8
0
  6
CONTINUOUS
 10
236.682373
 20
272.408966
 40
3.000000
 50
-90.000000
 51
-1.500000
  0
LINE
  8
0
  6
CONTINUOUS
 10
498.204987
 20
7.719687
 11
546.205017
 21
7.719687
  0
LINE
  8
0
  6
CONTINUOUS
 10
547.205017
 20
6.719687
 11
546.205017
 21
7.719687
  0
LINE
  8
0
  6
CONTINUOUS
 10
497.204987
 20
6.719687
 11
498.204987
 21
7.719687
  0
LINE
  8
0
  6
CONTINUOUS
 10
547.205017
 20
6.719687
 11
580.205017
 21
6.719687
  0
LINE
  8
0
  6
CONTINUOUS
 10
225.849533
 20
259.408966
 11
231.349533
 21
259.408966
  0
LINE
  8
0
  6
CONTINUOUS
 10
225.849533
 20
374.408966
 11
231.349533
 21
374.408966
  0
LINE
  8
0
  6
CONTINUOUS
 10
223.349533
 20
261.908966
 11
223.349533
 21
371.908966
  0
LINE
  8
0
  6
CONTINUOUS
 10
179.349533
 20
354.908966
 11
179.349533
 21
278.908966
  0
LINE
  8
0
  6
CONTINUOUS
 10
220.936783
 20
356.361206
 11
179.349533
 21
354.908966
  0
LINE
  8
0
  6
CONTINUOUS
 10
220.936783
 20
277.456696
 11
179.349533
 21
278.908966
  0
ARC
  8
0
  6
CONTINUOUS
 10
225.849533
 20
371.908966
 40
2.500000
 50
90.000000
 51
180.000000
  0
ARC
  8
0
  6
CONTINUOUS
 10
225.849533
 20
261.908966
 40
2.500000
 50
180.000000
 51
270.000000
  0
ARC
  8
0
  6
CONTINUOUS
 10
224.349533
 20
137.719681
 40
1.000000
 50
90.000000
 51
180.000000
  0
ARC
  8
0
  6
CONTINUOUS
 10
220.849533
 20
123.788872
 40
2.500000
 50
-64.230675
 51
0.000000
  0
ARC
  8
0
  6
CONTINUOUS
 10
220.849533
 20
112.170425
 40
2.500000
 50
-88.000000
 51
0.000000
  0
ARC
  8
0
  6
CONTINUOUS
 10
194.906097
 20
111.264458
 40
2.500000
 50
272.000000
 51
295.769318
  0
LINE
  8
0
  6
CONTINUOUS
 10
179.349533
 20
354.908966
 11
179.349533
 21
278.908966
  0
LINE
  8
0
  6
CONTINUOUS
 10
65.349655
 20
354.908936
 11
179.349655
 21
354.908936
  0
LINE
  8
0
  6
CONTINUOUS
 10
65.349655
 20
278.908966
 11
179.349655
 21
278.908966
  0
LINE
  8
0
  6
CONTINUOUS
 10
171.349655
 20
352.908936
 11
171.349655
 21
339.908966
  0
ARC
  8
0
  6
CONTINUOUS
 10
173.349655
 20
352.908966
 40
2.000000
 50
90.000000
 51
180.000000
  0
ARC
  8
0
  6
CONTINUOUS
 10
173.349655
 20
280.908966
 40
2.000000
 50
180.000000
 51
270.000000
  0
LINE
  8
0
  6
CONTINUOUS
 10
106.349640
 20
339.908966
 11
171.349655
 21
339.908966
  0
LINE
  8
0
  6
CONTINUOUS
 10
106.349648
 20
293.908966
 11
171.349655
 21
293.908966
  0
LINE
  8
0
  6
CONTINUOUS
 10
171.349655
 20
293.908966
 11
171.349655
 21
280.908966
  0
ARC
  8
0
  6
CONTINUOUS
 10
210.519165
 20
316.908966
 40
15.000000
 50
130.747620
 51
229.252380
  0
LINE
  8
0
  6
CONTINUOUS
 10
222.481354
 20
347.014954
 11
200.728241
 21
328.272827
  0
LINE
  8
0
  6
CONTINUOUS
 10
222.481354
 20
286.802979
 11
200.728241
 21
305.545074
  0
ARC
  8
0
  6
CONTINUOUS
 10
220.849533
 20
348.908936
 40
2.500000
 50
-49.252373
 51
0.000000
  0
ARC
  8
0
  6
CONTINUOUS
 10
220.849533
 20
358.859680
 40
2.500000
 50
-88.000000
 51
0.000000
  0
ARC
  8
0
  6
CONTINUOUS
 10
220.849533
 20
284.908997
 40
2.500000
 50
0.000000
 51
49.252373
  0
ARC
  8
0
  6
CONTINUOUS
 10
220.849533
 20
274.958221
 40
2.500000
 50
0.000000
 51
88.000000
  0
LINE
  8
0
  6
CONTINUOUS
 10
224.474609
 20
38.065689
 11
231.349533
 21
38.065689
  0
LINE
  8
0
  6
CONTINUOUS
 10
223.349533
 20
26.219687
 11
223.349533
 21
28.268951
  0
ARC
  8
0
  6
CONTINUOUS
 10
225.849533
 20
26.219687
 40
2.500000
 50
180.000000
 51
270.000000
  0
ARC
  8
0
  6
CONTINUOUS
 10
220.849533
 20
28.268951
 40
2.500000
 50
0.000000
 51
88.000000
  0
ARC
  8
0
  6
CONTINUOUS
 10
522.205017
 20
81.219688
 40
57.500000
 50
236.002823
 51
236.184402
  0
ARC
  8
0
  6
CONTINUOUS
 10
522.205017
 20
81.219688
 40
57.500000
 50
303.815582
 51
303.997162
  0
ARC
  8
0
  6
CONTINUOUS
 10
522.205017
 20
81.219688
 40
57.500000
 50
-33.997124
 51
19.823904
  0
ARC
  8
0
  6
CONTINUOUS
 10
522.205017
 20
81.219688
 40
57.500000
 50
160.176102
 51
213.997131
  0
LINE
  8
0
  6
CONTINUOUS
 10
65.349655
 20
354.908936
 11
65.349655
 21
341.908936
  0
LINE
  8
0
  6
CONTINUOUS
 10
65.349655
 20
354.908936
 11
55.849651
 21
354.908936
  0
LINE
  8
0
  6
CONTINUOUS
 10
65.349655
 20
278.908936
 11
55.849651
 21
278.908936
  0
LINE
  8
0
  6
CONTINUOUS
 10
56.349651
 20
293.908936
 11
55.849651
 21
293.908936
  0
LINE
  8
0
  6
CONTINUOUS
 10
56.349651
 20
339.908936
 11
55.849651
 21
339.908936
  0
LINE
  8
0
  6
CONTINUOUS
 10
65.349655
 20
291.908936
 11
65.349655
 21
278.908936
  0
LINE
  8
0
  6
CONTINUOUS
 10
55.849651
 20
276.908936
 11
55.849651
 21
309.408936
  0
LINE
  8
0
  6
CONTINUOUS
 10
11.849653
 20
356.908936
 11
55.849651
 21
356.908936
  0
LINE
  8
0
  6
CONTINUOUS
 10
11.849653
 20
276.908936
 11
55.849651
 21
276.908936
  0
LINE
  8
0
  6
CONTINUOUS
 10
6.849653
 20
281.908936
 11
6.849653
 21
351.908936
  0
ARC
  8
0
  6
CONTINUOUS
 10
11.849653
 20
351.908936
 40
5.000000
 50
90.000000
 51
180.000000
  0
ARC
  8
0
  6
CONTINUOUS
 10
11.849653
 20
281.908936
 40
5.000000
 50
180.000000
 51
270.000000
  0
LINE
  8
0
  6
CONTINUOUS
 10
9.349653
 20
340.908936
 11
55.849651
 21
340.908936
  0
LINE
  8
0
  6
CONTINUOUS
 10
9.349653
 20
290.908936
 11
55.849651
 21
290.908936
  0
LINE
  8
0
  6
CONTINUOUS
 10
55.849529
 20
108.219666
 11
65.349533
 21
108.219666
  0
LINE
  8
0
  6
CONTINUOUS
 10
55.849529
 20
32.219666
 11
65.349533
 21
32.219666
  0
LINE
  8
0
  6
CONTINUOUS
 10
55.849529
 20
30.219667
 11
55.849529
 21
110.219666
  0
LINE
  8
0
  6
CONTINUOUS
 10
55.849529
 20
100.468666
 11
65.349533
 21
100.468666
  0
LINE
  8
0
  6
CONTINUOUS
 10
55.849529
 20
39.970669
 11
65.349533
 21
39.970669
  0
LINE
  8
0
  6
CONTINUOUS
 10
11.849531
 20
110.219666
 11
55.849529
 21
110.219666
  0
LINE
  8
0
  6
CONTINUOUS
 10
11.849531
 20
30.219667
 11
55.849529
 21
30.219667
  0
LINE
  8
0
  6
CONTINUOUS
 10
6.849531
 20
35.219666
 11
6.849531
 21
105.219666
  0
ARC
  8
0
  6
CONTINUOUS
 10
11.849531
 20
105.219666
 40
5.000000
 50
90.000000
 51
180.000000
  0
ARC
  8
0
  6
CONTINUOUS
 10
11.849531
 20
35.219666
 40
5.000000
 50
180.000000
 51
270.000000
  0
LINE
  8
0
  6
CONTINUOUS
 10
9.349531
 20
96.219666
 11
55.849529
 21
96.219666
  0
LINE
  8
0
  6
CONTINUOUS
 10
9.349531
 20
46.219666
 11
55.849529
 21
46.219666
  0
LINE
  8
0
  6
CONTINUOUS
 10
65.349533
 20
32.219688
 11
65.349533
 21
108.219666
  0
LINE
  8
0
  6
CONTINUOUS
 10
55.349651
 20
324.408936
 11
56.349651
 21
324.408936
  0
ARC
  8
0
  6
CONTINUOUS
 10
55.349674
 20
323.408936
 40
1.000000
 50
90.000000
 51
180.000000
  0
LINE
  8
0
  6
CONTINUOUS
 10
50.849667
 20
320.908936
 11
50.849667
 21
312.908936
  0
LINE
  8
0
  6
CONTINUOUS
 10
50.849667
 20
320.908936
 11
54.349667
 21
322.408936
  0
LINE
  8
0
  6
CONTINUOUS
 10
50.849651
 20
312.908936
 11
54.349651
 21
311.408936
  0
LINE
  8
0
  6
CONTINUOUS
 10
54.349667
 20
323.408936
 11
54.349667
 21
310.408936
  0
LINE
  8
0
  6
CONTINUOUS
 10
55.349651
 20
309.408936
 11
56.349651
 21
309.408936
  0
ARC
  8
0
  6
CONTINUOUS
 10
55.349674
 20
310.408936
 40
1.000000
 50
-180.000000
 51
-90.000000
  0
LINE
  8
0
  6
CONTINUOUS
 10
56.349651
 20
293.908936
 11
56.349651
 21
339.908936
  0
LINE
  8
0
  6
CONTINUOUS
 10
58.349651
 20
341.908936
 11
56.349651
 21
339.908936
  0
LINE
  8
0
  6
CONTINUOUS
 10
58.349651
 20
341.908936
 11
104.349640
 21
341.908936
  0
LINE
  8
0
  6
CONTINUOUS
 10
98.849655
 20
337.408936
 11
98.849655
 21
341.908936
  0
ARC
  8
0
  6
CONTINUOUS
 10
101.849655
 20
337.408936
 40
3.000000
 50
180.000000
 51
270.000000
  0
LINE
  8
0
  6
CONTINUOUS
 10
101.849655
 20
334.408936
 11
106.349640
 21
334.408936
  0
CIRCLE
  8
0
  6
CONTINUOUS
 10
102.849655
 20
338.408936
 40
2.250000
  0
LINE
  8
0
  6
CONTINUOUS
 10
106.349648
 20
293.908936
 11
106.349640
 21
339.908936
  0
LINE
  8
0
  6
CONTINUOUS
 10
104.349640
 20
341.908936
 11
106.349640
 21
339.908936
  0
LINE
  8
0
  6
CONTINUOUS
 10
104.349648
 20
291.908936
 11
106.349648
 21
293.908936
  0
LINE
  8
0
  6
CONTINUOUS
 10
104.349648
 20
291.908936
 11
58.349651
 21
291.908936
  0
LINE
  8
0
  6
CONTINUOUS
 10
56.349651
 20
293.908936
 11
58.349651
 21
291.908936
  0
LINE
  8
0
  6
CONTINUOUS
 10
60.849651
 20
299.408936
 11
56.349663
 21
299.408936
  0
CIRCLE
  8
0
  6
CONTINUOUS
 10
59.849651
 20
295.408936
 40
2.250000
  0
ARC
  8
0
  6
CONTINUOUS
 10
60.849651
 20
296.408936
 40
3.000000
 50
0.000000
 51
90.000000
  0
LINE
  8
0
  6
CONTINUOUS
 10
63.849651
 20
296.408936
 11
63.849651
 21
291.908936
  0
LINE
  8
0
  6
CENTER
 10
81.349655
 20
284.443146
 11
81.349655
 21
348.575195
  0
LINE
  8
0
  6
CONTINUOUS
 10
58.763870
 20
340.908936
 11
57.349659
 21
339.494720
  0
LINE
  8
0
  6
CONTINUOUS
 10
57.349659
 20
299.408936
 11
57.349659
 21
339.494720
  0
LINE
  8
0
  6
CONTINUOUS
 10
98.849655
 20
340.908936
 11
58.763870
 21
340.908936
  0
LINE
  8
0
  6
CONTINUOUS
 10
105.349648
 20
334.408936
 11
105.349648
 21
294.323151
  0
LINE
  8
0
  6
CONTINUOUS
 10
63.849651
 20
292.908936
 11
103.935432
 21
292.908936
  0
LINE
  8
0
  6
CONTINUOUS
 10
103.935432
 20
292.908936
 11
105.349648
 21
294.323151
  0
LINE
  8
0
  6
CONTINUOUS
 10
55.849651
 20
324.408936
 11
55.849651
 21
356.908936
  0
LINE
  8
0
  6
CONTINUOUS
 10
57.849529
 20
109.719688
 11
104.349533
 21
109.719688
  0
LINE
  8
0
  6
CONTINUOUS
 10
106.349518
 20
139.719681
 11
106.349533
 21
111.719688
  0
LINE
  8
0
  6
CONTINUOUS
 10
56.349529
 20
139.719681
 11
56.349529
 21
111.719688
  0
LINE
  8
0
  6
CONTINUOUS
 10
54.349529
 20
121.719688
 11
106.349533
 21
121.719688
  0
LINE
  8
0
  6
CONTINUOUS
 10
104.349533
 20
109.719688
 11
106.349533
 21
111.719688
  0
LINE
  8
0
  6
CONTINUOUS
 10
56.349529
 20
111.719688
 11
58.349529
 21
109.719688
  0
LINE
  8
0
  6
CONTINUOUS
 10
56.349529
 20
111.719688
 11
106.349533
 21
111.719688
  0
LINE
  8
0
  6
CONTINUOUS
 10
57.349529
 20
140.719681
 11
105.349518
 21
140.719681
  0
LINE
  8
0
  6
CONTINUOUS
 10
105.349518
 20
140.719681
 11
106.349518
 21
139.719681
  0
LINE
  8
0
  6
CONTINUOUS
 10
57.349529
 20
140.719681
 11
56.349529
 21
139.719681
  0
LINE
  8
0
  6
CONTINUOUS
 10
56.349529
 20
139.719681
 11
106.349518
 21
139.719681
  0
LINE
  8
0
  6
CENTER
 10
48.405773
 20
131.219681
 11
60.480782
 21
131.219681
  0
LINE
  8
0
  6
CONTINUOUS
 10
54.349545
 20
137.719681
 11
54.349529
 21
121.719688
  0
LINE
  8
0
  6
CONTINUOUS
 10
55.349529
 20
138.719681
 11
56.349529
 21
138.719681
  0
ARC
  8
0
  6
CONTINUOUS
 10
55.349552
 20
137.719681
 40
1.000000
 50
90.000000
 51
180.000000
  0
LINE
  8
0
  6
CONTINUOUS
 10
50.849545
 20
135.219681
 11
50.849545
 21
127.219688
  0
LINE
  8
0
  6
CONTINUOUS
 10
50.849545
 20
135.219681
 11
54.349545
 21
136.719681
  0
LINE
  8
0
  6
CONTINUOUS
 10
50.849529
 20
127.219688
 11
54.349529
 21
125.719688
  0
LINE
  8
0
  6
CENTER
 10
81.349533
 20
105.025940
 11
81.349533
 21
146.107193
  0
LINE
  8
0
  6
CONTINUOUS
 10
57.849529
 20
109.719688
 11
57.849529
 21
108.219688
  0
LINE
  8
0
  6
CONTINUOUS
 10
103.849533
 20
109.719688
 11
103.849533
 21
108.219688
  0
LINE
  8
0
  6
CONTINUOUS
 10
179.349533
 20
60.819687
 11
223.349533
 21
60.819687
  0
LINE
  8
0
  6
CONTINUOUS
 10
179.349533
 20
50.619686
 11
223.349533
 21
50.619686
  0
TEXT
  8
0
 10
-7.000000
 20
-8.000000
 40
4.000000
 41
1.000000
  1
HLM-22T-300~450-S60WT
 50
0.000000
  0
ENDSEC
  0
EOF
