  0
SECTION
  2
HEADER
  9
$CLAYER
  8
1
  9
$LTSCALE
 40
3.0
  0
ENDSEC
  0
SECTION
  2
TABLES
  0
TABLE
  2
LTYPE
 70
     4
  0
LTYPE
  2
CONTINUOUS
  3
solid line
 70
    64
 72
    65
 73
     0
 40
0.0
  0
LTYPE
  2
DASHED
  3
__ __ __ __ __ __ __ __ __ __ __ __ __ __ __
 70
    64
 72
    65
 73
     2
 40
0.75
 49
0.5
 49
-0.25
  0
LTYPE
  2
CENTER
  3
____ _ ____ _ ____ _ ____ _ ____ _ ____ _ ____
 70
    64
 72
    65
 73
     4
 40
2.0
 49
1.25
 49
-0.25
 49
0.25
 49
-0.25
  0
LTYPE
  2
PHANTOM
  3
_____ _ _ _____ _ _ _____ _ _ _____ _ _ ____
 70
    64
 72
    65
 73
     6
 40
2.5
 49
1.25
 49
-0.25
 49
0.25
 49
-0.25
 49
0.25
 49
-0.25
  0
ENDTAB
  0
TABLE
  2
LAYER
 70
     1
  0
LAYER
  2
0
 70
    64
 62
     7
  6
CONTINUOUS
  0
ENDTAB
  0
TABLE
  2
STYLE
 70
     1
  0
STYLE
  2
STANDARD
 70
     0
 40
0.000000
 41
1.000000
 50
0.000000
 71
     0
 42
3.000000
  3
txt
  4
BIGFONT
  0
ENDTAB
  0
ENDSEC
  0
SECTION
  2
BLOCKS
  0
ENDSEC
  0
SECTION
  2
ENTITIES
  0
LINE
  8
0
  6
CENTER
 10
102.243752
 20
78.649689
 11
221.049530
 21
78.649689
  0
LINE
  8
0
  6
CENTER
 10
253.049530
 20
161.399689
 11
253.049530
 21
-2.100313
  0
LINE
  8
0
  6
CENTER
 10
206.479126
 20
109.149689
 11
297.787506
 21
109.149689
  0
LINE
  8
0
  6
CONTINUOUS
 10
200.049530
 20
4.149687
 11
306.049530
 21
4.149687
  0
LINE
  8
0
  6
CONTINUOUS
 10
234.620132
 20
154.149689
 11
271.478943
 21
154.149689
  0
LINE
  8
0
  6
CONTINUOUS
 10
306.049530
 20
128.539932
 11
306.049530
 21
4.149708
  0
LINE
  8
0
  6
CONTINUOUS
 10
200.049530
 20
29.149687
 11
200.049530
 21
4.149687
  0
LINE
  8
0
  6
CONTINUOUS
 10
188.299530
 20
135.899689
 11
205.922531
 21
135.899689
  0
LINE
  8
0
  6
CONTINUOUS
 10
188.299530
 20
21.399687
 11
195.049545
 21
21.399687
  0
LINE
  8
0
  6
CONTINUOUS
 10
196.299530
 20
33.149689
 11
196.299530
 21
124.149689
  0
LINE
  8
0
  6
CONTINUOUS
 10
303.908539
 20
132.641922
 11
274.337921
 21
153.251663
  0
LINE
  8
0
  6
CONTINUOUS
 10
202.190536
 20
132.641922
 11
231.761124
 21
153.251663
  0
LINE
  8
0
  6
CONTINUOUS
 10
233.987930
 20
16.149687
 11
200.049530
 21
16.149687
  0
LINE
  8
0
  6
CONTINUOUS
 10
239.611130
 20
26.149687
 11
266.487946
 21
26.149687
  0
LINE
  8
0
  6
CONTINUOUS
 10
268.049530
 20
24.712187
 11
268.049530
 21
17.149687
  0
LINE
  8
0
  6
CONTINUOUS
 10
238.049530
 20
24.524687
 11
238.049530
 21
17.149687
  0
LINE
  8
0
  6
CONTINUOUS
 10
235.928329
 20
17.664606
 11
237.670731
 21
24.634768
  0
LINE
  8
0
  6
CONTINUOUS
 10
270.170746
 20
17.664606
 11
268.428345
 21
24.634748
  0
LINE
  8
0
  6
CONTINUOUS
 10
206.049530
 20
15.087187
 11
206.049530
 21
4.149687
  0
LINE
  8
0
  6
CONTINUOUS
 10
300.049530
 20
15.087187
 11
300.049530
 21
4.149687
  0
LINE
  8
0
  6
CENTER
 10
218.049530
 20
19.899687
 11
218.049530
 21
-0.100313
  0
LINE
  8
0
  6
CENTER
 10
288.049530
 20
20.899687
 11
288.049530
 21
0.399687
  0
LINE
  8
0
  6
DASHED
 10
212.549530
 20
16.149687
 11
212.549530
 21
4.149687
  0
LINE
  8
0
  6
DASHED
 10
223.549530
 20
16.149687
 11
223.549530
 21
4.149687
  0
LINE
  8
0
  6
DASHED
 10
282.549530
 20
16.149687
 11
282.549530
 21
4.149687
  0
LINE
  8
0
  6
DASHED
 10
293.549530
 20
16.149687
 11
293.549530
 21
4.149687
  0
ARC
  8
0
  6
CONTINUOUS
 10
271.478943
 20
149.149689
 40
5.000000
 50
55.124809
 51
90.000000
  0
ARC
  8
0
  6
CONTINUOUS
 10
234.620132
 20
149.149689
 40
5.000000
 50
90.000000
 51
124.875603
  0
ARC
  8
0
  6
CONTINUOUS
 10
301.049530
 20
128.539932
 40
5.000000
 50
0.000000
 51
55.124851
  0
ARC
  8
0
  6
CONTINUOUS
 10
205.049530
 20
128.539948
 40
5.000000
 50
124.875702
 51
180.000000
  0
LINE
  8
0
  6
CONTINUOUS
 10
188.299530
 20
126.149689
 11
198.049530
 21
126.149689
  0
LINE
  8
0
  6
CONTINUOUS
 10
194.299530
 20
31.149687
 11
188.299530
 21
31.149687
  0
LINE
  8
0
  6
CONTINUOUS
 10
188.299530
 20
110.609688
 11
195.174530
 21
110.609688
  0
LINE
  8
0
  6
CONTINUOUS
 10
188.299530
 20
46.689690
 11
195.299530
 21
46.689690
  0
ARC
  8
0
  6
CONTINUOUS
 10
205.922333
 20
138.899689
 40
3.000000
 50
270.000000
 51
304.875397
  0
ARC
  8
0
  6
CONTINUOUS
 10
194.299545
 20
124.149689
 40
2.000000
 50
0.000000
 51
90.000000
  0
ARC
  8
0
  6
CONTINUOUS
 10
198.049530
 20
128.149689
 40
2.000000
 50
-90.000000
 51
0.000000
  0
LINE
  8
0
  6
CONTINUOUS
 10
200.049545
 20
128.539948
 11
200.049530
 21
128.149689
  0
ARC
  8
0
  6
CONTINUOUS
 10
198.049530
 20
29.149687
 40
2.000000
 50
0.000000
 51
90.000000
  0
LINE
  8
0
  6
CONTINUOUS
 10
194.299530
 20
31.149687
 11
198.049530
 21
31.149687
  0
ARC
  8
0
  6
CONTINUOUS
 10
194.299530
 20
33.149689
 40
2.000000
 50
-90.000000
 51
0.000000
  0
ARC
  8
0
  6
CONTINUOUS
 10
195.049545
 20
16.399668
 40
5.000000
 50
0.000000
 51
90.000000
  0
ARC
  8
0
  6
CONTINUOUS
 10
266.487946
 20
24.149687
 40
2.000000
 50
14.036440
 51
90.000000
  0
ARC
  8
0
  6
CONTINUOUS
 10
239.611130
 20
24.149687
 40
2.000000
 50
90.000000
 51
165.963898
  0
LINE
  8
0
  6
CONTINUOUS
 10
272.111145
 20
16.149687
 11
306.049530
 21
16.149687
  0
ARC
  8
0
  6
CONTINUOUS
 10
233.987930
 20
18.149687
 40
2.000000
 50
270.000000
 51
345.963715
  0
LINE
  8
0
  6
CONTINUOUS
 10
272.111145
 20
16.149687
 11
233.987930
 21
16.149687
  0
ARC
  8
0
  6
CONTINUOUS
 10
272.111145
 20
18.149687
 40
2.000000
 50
194.036194
 51
270.000000
  0
ARC
  8
0
  6
CONTINUOUS
 10
237.049530
 20
17.149687
 40
1.000000
 50
-90.000000
 51
0.000000
  0
ARC
  8
0
  6
CONTINUOUS
 10
269.049530
 20
17.149687
 40
1.000000
 50
180.000000
 51
270.000000
  0
CIRCLE
  8
0
  6
CONTINUOUS
 10
253.049530
 20
109.149689
 40
27.500000
  0
ARC
  8
0
  6
CONTINUOUS
 10
253.049530
 20
109.149689
 40
31.750000
 50
7.552697
 51
172.447403
  0
ARC
  8
0
  6
CONTINUOUS
 10
236.299530
 20
67.649689
 40
20.600000
 50
172.447403
 51
270.000000
  0
ARC
  8
0
  6
CONTINUOUS
 10
269.799530
 20
67.649689
 40
20.600000
 50
-90.000000
 51
7.552700
  0
LINE
  8
0
  6
CONTINUOUS
 10
284.524139
 20
113.322845
 11
290.220734
 21
70.357315
  0
LINE
  8
0
  6
CONTINUOUS
 10
215.878326
 20
70.357277
 11
221.574936
 21
113.322784
  0
LINE
  8
0
  6
CONTINUOUS
 10
236.299530
 20
47.049686
 11
269.799530
 21
47.049686
  0
ARC
  8
0
  6
CONTINUOUS
 10
236.299530
 20
67.649689
 40
19.000000
 50
172.447601
 51
270.000000
  0
ARC
  8
0
  6
CONTINUOUS
 10
269.799530
 20
67.649689
 40
19.000000
 50
-90.000000
 51
7.552700
  0
ARC
  8
0
  6
CONTINUOUS
 10
253.049530
 20
109.149689
 40
30.150000
 50
-187.552597
 51
7.552697
  0
LINE
  8
0
  6
CONTINUOUS
 10
217.464325
 20
70.146980
 11
223.161133
 21
113.112511
  0
LINE
  8
0
  6
CONTINUOUS
 10
282.937927
 20
113.112549
 11
288.634735
 21
70.147011
  0
LINE
  8
0
  6
CONTINUOUS
 10
236.299530
 20
48.649689
 11
269.799530
 21
48.649689
  0
LINE
  8
0
  6
CONTINUOUS
 10
242.753128
 20
56.149689
 11
238.592728
 21
56.149689
  0
LINE
  8
0
  6
CONTINUOUS
 10
245.049530
 20
63.118439
 11
245.049530
 21
56.149689
  0
LINE
  8
0
  6
CONTINUOUS
 10
249.049530
 20
65.649689
 11
249.049530
 21
68.149689
  0
LINE
  8
0
  6
CONTINUOUS
 10
257.049530
 20
65.649689
 11
257.049530
 21
68.149689
  0
LINE
  8
0
  6
CONTINUOUS
 10
252.268326
 20
66.680939
 11
252.268326
 21
57.462189
  0
LINE
  8
0
  6
CONTINUOUS
 10
253.768326
 20
66.680939
 11
253.768326
 21
57.462189
  0
LINE
  8
0
  6
CONTINUOUS
 10
261.643341
 20
66.680939
 11
261.643341
 21
57.399689
  0
LINE
  8
0
  6
CONTINUOUS
 10
263.018341
 20
61.759060
 11
263.018341
 21
57.399689
  0
LINE
  8
0
  6
CONTINUOUS
 10
243.151535
 20
66.555939
 11
239.296524
 21
66.555939
  0
LINE
  8
0
  6
CONTINUOUS
 10
239.296524
 20
66.555939
 11
238.393326
 21
65.435936
  0
LINE
  8
0
  6
CONTINUOUS
 10
238.501938
 20
68.149689
 11
237.049530
 21
66.289925
  0
LINE
  8
0
  6
CONTINUOUS
 10
238.393326
 20
58.522610
 11
239.310928
 21
57.555927
  0
LINE
  8
0
  6
CONTINUOUS
 10
237.049530
 20
57.706848
 11
238.592728
 21
56.149689
  0
LINE
  8
0
  6
CONTINUOUS
 10
237.049530
 20
66.289925
 11
237.049530
 21
57.706848
  0
LINE
  8
0
  6
CONTINUOUS
 10
238.393326
 20
65.435936
 11
238.393326
 21
58.522610
  0
LINE
  8
0
  6
CONTINUOUS
 10
243.893326
 20
65.838829
 11
243.136337
 21
66.555939
  0
LINE
  8
0
  6
CONTINUOUS
 10
243.881332
 20
68.149689
 11
245.049530
 21
66.853195
  0
LINE
  8
0
  6
CONTINUOUS
 10
243.893326
 20
65.649689
 11
245.049530
 21
65.649689
  0
LINE
  8
0
  6
CONTINUOUS
 10
238.501938
 20
68.149689
 11
243.881332
 21
68.149689
  0
LINE
  8
0
  6
CONTINUOUS
 10
241.799530
 20
63.118439
 11
245.049530
 21
63.118439
  0
LINE
  8
0
  6
CONTINUOUS
 10
243.893326
 20
61.805939
 11
241.799530
 21
61.805939
  0
LINE
  8
0
  6
CONTINUOUS
 10
241.393326
 20
57.555927
 11
239.310928
 21
57.555927
  0
LINE
  8
0
  6
CONTINUOUS
 10
243.893326
 20
60.555939
 11
243.893326
 21
61.555939
  0
ARC
  8
0
  6
CONTINUOUS
 10
241.393326
 20
60.055931
 40
2.500000
 50
-89.999786
 51
0.000109
  0
LINE
  8
0
  6
CONTINUOUS
 10
243.893326
 20
57.106247
 11
243.893326
 21
56.149689
  0
LINE
  8
0
  6
CONTINUOUS
 10
245.049530
 20
66.853195
 11
245.049530
 21
65.649689
  0
LINE
  8
0
  6
CONTINUOUS
 10
243.893326
 20
61.805939
 11
243.893326
 21
60.055935
  0
LINE
  8
0
  6
CONTINUOUS
 10
241.799530
 20
63.118439
 11
241.799530
 21
61.805939
  0
LINE
  8
0
  6
CONTINUOUS
 10
243.893326
 20
56.149689
 11
245.049530
 21
56.149689
  0
LINE
  8
0
  6
CONTINUOUS
 10
243.893326
 20
57.106247
 11
242.753128
 21
56.149689
  0
LINE
  8
0
  6
CONTINUOUS
 10
253.768326
 20
57.462189
 11
254.268326
 21
57.462189
  0
LINE
  8
0
  6
CONTINUOUS
 10
251.674530
 20
57.462189
 11
251.674530
 21
56.149689
  0
LINE
  8
0
  6
CONTINUOUS
 10
254.268326
 20
57.462189
 11
254.268326
 21
56.149689
  0
LINE
  8
0
  6
CONTINUOUS
 10
256.215118
 20
65.649689
 11
257.049530
 21
65.649689
  0
LINE
  8
0
  6
CONTINUOUS
 10
249.049530
 20
65.649689
 11
249.937531
 21
65.649689
  0
LINE
  8
0
  6
CONTINUOUS
 10
249.049530
 20
68.149689
 11
257.049530
 21
68.149689
  0
LINE
  8
0
  6
CONTINUOUS
 10
251.674530
 20
56.149689
 11
254.268326
 21
56.149689
  0
LINE
  8
0
  6
CONTINUOUS
 10
251.674530
 20
57.462189
 11
252.268326
 21
57.462189
  0
ARC
  8
0
  6
CONTINUOUS
 10
265.846527
 20
64.946564
 40
3.203126
 50
-73.981873
 51
90.003510
  0
ARC
  8
0
  6
CONTINUOUS
 10
265.846527
 20
64.946564
 40
1.954125
 50
-82.585274
 51
62.411850
  0
LINE
  8
0
  6
CONTINUOUS
 10
261.049530
 20
68.149689
 11
265.846527
 21
68.149689
  0
LINE
  8
0
  6
CONTINUOUS
 10
266.098541
 20
63.008778
 11
263.018341
 21
63.008778
  0
LINE
  8
0
  6
CONTINUOUS
 10
261.049530
 20
68.149689
 11
261.049530
 21
66.680939
  0
LINE
  8
0
  6
CONTINUOUS
 10
263.018341
 20
66.680939
 11
263.018341
 21
63.008778
  0
LINE
  8
0
  6
CONTINUOUS
 10
266.730316
 20
61.867798
 11
268.712738
 21
57.399689
  0
LINE
  8
0
  6
CONTINUOUS
 10
265.578735
 20
61.759060
 11
267.454926
 21
57.399689
  0
LINE
  8
0
  6
CONTINUOUS
 10
261.049530
 20
57.399689
 11
261.643341
 21
57.399689
  0
LINE
  8
0
  6
CONTINUOUS
 10
263.018341
 20
57.399689
 11
263.565125
 21
57.399689
  0
LINE
  8
0
  6
CONTINUOUS
 10
263.565125
 20
56.149689
 11
261.049530
 21
56.149689
  0
LINE
  8
0
  6
CONTINUOUS
 10
267.205719
 20
57.399689
 11
267.454926
 21
57.399689
  0
LINE
  8
0
  6
CONTINUOUS
 10
268.712738
 20
57.399689
 11
269.049530
 21
57.399689
  0
LINE
  8
0
  6
CONTINUOUS
 10
267.205719
 20
56.149689
 11
269.049530
 21
56.149689
  0
LINE
  8
0
  6
CONTINUOUS
 10
269.049530
 20
57.399689
 11
269.049530
 21
56.149689
  0
LINE
  8
0
  6
CONTINUOUS
 10
267.205719
 20
57.399689
 11
267.205719
 21
56.149689
  0
LINE
  8
0
  6
CONTINUOUS
 10
263.565125
 20
57.399689
 11
263.565125
 21
56.149689
  0
LINE
  8
0
  6
CONTINUOUS
 10
261.049530
 20
57.399689
 11
261.049530
 21
56.149689
  0
LINE
  8
0
  6
CONTINUOUS
 10
250.367325
 20
66.680939
 11
249.937531
 21
65.649689
  0
LINE
  8
0
  6
CONTINUOUS
 10
255.852737
 20
66.680939
 11
256.215118
 21
65.649689
  0
LINE
  8
0
  6
CONTINUOUS
 10
253.768326
 20
66.680939
 11
255.852737
 21
66.680939
  0
LINE
  8
0
  6
CONTINUOUS
 10
252.268326
 20
66.680939
 11
250.367325
 21
66.680939
  0
LINE
  8
0
  6
CONTINUOUS
 10
263.018341
 20
61.759060
 11
265.578735
 21
61.759060
  0
LINE
  8
0
  6
CONTINUOUS
 10
261.049530
 20
66.680939
 11
261.643341
 21
66.680939
  0
LINE
  8
0
  6
CONTINUOUS
 10
263.018341
 20
66.680939
 11
266.751343
 21
66.678505
  0
LINE
  8
0
  6
CONTINUOUS
 10
243.893326
 20
65.838829
 11
243.893326
 21
65.649689
  0
LINE
  8
0
  6
CONTINUOUS
 10
188.299545
 20
136.149689
 11
188.299530
 21
21.149687
  0
LINE
  8
0
  6
CONTINUOUS
 10
22.299532
 20
29.649708
 11
22.299532
 21
105.649689
  0
LINE
  8
0
  6
CONTINUOUS
 10
22.299532
 20
105.649666
 11
136.299530
 21
105.649666
  0
LINE
  8
0
  6
CONTINUOUS
 10
22.299532
 20
29.649708
 11
136.299530
 21
29.649708
  0
LINE
  8
0
  6
CONTINUOUS
 10
22.299532
 20
97.898666
 11
128.299530
 21
97.898666
  0
LINE
  8
0
  6
CONTINUOUS
 10
22.299532
 20
37.400707
 11
128.299530
 21
37.400707
  0
LINE
  8
0
  6
CONTINUOUS
 10
128.299530
 20
103.649666
 11
128.299530
 21
31.649687
  0
ARC
  8
0
  6
CONTINUOUS
 10
130.299530
 20
103.649689
 40
2.000000
 50
90.000000
 51
180.000000
  0
ARC
  8
0
  6
CONTINUOUS
 10
130.299530
 20
31.649708
 40
2.000000
 50
180.000000
 51
270.000000
  0
LINE
  8
0
  6
CONTINUOUS
 10
1.799531
 20
35.649689
 11
1.799531
 21
99.649689
  0
LINE
  8
0
  6
CONTINUOUS
 10
5.763611
 20
105.649689
 11
22.299532
 21
105.649689
  0
LINE
  8
0
  6
CONTINUOUS
 10
5.763627
 20
29.649687
 11
22.299532
 21
29.649687
  0
LINE
  8
0
  6
CONTINUOUS
 10
2.299531
 20
32.649689
 11
2.299531
 21
102.649689
  0
LINE
  8
0
  6
CONTINUOUS
 10
1.799531
 20
99.649689
 11
2.299531
 21
100.149689
  0
LINE
  8
0
  6
CONTINUOUS
 10
1.799531
 20
35.649689
 11
2.299531
 21
35.149689
  0
LINE
  8
0
  6
CONTINUOUS
 10
3.165544
 20
104.149666
 11
2.299531
 21
102.649689
  0
ARC
  8
0
  6
CONTINUOUS
 10
5.763627
 20
102.649712
 40
3.000000
 50
90.000000
 51
150.000397
  0
LINE
  8
0
  6
CONTINUOUS
 10
3.165544
 20
31.149708
 11
2.299531
 21
32.649689
  0
ARC
  8
0
  6
CONTINUOUS
 10
5.763627
 20
32.649689
 40
3.000000
 50
-150.000397
 51
-90.000000
  0
LINE
  8
0
  6
CONTINUOUS
 10
3.881165
 20
97.898697
 11
22.299532
 21
97.898697
  0
LINE
  8
0
  6
CONTINUOUS
 10
22.299532
 20
37.400688
 11
3.881165
 21
37.400688
  0
LINE
  8
0
  6
CENTER
 10
473.415009
 20
-11.475333
 11
473.415009
 21
168.074692
  0
LINE
  8
0
  6
CENTER
 10
403.190002
 20
78.649689
 11
542.315002
 21
78.649689
  0
LINE
  8
0
  6
CENTER
 10
371.665009
 20
109.149689
 11
576.664978
 21
109.149689
  0
LINE
  8
0
  6
CONTINUOUS
 10
415.415009
 20
4.149687
 11
448.415009
 21
4.149687
  0
LINE
  8
0
  6
CONTINUOUS
 10
415.415009
 20
14.776087
 11
415.415009
 21
4.149687
  0
LINE
  8
0
  6
CONTINUOUS
 10
531.414978
 20
14.776087
 11
531.414978
 21
4.149687
  0
LINE
  8
0
  6
CONTINUOUS
 10
417.415009
 20
16.149687
 11
438.415009
 21
16.149687
  0
LINE
  8
0
  6
CONTINUOUS
 10
529.414978
 20
16.149687
 11
508.415009
 21
16.149687
  0
LINE
  8
0
  6
CONTINUOUS
 10
441.415009
 20
27.523289
 11
441.415009
 21
151.625610
  0
LINE
  8
0
  6
CONTINUOUS
 10
505.415009
 20
27.523289
 11
505.415009
 21
151.625961
  0
LINE
  8
0
  6
CONTINUOUS
 10
503.449799
 20
153.625671
 11
473.415009
 21
154.149689
  0
LINE
  8
0
  6
CONTINUOUS
 10
443.380005
 20
153.625320
 11
473.415009
 21
154.149689
  0
ARC
  8
0
  6
CONTINUOUS
 10
443.415009
 20
151.625626
 40
2.000000
 50
91.000580
 51
180.000000
  0
ARC
  8
0
  6
CONTINUOUS
 10
503.415009
 20
151.625961
 40
2.000000
 50
0.000000
 51
89.000519
  0
LINE
  8
0
  6
CONTINUOUS
 10
505.415009
 20
19.149687
 11
505.415009
 21
4.149687
  0
ARC
  8
0
  6
CONTINUOUS
 10
508.415009
 20
19.149687
 40
3.000000
 50
180.000000
 51
270.000000
  0
LINE
  8
0
  6
CONTINUOUS
 10
441.415009
 20
19.149687
 11
441.415009
 21
4.149687
  0
ARC
  8
0
  6
CONTINUOUS
 10
438.415009
 20
19.149668
 40
3.000000
 50
-90.000000
 51
0.000000
  0
ARC
  8
0
  6
CONTINUOUS
 10
417.415009
 20
14.149687
 40
2.000000
 50
90.000000
 51
180.000000
  0
ARC
  8
0
  6
CONTINUOUS
 10
529.414978
 20
14.149687
 40
2.000000
 50
0.000000
 51
90.000000
  0
LINE
  8
0
  6
CENTER
 10
428.415009
 20
20.439688
 11
428.415009
 21
0.039688
  0
LINE
  8
0
  6
CENTER
 10
518.414978
 20
21.459688
 11
518.414978
 21
-0.470313
  0
LINE
  8
0
  6
CONTINUOUS
 10
440.132996
 20
25.656609
 11
416.696991
 21
16.642788
  0
ARC
  8
0
  6
CONTINUOUS
 10
417.415009
 20
14.776107
 40
2.000000
 50
111.037903
 51
180.000000
  0
LINE
  8
0
  6
CONTINUOUS
 10
441.415009
 20
27.523289
 11
441.415009
 21
19.149687
  0
ARC
  8
0
  6
CONTINUOUS
 10
439.415009
 20
27.523289
 40
2.000000
 50
-68.962189
 51
0.000000
  0
LINE
  8
0
  6
CONTINUOUS
 10
506.696991
 20
25.656588
 11
530.132996
 21
16.642788
  0
ARC
  8
0
  6
CONTINUOUS
 10
529.414978
 20
14.776087
 40
2.000000
 50
0.000000
 51
68.962646
  0
LINE
  8
0
  6
CONTINUOUS
 10
505.415009
 20
27.523289
 11
505.415009
 21
19.149687
  0
ARC
  8
0
  6
CONTINUOUS
 10
507.415009
 20
27.523308
 40
2.000000
 50
180.000000
 51
248.962799
  0
LINE
  8
0
  6
CONTINUOUS
 10
425.415009
 20
83.956841
 11
425.415009
 21
134.342529
  0
LINE
  8
0
  6
CONTINUOUS
 10
521.414978
 20
83.956841
 11
521.414978
 21
134.342529
  0
LINE
  8
0
  6
CONTINUOUS
 10
511.415009
 20
50.954529
 11
511.415009
 21
111.219688
  0
LINE
  8
0
  6
CONTINUOUS
 10
435.415009
 20
50.954529
 11
435.415009
 21
111.219688
  0
LINE
  8
0
  6
CONTINUOUS
 10
519.185181
 20
137.241989
 11
507.644806
 21
140.307388
  0
LINE
  8
0
  6
CONTINUOUS
 10
519.185181
 20
81.057388
 11
513.644775
 21
79.585732
  0
LINE
  8
0
  6
CONTINUOUS
 10
509.187988
 20
48.055828
 11
507.641998
 21
47.643547
  0
LINE
  8
0
  6
CONTINUOUS
 10
437.641998
 20
48.055805
 11
439.187988
 21
47.643547
  0
LINE
  8
0
  6
CONTINUOUS
 10
427.644806
 20
81.057381
 11
433.185211
 21
79.585732
  0
LINE
  8
0
  6
CONTINUOUS
 10
427.644806
 20
137.241989
 11
439.185211
 21
140.307388
  0
ARC
  8
0
  6
CONTINUOUS
 10
428.415009
 20
134.342545
 40
3.000000
 50
104.876099
 51
180.000000
  0
ARC
  8
0
  6
CONTINUOUS
 10
428.415009
 20
83.956856
 40
3.000000
 50
180.000000
 51
255.124603
  0
ARC
  8
0
  6
CONTINUOUS
 10
518.414978
 20
134.342529
 40
3.000000
 50
0.000000
 51
75.124413
  0
ARC
  8
0
  6
CONTINUOUS
 10
518.414978
 20
83.956833
 40
3.000000
 50
-75.124207
 51
0.000000
  0
ARC
  8
0
  6
CONTINUOUS
 10
438.415009
 20
50.954548
 40
3.000000
 50
180.000000
 51
255.069000
  0
ARC
  8
0
  6
CONTINUOUS
 10
508.415009
 20
50.954529
 40
3.000000
 50
-75.068420
 51
0.000000
  0
ARC
  8
0
  6
CONTINUOUS
 10
508.415009
 20
143.206863
 40
3.000000
 50
180.000000
 51
255.124603
  0
ARC
  8
0
  6
CONTINUOUS
 10
514.414978
 20
76.686295
 40
3.000000
 50
104.876099
 51
180.000000
  0
ARC
  8
0
  6
CONTINUOUS
 10
508.415009
 20
44.744869
 40
3.000000
 50
104.931801
 51
180.000000
  0
ARC
  8
0
  6
CONTINUOUS
 10
438.415009
 20
44.744846
 40
3.000000
 50
0.000000
 51
75.068779
  0
ARC
  8
0
  6
CONTINUOUS
 10
432.415009
 20
76.686272
 40
3.000000
 50
0.000000
 51
75.124496
  0
ARC
  8
0
  6
CONTINUOUS
 10
438.415009
 20
143.206833
 40
3.000000
 50
-75.124153
 51
0.000000
  0
LINE
  8
0
  6
DASHED
 10
422.915009
 20
16.149687
 11
422.915009
 21
4.149687
  0
LINE
  8
0
  6
DASHED
 10
433.915009
 20
16.149687
 11
433.915009
 21
4.149687
  0
LINE
  8
0
  6
DASHED
 10
512.914978
 20
16.149687
 11
512.914978
 21
4.149687
  0
LINE
  8
0
  6
DASHED
 10
523.914978
 20
16.149687
 11
523.914978
 21
4.149687
  0
LINE
  8
0
  6
CONTINUOUS
 10
443.644989
 20
131.149689
 11
503.315002
 21
131.149689
  0
LINE
  8
0
  6
CONTINUOUS
 10
425.915009
 20
36.149689
 11
425.915009
 21
45.201027
  0
LINE
  8
0
  6
CONTINUOUS
 10
520.914978
 20
36.149689
 11
520.914978
 21
45.201027
  0
LINE
  8
0
  6
CONTINUOUS
 10
430.915009
 20
31.149687
 11
439.946198
 21
31.149687
  0
LINE
  8
0
  6
CONTINUOUS
 10
515.914978
 20
31.149687
 11
506.863586
 21
31.149687
  0
ARC
  8
0
  6
CONTINUOUS
 10
473.415009
 20
78.649689
 40
57.250000
 50
-32.501888
 51
19.914110
  0
ARC
  8
0
  6
CONTINUOUS
 10
473.415009
 20
78.649689
 40
57.250000
 50
160.085907
 51
212.501907
  0
ARC
  8
0
  6
CONTINUOUS
 10
430.915009
 20
36.149689
 40
5.000000
 50
180.000000
 51
270.000000
  0
ARC
  8
0
  6
CONTINUOUS
 10
515.914978
 20
36.149689
 40
5.000000
 50
-90.000000
 51
0.000000
  0
ARC
  8
0
  6
CONTINUOUS
 10
439.966400
 20
26.149687
 40
5.000000
 50
73.928284
 51
90.230461
  0
ARC
  8
0
  6
CONTINUOUS
 10
506.863586
 20
26.149687
 40
5.000000
 50
90.000000
 51
106.071800
  0
ARC
  8
0
  6
CONTINUOUS
 10
420.915009
 20
45.201027
 40
5.000000
 50
0.000000
 51
32.499691
  0
ARC
  8
0
  6
CONTINUOUS
 10
525.914978
 20
45.201027
 40
5.000000
 50
147.498306
 51
180.000000
  0
LINE
  8
0
  6
CONTINUOUS
 10
507.415009
 20
29.649687
 11
505.415009
 21
29.649687
  0
LINE
  8
0
  6
CONTINUOUS
 10
439.415009
 20
29.649687
 11
441.415009
 21
29.649687
  0
ARC
  8
0
  6
CONTINUOUS
 10
507.415009
 20
33.649689
 40
4.000000
 50
270.000000
 51
322.311005
  0
ARC
  8
0
  6
CONTINUOUS
 10
439.415009
 20
33.649689
 40
4.000000
 50
218.645996
 51
270.000000
  0
LINE
  8
0
  6
CONTINUOUS
 10
260.549530
 20
106.149712
 11
260.549530
 21
112.149712
  0
LINE
  8
0
  6
CONTINUOUS
 10
266.549530
 20
106.149727
 11
266.549530
 21
112.149727
  0
LINE
  8
0
  6
CONTINUOUS
 10
266.549530
 20
106.149727
 11
260.549530
 21
106.149712
  0
LINE
  8
0
  6
CONTINUOUS
 10
266.549530
 20
112.149727
 11
260.549530
 21
112.149712
  0
ARC
  8
0
  6
CONTINUOUS
 10
253.049530
 20
109.149689
 40
11.000000
 50
15.826600
 51
344.173401
  0
LINE
  8
0
  6
CONTINUOUS
 10
383.415009
 20
98.149689
 11
383.415009
 21
120.149689
  0
LINE
  8
0
  6
CONTINUOUS
 10
423.415009
 20
120.149689
 11
383.415009
 21
120.149689
  0
LINE
  8
0
  6
CONTINUOUS
 10
423.415009
 20
98.149689
 11
383.415009
 21
98.149689
  0
LINE
  8
0
  6
CONTINUOUS
 10
423.415009
 20
121.649689
 11
423.415009
 21
96.649689
  0
LINE
  8
0
  6
CONTINUOUS
 10
425.415009
 20
121.649689
 11
423.415009
 21
121.649689
  0
LINE
  8
0
  6
CONTINUOUS
 10
425.415009
 20
96.649689
 11
423.415009
 21
96.649689
  0
ARC
  8
0
  6
CONTINUOUS
 10
415.415009
 20
109.149689
 40
3.000000
 50
-90.000000
 51
90.000000
  0
LINE
  8
0
  6
CONTINUOUS
 10
415.415009
 20
112.149689
 11
383.415009
 21
112.149689
  0
LINE
  8
0
  6
CONTINUOUS
 10
415.415009
 20
106.149689
 11
383.415009
 21
106.149689
  0
LINE
  8
0
  6
CONTINUOUS
 10
563.414978
 20
98.149689
 11
563.414978
 21
120.149689
  0
LINE
  8
0
  6
CONTINUOUS
 10
523.414978
 20
120.149689
 11
563.414978
 21
120.149689
  0
LINE
  8
0
  6
CONTINUOUS
 10
523.414978
 20
98.149689
 11
563.414978
 21
98.149689
  0
LINE
  8
0
  6
CONTINUOUS
 10
523.414978
 20
121.649689
 11
523.414978
 21
96.649689
  0
LINE
  8
0
  6
CONTINUOUS
 10
521.414978
 20
121.649689
 11
523.414978
 21
121.649689
  0
LINE
  8
0
  6
CONTINUOUS
 10
521.414978
 20
96.649689
 11
523.414978
 21
96.649689
  0
ARC
  8
0
  6
CONTINUOUS
 10
531.414978
 20
109.149689
 40
3.000000
 50
90.000000
 51
270.000000
  0
LINE
  8
0
  6
CONTINUOUS
 10
531.414978
 20
112.149689
 11
563.414978
 21
112.149689
  0
LINE
  8
0
  6
CONTINUOUS
 10
531.414978
 20
106.149689
 11
563.414978
 21
106.149689
  0
LINE
  8
0
  6
CENTER
 10
-10.275469
 20
67.649689
 11
221.049530
 21
67.649689
  0
LINE
  8
0
  6
CONTINUOUS
 10
177.886780
 20
107.101944
 11
136.299530
 21
105.649689
  0
LINE
  8
0
  6
CONTINUOUS
 10
188.299530
 20
27.833809
 11
136.299530
 21
29.649687
  0
LINE
  8
0
  6
CONTINUOUS
 10
180.299530
 20
135.149689
 11
180.299530
 21
108.149689
  0
LINE
  8
0
  6
CONTINUOUS
 10
181.299530
 20
136.149689
 11
188.299545
 21
136.149689
  0
LINE
  8
0
  6
CONTINUOUS
 10
182.799530
 20
21.149687
 11
188.299530
 21
21.149687
  0
LINE
  8
0
  6
CONTINUOUS
 10
180.299530
 20
108.649689
 11
180.299530
 21
37.737030
  0
LINE
  8
0
  6
CONTINUOUS
 10
136.299530
 20
105.649689
 11
136.299530
 21
29.649687
  0
LINE
  8
0
  6
CONTINUOUS
 10
178.886398
 20
118.967491
 11
152.942978
 21
106.443077
  0
LINE
  8
0
  6
CENTER
 10
253.049530
 20
393.329102
 11
253.049530
 21
196.903442
  0
LINE
  8
0
  6
CENTER
 10
-9.647110
 20
297.127411
 11
322.388977
 21
297.127411
  0
LINE
  8
0
  6
CONTINUOUS
 10
201.831512
 20
329.127411
 11
300.577484
 21
329.127411
  0
LINE
  8
0
  6
CONTINUOUS
 10
201.831512
 20
265.127411
 11
300.577484
 21
265.127411
  0
LINE
  8
0
  6
CONTINUOUS
 10
295.987640
 20
355.127411
 11
266.549530
 21
355.127411
  0
LINE
  8
0
  6
CONTINUOUS
 10
210.111435
 20
239.127396
 11
242.049530
 21
239.127396
  0
LINE
  8
0
  6
CONTINUOUS
 10
306.049530
 20
297.127411
 11
305.490967
 21
329.127411
  0
LINE
  8
0
  6
CONTINUOUS
 10
300.881592
 20
351.151642
 11
305.490967
 21
329.127411
  0
ARC
  8
0
  6
CONTINUOUS
 10
295.987640
 20
350.127411
 40
5.000000
 50
11.820596
 51
90.000000
  0
LINE
  8
0
  6
CONTINUOUS
 10
306.049530
 20
297.127411
 11
305.490967
 21
265.127411
  0
LINE
  8
0
  6
CONTINUOUS
 10
300.881592
 20
243.103149
 11
305.490967
 21
265.127411
  0
ARC
  8
0
  6
CONTINUOUS
 10
295.987640
 20
244.127396
 40
5.000000
 50
-90.000000
 51
-11.820596
  0
LINE
  8
0
  6
CONTINUOUS
 10
273.049530
 20
267.127411
 11
273.049530
 21
327.127411
  0
LINE
  8
0
  6
CONTINUOUS
 10
233.049530
 20
267.127411
 11
233.049530
 21
327.127411
  0
ARC
  8
0
  6
CONTINUOUS
 10
300.577484
 20
324.127411
 40
5.000000
 50
1.000000
 51
90.000000
  0
ARC
  8
0
  6
CONTINUOUS
 10
300.577484
 20
270.127411
 40
5.000000
 50
270.000000
 51
359.000000
  0
LINE
  8
0
  6
CONTINUOUS
 10
196.376038
 20
242.798859
 11
196.833221
 21
260.258270
  0
LINE
  8
0
  6
CONTINUOUS
 10
188.299530
 20
354.627411
 11
188.299530
 21
239.627396
  0
LINE
  8
0
  6
CONTINUOUS
 10
206.864532
 20
315.127411
 11
206.864532
 21
279.127411
  0
LINE
  8
0
  6
CONTINUOUS
 10
188.299530
 20
354.377411
 11
193.377060
 21
354.377411
  0
LINE
  8
0
  6
CONTINUOUS
 10
193.377060
 20
239.877396
 11
188.299530
 21
239.877396
  0
ARC
  8
0
  6
CONTINUOUS
 10
201.831512
 20
260.127411
 40
5.000000
 50
90.000000
 51
178.500000
  0
ARC
  8
0
  6
CONTINUOUS
 10
193.377060
 20
242.877396
 40
3.000000
 50
270.000000
 51
358.500000
  0
LINE
  8
0
  6
CONTINUOUS
 10
196.376038
 20
351.455933
 11
196.833221
 21
333.996521
  0
ARC
  8
0
  6
CONTINUOUS
 10
201.831512
 20
334.127411
 40
5.000000
 50
-178.500000
 51
-90.000000
  0
ARC
  8
0
  6
CONTINUOUS
 10
193.377060
 20
351.377411
 40
3.000000
 50
-358.500000
 51
-270.000000
  0
LINE
  8
0
  6
CONTINUOUS
 10
205.217453
 20
351.151642
 11
200.638321
 21
329.271851
  0
ARC
  8
0
  6
CONTINUOUS
 10
210.111435
 20
350.127411
 40
5.000000
 50
90.000000
 51
168.179398
  0
LINE
  8
0
  6
CONTINUOUS
 10
205.217453
 20
243.103149
 11
200.638321
 21
264.982941
  0
ARC
  8
0
  6
CONTINUOUS
 10
210.111435
 20
244.127396
 40
5.000000
 50
-168.179398
 51
-90.000000
  0
LINE
  8
0
  6
CENTER
 10
277.599915
 20
252.127396
 11
298.454102
 21
252.127396
  0
LINE
  8
0
  6
CENTER
 10
288.049530
 20
259.684692
 11
288.049530
 21
242.913849
  0
CIRCLE
  8
0
  6
CONTINUOUS
 10
288.049530
 20
252.127396
 40
5.500000
  0
LINE
  8
0
  6
CENTER
 10
228.499130
 20
252.127396
 11
207.644974
 21
252.127396
  0
LINE
  8
0
  6
CENTER
 10
218.049530
 20
259.684692
 11
218.049530
 21
242.913849
  0
CIRCLE
  8
0
  6
CONTINUOUS
 10
218.049530
 20
252.127396
 40
5.500000
  0
LINE
  8
0
  6
CENTER
 10
277.599915
 20
342.127411
 11
298.454102
 21
342.127411
  0
LINE
  8
0
  6
CENTER
 10
288.049530
 20
334.570099
 11
288.049530
 21
351.340942
  0
CIRCLE
  8
0
  6
CONTINUOUS
 10
288.049530
 20
342.127411
 40
5.500000
  0
LINE
  8
0
  6
CENTER
 10
228.499130
 20
342.127411
 11
207.644974
 21
342.127411
  0
LINE
  8
0
  6
CENTER
 10
218.049530
 20
334.570099
 11
218.049530
 21
351.340942
  0
CIRCLE
  8
0
  6
CONTINUOUS
 10
218.049530
 20
342.127411
 40
5.500000
  0
LINE
  8
0
  6
CONTINUOUS
 10
227.856689
 20
249.127396
 11
278.242371
 21
249.127396
  0
LINE
  8
0
  6
CONTINUOUS
 10
283.205780
 20
259.127411
 11
286.492615
 21
259.127411
  0
ARC
  8
0
  6
CONTINUOUS
 10
278.242371
 20
252.127396
 40
3.000000
 50
270.000000
 51
345.124329
  0
LINE
  8
0
  6
CONTINUOUS
 10
289.392090
 20
261.357239
 11
289.801239
 21
262.897552
  0
ARC
  8
0
  6
CONTINUOUS
 10
286.492615
 20
262.127411
 40
3.000000
 50
270.000000
 51
345.124329
  0
ARC
  8
0
  6
CONTINUOUS
 10
292.700684
 20
262.127411
 40
3.000000
 50
90.000000
 51
165.124313
  0
LINE
  8
0
  6
CONTINUOUS
 10
283.205780
 20
259.127411
 11
281.141846
 21
251.357224
  0
LINE
  8
0
  6
CONTINUOUS
 10
216.706985
 20
261.357239
 11
216.297836
 21
262.897552
  0
ARC
  8
0
  6
CONTINUOUS
 10
219.606445
 20
262.127411
 40
3.000000
 50
-165.124313
 51
-90.000000
  0
ARC
  8
0
  6
CONTINUOUS
 10
213.398376
 20
262.127411
 40
3.000000
 50
14.875682
 51
90.000000
  0
LINE
  8
0
  6
CONTINUOUS
 10
222.893280
 20
259.127411
 11
219.606445
 21
259.127411
  0
ARC
  8
0
  6
CONTINUOUS
 10
227.856689
 20
252.127396
 40
3.000000
 50
-165.124313
 51
-90.000000
  0
LINE
  8
0
  6
CONTINUOUS
 10
222.893280
 20
259.127411
 11
224.957230
 21
251.357224
  0
CIRCLE
  8
0
  6
CONTINUOUS
 10
288.049530
 20
342.127411
 40
5.500000
  0
LINE
  8
0
  6
CONTINUOUS
 10
227.856689
 20
345.127411
 11
278.242371
 21
345.127411
  0
LINE
  8
0
  6
CONTINUOUS
 10
283.205780
 20
335.127411
 11
286.492615
 21
335.127411
  0
ARC
  8
0
  6
CONTINUOUS
 10
278.242371
 20
342.127411
 40
3.000000
 50
-345.124329
 51
-270.000000
  0
LINE
  8
0
  6
CONTINUOUS
 10
289.392090
 20
332.897552
 11
289.801239
 21
331.357239
  0
ARC
  8
0
  6
CONTINUOUS
 10
286.492615
 20
332.127411
 40
3.000000
 50
-345.124329
 51
-270.000000
  0
ARC
  8
0
  6
CONTINUOUS
 10
292.700684
 20
332.127411
 40
3.000000
 50
-165.124313
 51
-90.000000
  0
LINE
  8
0
  6
CONTINUOUS
 10
283.205780
 20
335.127411
 11
281.141846
 21
342.897552
  0
LINE
  8
0
  6
CONTINUOUS
 10
216.706985
 20
332.897552
 11
216.297836
 21
331.357239
  0
ARC
  8
0
  6
CONTINUOUS
 10
219.606445
 20
332.127411
 40
3.000000
 50
90.000000
 51
165.124313
  0
ARC
  8
0
  6
CONTINUOUS
 10
213.398376
 20
332.127411
 40
3.000000
 50
-90.000000
 51
-14.875682
  0
LINE
  8
0
  6
CONTINUOUS
 10
222.893280
 20
335.127411
 11
219.606445
 21
335.127411
  0
ARC
  8
0
  6
CONTINUOUS
 10
227.856689
 20
342.127411
 40
3.000000
 50
90.000000
 51
165.124313
  0
LINE
  8
0
  6
CONTINUOUS
 10
222.893280
 20
335.127411
 11
224.957230
 21
342.897552
  0
LINE
  8
0
  6
CONTINUOUS
 10
242.049530
 20
207.127396
 11
266.549530
 21
207.127396
  0
LINE
  8
0
  6
CONTINUOUS
 10
264.049530
 20
247.127396
 11
264.049530
 21
242.127396
  0
LINE
  8
0
  6
CONTINUOUS
 10
242.049530
 20
247.127396
 11
242.049530
 21
207.127396
  0
LINE
  8
0
  6
CONTINUOUS
 10
265.549530
 20
249.127396
 11
265.549530
 21
247.127396
  0
LINE
  8
0
  6
CONTINUOUS
 10
240.549530
 20
249.127396
 11
240.549530
 21
247.127396
  0
LINE
  8
0
  6
CONTINUOUS
 10
240.549530
 20
247.127396
 11
265.549530
 21
247.127396
  0
LINE
  8
0
  6
CONTINUOUS
 10
266.549530
 20
239.127396
 11
295.987640
 21
239.127396
  0
LINE
  8
0
  6
CONTINUOUS
 10
266.549530
 20
242.127396
 11
266.549530
 21
207.127396
  0
LINE
  8
0
  6
CONTINUOUS
 10
263.632538
 20
207.127396
 11
263.632538
 21
242.127396
  0
LINE
  8
0
  6
CONTINUOUS
 10
263.632538
 20
242.127396
 11
266.549530
 21
242.127396
  0
LINE
  8
0
  6
CONTINUOUS
 10
242.049530
 20
387.127411
 11
266.549530
 21
387.127411
  0
LINE
  8
0
  6
CONTINUOUS
 10
264.049530
 20
347.127411
 11
264.049530
 21
352.127411
  0
LINE
  8
0
  6
CONTINUOUS
 10
242.049530
 20
347.127411
 11
242.049530
 21
387.127411
  0
LINE
  8
0
  6
CONTINUOUS
 10
265.549530
 20
345.127411
 11
265.549530
 21
347.127411
  0
LINE
  8
0
  6
CONTINUOUS
 10
240.549530
 20
345.127411
 11
240.549530
 21
347.127411
  0
LINE
  8
0
  6
CONTINUOUS
 10
240.549530
 20
347.127411
 11
265.549530
 21
347.127411
  0
LINE
  8
0
  6
CONTINUOUS
 10
266.549530
 20
352.127411
 11
266.549530
 21
387.127411
  0
LINE
  8
0
  6
CONTINUOUS
 10
263.632538
 20
387.127411
 11
263.632538
 21
352.127411
  0
LINE
  8
0
  6
CONTINUOUS
 10
263.632538
 20
352.127411
 11
266.549530
 21
352.127411
  0
LINE
  8
0
  6
CONTINUOUS
 10
242.049530
 20
355.127411
 11
209.933258
 21
355.127411
  0
LINE
  8
0
  6
CONTINUOUS
 10
188.299530
 20
344.627411
 11
193.632370
 21
344.627411
  0
ARC
  8
0
  6
CONTINUOUS
 10
193.632370
 20
341.627411
 40
3.000000
 50
1.500000
 51
90.000000
  0
LINE
  8
0
  6
CONTINUOUS
 10
196.590012
 20
329.127411
 11
188.299530
 21
329.127411
  0
LINE
  8
0
  6
CONTINUOUS
 10
196.590012
 20
265.127411
 11
188.299530
 21
265.127411
  0
LINE
  8
0
  6
CONTINUOUS
 10
188.299530
 20
249.627396
 11
193.632370
 21
249.627396
  0
ARC
  8
0
  6
CONTINUOUS
 10
193.632370
 20
252.627396
 40
3.000000
 50
-90.000000
 51
-1.500000
  0
LINE
  8
0
  6
CONTINUOUS
 10
449.415009
 20
5.149687
 11
497.415009
 21
5.149687
  0
LINE
  8
0
  6
CONTINUOUS
 10
498.415009
 20
4.149687
 11
497.415009
 21
5.149687
  0
LINE
  8
0
  6
CONTINUOUS
 10
448.415009
 20
4.149687
 11
449.415009
 21
5.149687
  0
LINE
  8
0
  6
CONTINUOUS
 10
498.415009
 20
4.149687
 11
531.414978
 21
4.149687
  0
LINE
  8
0
  6
CONTINUOUS
 10
182.799530
 20
239.627396
 11
188.299530
 21
239.627396
  0
LINE
  8
0
  6
CONTINUOUS
 10
182.799530
 20
354.627411
 11
188.299530
 21
354.627411
  0
LINE
  8
0
  6
CONTINUOUS
 10
180.299530
 20
242.127396
 11
180.299530
 21
352.127411
  0
LINE
  8
0
  6
CONTINUOUS
 10
136.299530
 20
335.127411
 11
136.299530
 21
259.127411
  0
LINE
  8
0
  6
CONTINUOUS
 10
177.886780
 20
336.579651
 11
136.299530
 21
335.127411
  0
LINE
  8
0
  6
CONTINUOUS
 10
177.886780
 20
257.675140
 11
136.299530
 21
259.127411
  0
ARC
  8
0
  6
CONTINUOUS
 10
182.799530
 20
352.127411
 40
2.500000
 50
90.000000
 51
180.000000
  0
ARC
  8
0
  6
CONTINUOUS
 10
182.799530
 20
242.127396
 40
2.500000
 50
180.000000
 51
270.000000
  0
ARC
  8
0
  6
CONTINUOUS
 10
181.299530
 20
135.149689
 40
1.000000
 50
90.000000
 51
180.000000
  0
ARC
  8
0
  6
CONTINUOUS
 10
177.799530
 20
121.218872
 40
2.500000
 50
-64.230675
 51
0.000000
  0
ARC
  8
0
  6
CONTINUOUS
 10
177.799530
 20
109.600426
 40
2.500000
 50
-88.000000
 51
0.000000
  0
ARC
  8
0
  6
CONTINUOUS
 10
151.856110
 20
108.694458
 40
2.500000
 50
272.000000
 51
295.769318
  0
LINE
  8
0
  6
CONTINUOUS
 10
136.299530
 20
335.127411
 11
136.299530
 21
259.127411
  0
LINE
  8
0
  6
CONTINUOUS
 10
22.299652
 20
259.127411
 11
22.299652
 21
272.127380
  0
LINE
  8
0
  6
CONTINUOUS
 10
22.299652
 20
335.127380
 11
136.299652
 21
335.127380
  0
LINE
  8
0
  6
CONTINUOUS
 10
22.299652
 20
259.127411
 11
136.299652
 21
259.127411
  0
LINE
  8
0
  6
CONTINUOUS
 10
128.299652
 20
333.127380
 11
128.299652
 21
320.127411
  0
ARC
  8
0
  6
CONTINUOUS
 10
130.299652
 20
333.127411
 40
2.000000
 50
90.000000
 51
180.000000
  0
ARC
  8
0
  6
CONTINUOUS
 10
130.299652
 20
261.127411
 40
2.000000
 50
180.000000
 51
270.000000
  0
LINE
  8
0
  6
CONTINUOUS
 10
1.799653
 20
265.127411
 11
1.799653
 21
329.127411
  0
LINE
  8
0
  6
CONTINUOUS
 10
5.763733
 20
335.127411
 11
22.299652
 21
335.127411
  0
LINE
  8
0
  6
CONTINUOUS
 10
5.763753
 20
259.127411
 11
22.299652
 21
259.127411
  0
LINE
  8
0
  6
CONTINUOUS
 10
2.299653
 20
262.127411
 11
2.299653
 21
332.127411
  0
LINE
  8
0
  6
CONTINUOUS
 10
1.799653
 20
329.127411
 11
2.299653
 21
329.627411
  0
LINE
  8
0
  6
CONTINUOUS
 10
1.799653
 20
265.127411
 11
2.299653
 21
264.627411
  0
LINE
  8
0
  6
CONTINUOUS
 10
3.165673
 20
333.627380
 11
2.299653
 21
332.127411
  0
ARC
  8
0
  6
CONTINUOUS
 10
5.763753
 20
332.127411
 40
3.000000
 50
90.000000
 51
150.000397
  0
LINE
  8
0
  6
CONTINUOUS
 10
3.165673
 20
260.627411
 11
2.299653
 21
262.127411
  0
ARC
  8
0
  6
CONTINUOUS
 10
5.763753
 20
262.127411
 40
3.000000
 50
-150.000397
 51
-90.000000
  0
LINE
  8
0
  6
CONTINUOUS
 10
63.299644
 20
320.127411
 11
128.299652
 21
320.127411
  0
LINE
  8
0
  6
CONTINUOUS
 10
13.299653
 20
320.127411
 11
3.881283
 21
320.127411
  0
LINE
  8
0
  6
CONTINUOUS
 10
63.299648
 20
274.127411
 11
128.299652
 21
274.127411
  0
LINE
  8
0
  6
CONTINUOUS
 10
13.299653
 20
274.127411
 11
3.881283
 21
274.127411
  0
LINE
  8
0
  6
CONTINUOUS
 10
128.299652
 20
274.127411
 11
128.299652
 21
261.127411
  0
LINE
  8
0
  6
CONTINUOUS
 10
22.299652
 20
322.127380
 11
22.299652
 21
335.127411
  0
ARC
  8
0
  6
CONTINUOUS
 10
167.469162
 20
297.127411
 40
15.000000
 50
130.747620
 51
229.252380
  0
LINE
  8
0
  6
CONTINUOUS
 10
179.431351
 20
327.233398
 11
157.678238
 21
308.491272
  0
LINE
  8
0
  6
CONTINUOUS
 10
179.431351
 20
267.021393
 11
157.678238
 21
285.763519
  0
ARC
  8
0
  6
CONTINUOUS
 10
177.799530
 20
329.127380
 40
2.500000
 50
-49.252373
 51
0.000000
  0
ARC
  8
0
  6
CONTINUOUS
 10
177.799530
 20
339.078125
 40
2.500000
 50
-88.000000
 51
0.000000
  0
ARC
  8
0
  6
CONTINUOUS
 10
177.799530
 20
265.127411
 40
2.500000
 50
0.000000
 51
49.252373
  0
ARC
  8
0
  6
CONTINUOUS
 10
177.799530
 20
255.176666
 40
2.500000
 50
0.000000
 51
88.000000
  0
LINE
  8
0
  6
CONTINUOUS
 10
181.424606
 20
35.495689
 11
188.299530
 21
35.495689
  0
LINE
  8
0
  6
CONTINUOUS
 10
180.299530
 20
23.649687
 11
180.299530
 21
25.698952
  0
ARC
  8
0
  6
CONTINUOUS
 10
182.799530
 20
23.649687
 40
2.500000
 50
180.000000
 51
270.000000
  0
ARC
  8
0
  6
CONTINUOUS
 10
177.799530
 20
25.698952
 40
2.500000
 50
0.000000
 51
88.000000
  0
ARC
  8
0
  6
CONTINUOUS
 10
473.415009
 20
78.649689
 40
57.500000
 50
236.002823
 51
236.184402
  0
ARC
  8
0
  6
CONTINUOUS
 10
473.415009
 20
78.649689
 40
57.500000
 50
303.815582
 51
303.997162
  0
ARC
  8
0
  6
CONTINUOUS
 10
473.415009
 20
78.649689
 40
57.500000
 50
-33.997124
 51
19.823904
  0
ARC
  8
0
  6
CONTINUOUS
 10
473.415009
 20
78.649689
 40
57.500000
 50
160.176102
 51
213.997131
  0
LINE
  8
0
  6
CONTINUOUS
 10
13.299653
 20
274.127380
 11
13.299653
 21
320.127380
  0
LINE
  8
0
  6
CONTINUOUS
 10
15.299653
 20
322.127380
 11
13.299653
 21
320.127380
  0
LINE
  8
0
  6
CONTINUOUS
 10
15.299653
 20
322.127380
 11
61.299644
 21
322.127380
  0
LINE
  8
0
  6
CONTINUOUS
 10
55.799652
 20
317.627380
 11
55.799652
 21
322.127380
  0
ARC
  8
0
  6
CONTINUOUS
 10
58.799652
 20
317.627380
 40
3.000000
 50
180.000000
 51
270.000000
  0
LINE
  8
0
  6
CONTINUOUS
 10
58.799652
 20
314.627380
 11
63.299644
 21
314.627380
  0
CIRCLE
  8
0
  6
CONTINUOUS
 10
59.799652
 20
318.627380
 40
2.250000
  0
LINE
  8
0
  6
CONTINUOUS
 10
63.299648
 20
274.127380
 11
63.299644
 21
320.127380
  0
LINE
  8
0
  6
CONTINUOUS
 10
61.299644
 20
322.127380
 11
63.299644
 21
320.127380
  0
LINE
  8
0
  6
CONTINUOUS
 10
61.299648
 20
272.127380
 11
63.299648
 21
274.127380
  0
LINE
  8
0
  6
CONTINUOUS
 10
61.299648
 20
272.127380
 11
15.299653
 21
272.127380
  0
LINE
  8
0
  6
CONTINUOUS
 10
13.299653
 20
274.127380
 11
15.299653
 21
272.127380
  0
LINE
  8
0
  6
CONTINUOUS
 10
17.799652
 20
279.627380
 11
13.299663
 21
279.627380
  0
CIRCLE
  8
0
  6
CONTINUOUS
 10
16.799652
 20
275.627380
 40
2.250000
  0
ARC
  8
0
  6
CONTINUOUS
 10
17.799652
 20
276.627380
 40
3.000000
 50
0.000000
 51
90.000000
  0
LINE
  8
0
  6
CONTINUOUS
 10
20.799652
 20
276.627380
 11
20.799652
 21
272.127380
  0
LINE
  8
0
  6
CENTER
 10
38.299652
 20
264.661591
 11
38.299652
 21
328.793640
  0
LINE
  8
0
  6
CONTINUOUS
 10
14.299659
 20
279.627380
 11
14.299659
 21
314.627380
  0
LINE
  8
0
  6
CONTINUOUS
 10
55.799652
 20
321.127380
 11
20.799652
 21
321.127380
  0
LINE
  8
0
  6
CONTINUOUS
 10
62.299648
 20
314.627380
 11
62.299648
 21
279.627380
  0
LINE
  8
0
  6
CONTINUOUS
 10
20.799652
 20
273.127380
 11
55.799652
 21
273.127380
  0
LINE
  8
0
  6
CONTINUOUS
 10
17.799652
 20
314.627380
 11
13.299653
 21
314.627380
  0
ARC
  8
0
  6
CONTINUOUS
 10
17.799652
 20
317.627380
 40
3.000000
 50
-90.000000
 51
0.000000
  0
LINE
  8
0
  6
CONTINUOUS
 10
20.799652
 20
317.627380
 11
20.799652
 21
322.127380
  0
CIRCLE
  8
0
  6
CONTINUOUS
 10
16.799652
 20
318.627380
 40
2.250000
  0
ARC
  8
0
  6
CONTINUOUS
 10
58.799652
 20
276.627380
 40
3.000000
 50
90.000000
 51
180.000000
  0
LINE
  8
0
  6
CONTINUOUS
 10
55.799652
 20
276.627380
 11
55.799652
 21
272.127380
  0
LINE
  8
0
  6
CONTINUOUS
 10
58.799652
 20
279.627380
 11
63.299652
 21
279.627380
  0
CIRCLE
  8
0
  6
CONTINUOUS
 10
59.799652
 20
275.627380
 40
2.250000
  0
LINE
  8
0
  6
CONTINUOUS
 10
14.799531
 20
107.149689
 11
61.299530
 21
107.149689
  0
LINE
  8
0
  6
CONTINUOUS
 10
63.299511
 20
151.149689
 11
63.299530
 21
109.149689
  0
LINE
  8
0
  6
CONTINUOUS
 10
13.299531
 20
151.149689
 11
13.299531
 21
109.149689
  0
LINE
  8
0
  6
CONTINUOUS
 10
13.299531
 20
119.149689
 11
63.299530
 21
119.149689
  0
LINE
  8
0
  6
CONTINUOUS
 10
61.299530
 20
107.149689
 11
63.299530
 21
109.149689
  0
LINE
  8
0
  6
CONTINUOUS
 10
13.299531
 20
109.149689
 11
15.299531
 21
107.149689
  0
LINE
  8
0
  6
CONTINUOUS
 10
13.299531
 20
109.149689
 11
63.299530
 21
109.149689
  0
LINE
  8
0
  6
CONTINUOUS
 10
13.299531
 20
120.149689
 11
63.299511
 21
120.149689
  0
LINE
  8
0
  6
CONTINUOUS
 10
14.299531
 20
152.149689
 11
62.299511
 21
152.149689
  0
LINE
  8
0
  6
CONTINUOUS
 10
62.299511
 20
152.149689
 11
63.299511
 21
151.149689
  0
LINE
  8
0
  6
CONTINUOUS
 10
14.299531
 20
152.149689
 11
13.299531
 21
151.149689
  0
LINE
  8
0
  6
CONTINUOUS
 10
13.299531
 20
151.149689
 11
63.299511
 21
151.149689
  0
LINE
  8
0
  6
CENTER
 10
38.299530
 20
100.760178
 11
38.299530
 21
158.452194
  0
LINE
  8
0
  6
CENTER
 10
10.924531
 20
135.149689
 11
15.549531
 21
135.149689
  0
LINE
  8
0
  6
CONTINUOUS
 10
14.799531
 20
107.149689
 11
14.799531
 21
105.649689
  0
LINE
  8
0
  6
CONTINUOUS
 10
60.799530
 20
107.149689
 11
60.799530
 21
105.649689
  0
LINE
  8
0
  6
CONTINUOUS
 10
12.424531
 20
145.649689
 11
14.424531
 21
145.649689
  0
LINE
  8
0
  6
CONTINUOUS
 10
12.424531
 20
124.649689
 11
14.424531
 21
124.649689
  0
LINE
  8
0
  6
CONTINUOUS
 10
136.299530
 20
58.249687
 11
180.299530
 21
58.249687
  0
LINE
  8
0
  6
CONTINUOUS
 10
136.299530
 20
48.049686
 11
180.299530
 21
48.049686
  0
TEXT
  8
0
 10
-10.000000
 20
-11.000000
 40
4.000000
 41
1.000000
  1
HLM-22T-300~1800-T15WK
 50
0.000000
  0
ENDSEC
  0
EOF
