  0
SECTION
  2
HEADER
  9
$CLAYER
  8
1
  9
$LTSCALE
 40
3.0
  0
ENDSEC
  0
SECTION
  2
TABLES
  0
TABLE
  2
LTYPE
 70
     4
  0
LTYPE
  2
CONTINUOUS
  3
solid line
 70
    64
 72
    65
 73
     0
 40
0.0
  0
LTYPE
  2
DASHED
  3
__ __ __ __ __ __ __ __ __ __ __ __ __ __ __
 70
    64
 72
    65
 73
     2
 40
0.75
 49
0.5
 49
-0.25
  0
LTYPE
  2
CENTER
  3
____ _ ____ _ ____ _ ____ _ ____ _ ____ _ ____
 70
    64
 72
    65
 73
     4
 40
2.0
 49
1.25
 49
-0.25
 49
0.25
 49
-0.25
  0
LTYPE
  2
PHANTOM
  3
_____ _ _ _____ _ _ _____ _ _ _____ _ _ ____
 70
    64
 72
    65
 73
     6
 40
2.5
 49
1.25
 49
-0.25
 49
0.25
 49
-0.25
 49
0.25
 49
-0.25
  0
ENDTAB
  0
TABLE
  2
LAYER
 70
     1
  0
LAYER
  2
0
 70
    64
 62
     7
  6
CONTINUOUS
  0
ENDTAB
  0
TABLE
  2
STYLE
 70
     1
  0
STYLE
  2
STANDARD
 70
     0
 40
0.000000
 41
1.000000
 50
0.000000
 71
     0
 42
3.000000
  3
txt
  4
BIGFONT
  0
ENDTAB
  0
ENDSEC
  0
SECTION
  2
BLOCKS
  0
ENDSEC
  0
SECTION
  2
ENTITIES
  0
LINE
  8
0
  6
CENTER
 10
105.472504
 20
77.214691
 11
221.049530
 21
77.214691
  0
LINE
  8
0
  6
CENTER
 10
253.049530
 20
159.964691
 11
253.049530
 21
-3.535313
  0
LINE
  8
0
  6
CENTER
 10
206.479126
 20
107.714691
 11
297.787506
 21
107.714691
  0
LINE
  8
0
  6
CONTINUOUS
 10
200.049530
 20
2.714687
 11
306.049530
 21
2.714687
  0
LINE
  8
0
  6
CONTINUOUS
 10
234.620132
 20
152.714691
 11
271.478943
 21
152.714691
  0
LINE
  8
0
  6
CONTINUOUS
 10
306.049530
 20
127.104927
 11
306.049530
 21
2.714708
  0
LINE
  8
0
  6
CONTINUOUS
 10
200.049530
 20
27.714687
 11
200.049530
 21
2.714687
  0
LINE
  8
0
  6
CONTINUOUS
 10
188.299530
 20
134.464691
 11
205.922531
 21
134.464691
  0
LINE
  8
0
  6
CONTINUOUS
 10
188.299530
 20
19.964687
 11
195.049545
 21
19.964687
  0
LINE
  8
0
  6
CONTINUOUS
 10
196.299530
 20
31.714687
 11
196.299530
 21
122.714691
  0
LINE
  8
0
  6
CONTINUOUS
 10
303.908539
 20
131.206924
 11
274.337921
 21
151.816666
  0
LINE
  8
0
  6
CONTINUOUS
 10
202.190536
 20
131.206924
 11
231.761124
 21
151.816666
  0
LINE
  8
0
  6
CONTINUOUS
 10
233.987930
 20
14.714687
 11
200.049530
 21
14.714687
  0
LINE
  8
0
  6
CONTINUOUS
 10
239.611130
 20
24.714687
 11
266.487946
 21
24.714687
  0
LINE
  8
0
  6
CONTINUOUS
 10
268.049530
 20
23.277187
 11
268.049530
 21
15.714687
  0
LINE
  8
0
  6
CONTINUOUS
 10
238.049530
 20
23.089687
 11
238.049530
 21
15.714687
  0
LINE
  8
0
  6
CONTINUOUS
 10
235.928329
 20
16.229607
 11
237.670731
 21
23.199768
  0
LINE
  8
0
  6
CONTINUOUS
 10
270.170746
 20
16.229607
 11
268.428345
 21
23.199747
  0
LINE
  8
0
  6
CONTINUOUS
 10
206.049530
 20
13.652187
 11
206.049530
 21
2.714687
  0
LINE
  8
0
  6
CONTINUOUS
 10
300.049530
 20
13.652187
 11
300.049530
 21
2.714687
  0
LINE
  8
0
  6
CENTER
 10
218.049530
 20
18.464687
 11
218.049530
 21
-1.535313
  0
LINE
  8
0
  6
CENTER
 10
288.049530
 20
19.464687
 11
288.049530
 21
-1.035313
  0
LINE
  8
0
  6
DASHED
 10
212.549530
 20
14.714687
 11
212.549530
 21
2.714687
  0
LINE
  8
0
  6
DASHED
 10
223.549530
 20
14.714687
 11
223.549530
 21
2.714687
  0
LINE
  8
0
  6
DASHED
 10
282.549530
 20
14.714687
 11
282.549530
 21
2.714687
  0
LINE
  8
0
  6
DASHED
 10
293.549530
 20
14.714687
 11
293.549530
 21
2.714687
  0
ARC
  8
0
  6
CONTINUOUS
 10
271.478943
 20
147.714691
 40
5.000000
 50
55.124809
 51
90.000000
  0
ARC
  8
0
  6
CONTINUOUS
 10
234.620132
 20
147.714691
 40
5.000000
 50
90.000000
 51
124.875603
  0
ARC
  8
0
  6
CONTINUOUS
 10
301.049530
 20
127.104927
 40
5.000000
 50
0.000000
 51
55.124851
  0
ARC
  8
0
  6
CONTINUOUS
 10
205.049530
 20
127.104950
 40
5.000000
 50
124.875702
 51
180.000000
  0
LINE
  8
0
  6
CONTINUOUS
 10
188.299530
 20
124.714691
 11
198.049530
 21
124.714691
  0
LINE
  8
0
  6
CONTINUOUS
 10
194.299530
 20
29.714687
 11
188.299530
 21
29.714687
  0
LINE
  8
0
  6
CONTINUOUS
 10
188.299530
 20
109.174690
 11
195.174530
 21
109.174690
  0
LINE
  8
0
  6
CONTINUOUS
 10
188.299530
 20
45.254688
 11
195.299530
 21
45.254688
  0
ARC
  8
0
  6
CONTINUOUS
 10
205.922333
 20
137.464691
 40
3.000000
 50
270.000000
 51
304.875397
  0
ARC
  8
0
  6
CONTINUOUS
 10
194.299545
 20
122.714691
 40
2.000000
 50
0.000000
 51
90.000000
  0
ARC
  8
0
  6
CONTINUOUS
 10
198.049530
 20
126.714691
 40
2.000000
 50
-90.000000
 51
0.000000
  0
LINE
  8
0
  6
CONTINUOUS
 10
200.049545
 20
127.104950
 11
200.049530
 21
126.714691
  0
ARC
  8
0
  6
CONTINUOUS
 10
198.049530
 20
27.714687
 40
2.000000
 50
0.000000
 51
90.000000
  0
LINE
  8
0
  6
CONTINUOUS
 10
194.299530
 20
29.714687
 11
198.049530
 21
29.714687
  0
ARC
  8
0
  6
CONTINUOUS
 10
194.299530
 20
31.714687
 40
2.000000
 50
-90.000000
 51
0.000000
  0
ARC
  8
0
  6
CONTINUOUS
 10
195.049545
 20
14.964667
 40
5.000000
 50
0.000000
 51
90.000000
  0
ARC
  8
0
  6
CONTINUOUS
 10
266.487946
 20
22.714687
 40
2.000000
 50
14.036440
 51
90.000000
  0
ARC
  8
0
  6
CONTINUOUS
 10
239.611130
 20
22.714687
 40
2.000000
 50
90.000000
 51
165.963898
  0
LINE
  8
0
  6
CONTINUOUS
 10
272.111145
 20
14.714687
 11
306.049530
 21
14.714687
  0
ARC
  8
0
  6
CONTINUOUS
 10
233.987930
 20
16.714687
 40
2.000000
 50
270.000000
 51
345.963715
  0
LINE
  8
0
  6
CONTINUOUS
 10
272.111145
 20
14.714687
 11
233.987930
 21
14.714687
  0
ARC
  8
0
  6
CONTINUOUS
 10
272.111145
 20
16.714687
 40
2.000000
 50
194.036194
 51
270.000000
  0
ARC
  8
0
  6
CONTINUOUS
 10
237.049530
 20
15.714687
 40
1.000000
 50
-90.000000
 51
0.000000
  0
ARC
  8
0
  6
CONTINUOUS
 10
269.049530
 20
15.714687
 40
1.000000
 50
180.000000
 51
270.000000
  0
CIRCLE
  8
0
  6
CONTINUOUS
 10
253.049530
 20
107.714691
 40
27.500000
  0
ARC
  8
0
  6
CONTINUOUS
 10
253.049530
 20
107.714691
 40
31.750000
 50
7.552697
 51
172.447403
  0
ARC
  8
0
  6
CONTINUOUS
 10
236.299530
 20
66.214691
 40
20.600000
 50
172.447403
 51
270.000000
  0
ARC
  8
0
  6
CONTINUOUS
 10
269.799530
 20
66.214691
 40
20.600000
 50
-90.000000
 51
7.552700
  0
LINE
  8
0
  6
CONTINUOUS
 10
284.524139
 20
111.887848
 11
290.220734
 21
68.922318
  0
LINE
  8
0
  6
CONTINUOUS
 10
215.878326
 20
68.922279
 11
221.574936
 21
111.887787
  0
LINE
  8
0
  6
CONTINUOUS
 10
236.299530
 20
45.614689
 11
269.799530
 21
45.614689
  0
ARC
  8
0
  6
CONTINUOUS
 10
236.299530
 20
66.214691
 40
19.000000
 50
172.447601
 51
270.000000
  0
ARC
  8
0
  6
CONTINUOUS
 10
269.799530
 20
66.214691
 40
19.000000
 50
-90.000000
 51
7.552700
  0
ARC
  8
0
  6
CONTINUOUS
 10
253.049530
 20
107.714691
 40
30.150000
 50
-187.552597
 51
7.552697
  0
LINE
  8
0
  6
CONTINUOUS
 10
217.464325
 20
68.711975
 11
223.161133
 21
111.677505
  0
LINE
  8
0
  6
CONTINUOUS
 10
282.937927
 20
111.677544
 11
288.634735
 21
68.712013
  0
LINE
  8
0
  6
CONTINUOUS
 10
236.299530
 20
47.214687
 11
269.799530
 21
47.214687
  0
LINE
  8
0
  6
CONTINUOUS
 10
242.753128
 20
54.714687
 11
238.592728
 21
54.714687
  0
LINE
  8
0
  6
CONTINUOUS
 10
245.049530
 20
61.683437
 11
245.049530
 21
54.714687
  0
LINE
  8
0
  6
CONTINUOUS
 10
249.049530
 20
64.214691
 11
249.049530
 21
66.714691
  0
LINE
  8
0
  6
CONTINUOUS
 10
257.049530
 20
64.214691
 11
257.049530
 21
66.714691
  0
LINE
  8
0
  6
CONTINUOUS
 10
252.268326
 20
65.245941
 11
252.268326
 21
56.027187
  0
LINE
  8
0
  6
CONTINUOUS
 10
253.768326
 20
65.245941
 11
253.768326
 21
56.027187
  0
LINE
  8
0
  6
CONTINUOUS
 10
261.643341
 20
65.245941
 11
261.643341
 21
55.964687
  0
LINE
  8
0
  6
CONTINUOUS
 10
263.018341
 20
60.324062
 11
263.018341
 21
55.964687
  0
LINE
  8
0
  6
CONTINUOUS
 10
243.151535
 20
65.120941
 11
239.296524
 21
65.120941
  0
LINE
  8
0
  6
CONTINUOUS
 10
239.296524
 20
65.120941
 11
238.393326
 21
64.000938
  0
LINE
  8
0
  6
CONTINUOUS
 10
238.501938
 20
66.714691
 11
237.049530
 21
64.854927
  0
LINE
  8
0
  6
CONTINUOUS
 10
238.393326
 20
57.087608
 11
239.310928
 21
56.120930
  0
LINE
  8
0
  6
CONTINUOUS
 10
237.049530
 20
56.271847
 11
238.592728
 21
54.714687
  0
LINE
  8
0
  6
CONTINUOUS
 10
237.049530
 20
64.854927
 11
237.049530
 21
56.271847
  0
LINE
  8
0
  6
CONTINUOUS
 10
238.393326
 20
64.000938
 11
238.393326
 21
57.087608
  0
LINE
  8
0
  6
CONTINUOUS
 10
243.893326
 20
64.403831
 11
243.136337
 21
65.120941
  0
LINE
  8
0
  6
CONTINUOUS
 10
243.881332
 20
66.714691
 11
245.049530
 21
65.418198
  0
LINE
  8
0
  6
CONTINUOUS
 10
243.893326
 20
64.214691
 11
245.049530
 21
64.214691
  0
LINE
  8
0
  6
CONTINUOUS
 10
238.501938
 20
66.714691
 11
243.881332
 21
66.714691
  0
LINE
  8
0
  6
CONTINUOUS
 10
241.799530
 20
61.683437
 11
245.049530
 21
61.683437
  0
LINE
  8
0
  6
CONTINUOUS
 10
243.893326
 20
60.370937
 11
241.799530
 21
60.370937
  0
LINE
  8
0
  6
CONTINUOUS
 10
241.393326
 20
56.120930
 11
239.310928
 21
56.120930
  0
LINE
  8
0
  6
CONTINUOUS
 10
243.893326
 20
59.120937
 11
243.893326
 21
60.120937
  0
ARC
  8
0
  6
CONTINUOUS
 10
241.393326
 20
58.620934
 40
2.500000
 50
-89.999786
 51
0.000109
  0
LINE
  8
0
  6
CONTINUOUS
 10
243.893326
 20
55.671246
 11
243.893326
 21
54.714687
  0
LINE
  8
0
  6
CONTINUOUS
 10
245.049530
 20
65.418198
 11
245.049530
 21
64.214691
  0
LINE
  8
0
  6
CONTINUOUS
 10
243.893326
 20
60.370937
 11
243.893326
 21
58.620934
  0
LINE
  8
0
  6
CONTINUOUS
 10
241.799530
 20
61.683437
 11
241.799530
 21
60.370937
  0
LINE
  8
0
  6
CONTINUOUS
 10
243.893326
 20
54.714687
 11
245.049530
 21
54.714687
  0
LINE
  8
0
  6
CONTINUOUS
 10
243.893326
 20
55.671246
 11
242.753128
 21
54.714687
  0
LINE
  8
0
  6
CONTINUOUS
 10
253.768326
 20
56.027187
 11
254.268326
 21
56.027187
  0
LINE
  8
0
  6
CONTINUOUS
 10
251.674530
 20
56.027187
 11
251.674530
 21
54.714687
  0
LINE
  8
0
  6
CONTINUOUS
 10
254.268326
 20
56.027187
 11
254.268326
 21
54.714687
  0
LINE
  8
0
  6
CONTINUOUS
 10
256.215118
 20
64.214691
 11
257.049530
 21
64.214691
  0
LINE
  8
0
  6
CONTINUOUS
 10
249.049530
 20
64.214691
 11
249.937531
 21
64.214691
  0
LINE
  8
0
  6
CONTINUOUS
 10
249.049530
 20
66.714691
 11
257.049530
 21
66.714691
  0
LINE
  8
0
  6
CONTINUOUS
 10
251.674530
 20
54.714687
 11
254.268326
 21
54.714687
  0
LINE
  8
0
  6
CONTINUOUS
 10
251.674530
 20
56.027187
 11
252.268326
 21
56.027187
  0
ARC
  8
0
  6
CONTINUOUS
 10
265.846527
 20
63.511562
 40
3.203126
 50
-73.981873
 51
90.003510
  0
ARC
  8
0
  6
CONTINUOUS
 10
265.846527
 20
63.511562
 40
1.954125
 50
-82.585274
 51
62.411850
  0
LINE
  8
0
  6
CONTINUOUS
 10
261.049530
 20
66.714691
 11
265.846527
 21
66.714691
  0
LINE
  8
0
  6
CONTINUOUS
 10
266.098541
 20
61.573776
 11
263.018341
 21
61.573776
  0
LINE
  8
0
  6
CONTINUOUS
 10
261.049530
 20
66.714691
 11
261.049530
 21
65.245941
  0
LINE
  8
0
  6
CONTINUOUS
 10
263.018341
 20
65.245941
 11
263.018341
 21
61.573776
  0
LINE
  8
0
  6
CONTINUOUS
 10
266.730316
 20
60.432800
 11
268.712738
 21
55.964687
  0
LINE
  8
0
  6
CONTINUOUS
 10
265.578735
 20
60.324062
 11
267.454926
 21
55.964687
  0
LINE
  8
0
  6
CONTINUOUS
 10
261.049530
 20
55.964687
 11
261.643341
 21
55.964687
  0
LINE
  8
0
  6
CONTINUOUS
 10
263.018341
 20
55.964687
 11
263.565125
 21
55.964687
  0
LINE
  8
0
  6
CONTINUOUS
 10
263.565125
 20
54.714687
 11
261.049530
 21
54.714687
  0
LINE
  8
0
  6
CONTINUOUS
 10
267.205719
 20
55.964687
 11
267.454926
 21
55.964687
  0
LINE
  8
0
  6
CONTINUOUS
 10
268.712738
 20
55.964687
 11
269.049530
 21
55.964687
  0
LINE
  8
0
  6
CONTINUOUS
 10
267.205719
 20
54.714687
 11
269.049530
 21
54.714687
  0
LINE
  8
0
  6
CONTINUOUS
 10
269.049530
 20
55.964687
 11
269.049530
 21
54.714687
  0
LINE
  8
0
  6
CONTINUOUS
 10
267.205719
 20
55.964687
 11
267.205719
 21
54.714687
  0
LINE
  8
0
  6
CONTINUOUS
 10
263.565125
 20
55.964687
 11
263.565125
 21
54.714687
  0
LINE
  8
0
  6
CONTINUOUS
 10
261.049530
 20
55.964687
 11
261.049530
 21
54.714687
  0
LINE
  8
0
  6
CONTINUOUS
 10
250.367325
 20
65.245941
 11
249.937531
 21
64.214691
  0
LINE
  8
0
  6
CONTINUOUS
 10
255.852737
 20
65.245941
 11
256.215118
 21
64.214691
  0
LINE
  8
0
  6
CONTINUOUS
 10
253.768326
 20
65.245941
 11
255.852737
 21
65.245941
  0
LINE
  8
0
  6
CONTINUOUS
 10
252.268326
 20
65.245941
 11
250.367325
 21
65.245941
  0
LINE
  8
0
  6
CONTINUOUS
 10
263.018341
 20
60.324062
 11
265.578735
 21
60.324062
  0
LINE
  8
0
  6
CONTINUOUS
 10
261.049530
 20
65.245941
 11
261.643341
 21
65.245941
  0
LINE
  8
0
  6
CONTINUOUS
 10
263.018341
 20
65.245941
 11
266.751343
 21
65.243507
  0
LINE
  8
0
  6
CONTINUOUS
 10
243.893326
 20
64.403831
 11
243.893326
 21
64.214691
  0
LINE
  8
0
  6
CONTINUOUS
 10
188.299545
 20
134.714691
 11
188.299530
 21
19.714687
  0
LINE
  8
0
  6
CONTINUOUS
 10
22.299532
 20
28.214708
 11
22.299532
 21
104.214691
  0
LINE
  8
0
  6
CONTINUOUS
 10
22.299532
 20
104.214668
 11
136.299530
 21
104.214668
  0
LINE
  8
0
  6
CONTINUOUS
 10
22.299532
 20
28.214708
 11
136.299530
 21
28.214708
  0
LINE
  8
0
  6
CONTINUOUS
 10
22.299532
 20
96.463669
 11
128.299530
 21
96.463669
  0
LINE
  8
0
  6
CONTINUOUS
 10
22.299532
 20
35.965710
 11
128.299530
 21
35.965710
  0
LINE
  8
0
  6
CONTINUOUS
 10
128.299530
 20
102.214668
 11
128.299530
 21
30.214687
  0
ARC
  8
0
  6
CONTINUOUS
 10
130.299530
 20
102.214691
 40
2.000000
 50
90.000000
 51
180.000000
  0
ARC
  8
0
  6
CONTINUOUS
 10
130.299530
 20
30.214708
 40
2.000000
 50
180.000000
 51
270.000000
  0
LINE
  8
0
  6
CONTINUOUS
 10
1.799531
 20
34.214687
 11
1.799531
 21
98.214691
  0
LINE
  8
0
  6
CONTINUOUS
 10
5.763611
 20
104.214691
 11
22.299532
 21
104.214691
  0
LINE
  8
0
  6
CONTINUOUS
 10
5.763627
 20
28.214687
 11
22.299532
 21
28.214687
  0
LINE
  8
0
  6
CONTINUOUS
 10
2.299531
 20
31.214687
 11
2.299531
 21
101.214691
  0
LINE
  8
0
  6
CONTINUOUS
 10
1.799531
 20
98.214691
 11
2.299531
 21
98.714691
  0
LINE
  8
0
  6
CONTINUOUS
 10
1.799531
 20
34.214687
 11
2.299531
 21
33.714687
  0
LINE
  8
0
  6
CONTINUOUS
 10
3.165544
 20
102.714668
 11
2.299531
 21
101.214691
  0
ARC
  8
0
  6
CONTINUOUS
 10
5.763627
 20
101.214706
 40
3.000000
 50
90.000000
 51
150.000397
  0
LINE
  8
0
  6
CONTINUOUS
 10
3.165544
 20
29.714708
 11
2.299531
 21
31.214687
  0
ARC
  8
0
  6
CONTINUOUS
 10
5.763627
 20
31.214687
 40
3.000000
 50
-150.000397
 51
-90.000000
  0
LINE
  8
0
  6
CONTINUOUS
 10
3.881165
 20
96.463699
 11
22.299532
 21
96.463699
  0
LINE
  8
0
  6
CONTINUOUS
 10
22.299532
 20
35.965687
 11
3.881165
 21
35.965687
  0
LINE
  8
0
  6
CENTER
 10
474.850006
 20
-12.910333
 11
474.850006
 21
166.639694
  0
LINE
  8
0
  6
CENTER
 10
404.625000
 20
77.214691
 11
543.750000
 21
77.214691
  0
LINE
  8
0
  6
CENTER
 10
373.100006
 20
107.714691
 11
578.099976
 21
107.714691
  0
LINE
  8
0
  6
CONTINUOUS
 10
416.850006
 20
2.714687
 11
449.850006
 21
2.714687
  0
LINE
  8
0
  6
CONTINUOUS
 10
416.850006
 20
13.341087
 11
416.850006
 21
2.714687
  0
LINE
  8
0
  6
CONTINUOUS
 10
532.849976
 20
13.341087
 11
532.849976
 21
2.714687
  0
LINE
  8
0
  6
CONTINUOUS
 10
418.850006
 20
14.714687
 11
439.850006
 21
14.714687
  0
LINE
  8
0
  6
CONTINUOUS
 10
530.849976
 20
14.714687
 11
509.850006
 21
14.714687
  0
LINE
  8
0
  6
CONTINUOUS
 10
442.850006
 20
26.088287
 11
442.850006
 21
150.190613
  0
LINE
  8
0
  6
CONTINUOUS
 10
506.850006
 20
26.088287
 11
506.850006
 21
150.190964
  0
LINE
  8
0
  6
CONTINUOUS
 10
504.884796
 20
152.190674
 11
474.850006
 21
152.714691
  0
LINE
  8
0
  6
CONTINUOUS
 10
444.815002
 20
152.190323
 11
474.850006
 21
152.714691
  0
ARC
  8
0
  6
CONTINUOUS
 10
444.850006
 20
150.190628
 40
2.000000
 50
91.000580
 51
180.000000
  0
ARC
  8
0
  6
CONTINUOUS
 10
504.850006
 20
150.190964
 40
2.000000
 50
0.000000
 51
89.000519
  0
LINE
  8
0
  6
CONTINUOUS
 10
506.850006
 20
17.714687
 11
506.850006
 21
2.714687
  0
ARC
  8
0
  6
CONTINUOUS
 10
509.850006
 20
17.714687
 40
3.000000
 50
180.000000
 51
270.000000
  0
LINE
  8
0
  6
CONTINUOUS
 10
442.850006
 20
17.714687
 11
442.850006
 21
2.714687
  0
ARC
  8
0
  6
CONTINUOUS
 10
439.850006
 20
17.714666
 40
3.000000
 50
-90.000000
 51
0.000000
  0
ARC
  8
0
  6
CONTINUOUS
 10
418.850006
 20
12.714687
 40
2.000000
 50
90.000000
 51
180.000000
  0
ARC
  8
0
  6
CONTINUOUS
 10
530.849976
 20
12.714687
 40
2.000000
 50
0.000000
 51
90.000000
  0
LINE
  8
0
  6
CENTER
 10
429.850006
 20
19.004688
 11
429.850006
 21
-1.395312
  0
LINE
  8
0
  6
CENTER
 10
519.849976
 20
20.024689
 11
519.849976
 21
-1.905313
  0
LINE
  8
0
  6
CONTINUOUS
 10
441.567993
 20
24.221607
 11
418.131989
 21
15.207788
  0
ARC
  8
0
  6
CONTINUOUS
 10
418.850006
 20
13.341107
 40
2.000000
 50
111.037903
 51
180.000000
  0
LINE
  8
0
  6
CONTINUOUS
 10
442.850006
 20
26.088287
 11
442.850006
 21
17.714687
  0
ARC
  8
0
  6
CONTINUOUS
 10
440.850006
 20
26.088287
 40
2.000000
 50
-68.962189
 51
0.000000
  0
LINE
  8
0
  6
CONTINUOUS
 10
508.131989
 20
24.221588
 11
531.567993
 21
15.207788
  0
ARC
  8
0
  6
CONTINUOUS
 10
530.849976
 20
13.341087
 40
2.000000
 50
0.000000
 51
68.962646
  0
LINE
  8
0
  6
CONTINUOUS
 10
506.850006
 20
26.088287
 11
506.850006
 21
17.714687
  0
ARC
  8
0
  6
CONTINUOUS
 10
508.850006
 20
26.088308
 40
2.000000
 50
180.000000
 51
248.962799
  0
LINE
  8
0
  6
CONTINUOUS
 10
426.850006
 20
82.521835
 11
426.850006
 21
132.907532
  0
LINE
  8
0
  6
CONTINUOUS
 10
522.849976
 20
82.521843
 11
522.849976
 21
132.907532
  0
LINE
  8
0
  6
CONTINUOUS
 10
512.849976
 20
49.519527
 11
512.849976
 21
109.784691
  0
LINE
  8
0
  6
CONTINUOUS
 10
436.850006
 20
49.519527
 11
436.850006
 21
109.784691
  0
LINE
  8
0
  6
CONTINUOUS
 10
520.620178
 20
135.806992
 11
509.079803
 21
138.872391
  0
LINE
  8
0
  6
CONTINUOUS
 10
520.620178
 20
79.622383
 11
515.079773
 21
78.150734
  0
LINE
  8
0
  6
CONTINUOUS
 10
510.622986
 20
46.620827
 11
509.076996
 21
46.208546
  0
LINE
  8
0
  6
CONTINUOUS
 10
439.076996
 20
46.620808
 11
440.622986
 21
46.208546
  0
LINE
  8
0
  6
CONTINUOUS
 10
429.079803
 20
79.622383
 11
434.620209
 21
78.150734
  0
LINE
  8
0
  6
CONTINUOUS
 10
429.079803
 20
135.806992
 11
440.620209
 21
138.872391
  0
ARC
  8
0
  6
CONTINUOUS
 10
429.850006
 20
132.907547
 40
3.000000
 50
104.876099
 51
180.000000
  0
ARC
  8
0
  6
CONTINUOUS
 10
429.850006
 20
82.521858
 40
3.000000
 50
180.000000
 51
255.124603
  0
ARC
  8
0
  6
CONTINUOUS
 10
519.849976
 20
132.907532
 40
3.000000
 50
0.000000
 51
75.124413
  0
ARC
  8
0
  6
CONTINUOUS
 10
519.849976
 20
82.521835
 40
3.000000
 50
-75.124207
 51
0.000000
  0
ARC
  8
0
  6
CONTINUOUS
 10
439.850006
 20
49.519547
 40
3.000000
 50
180.000000
 51
255.069000
  0
ARC
  8
0
  6
CONTINUOUS
 10
509.850006
 20
49.519527
 40
3.000000
 50
-75.068420
 51
0.000000
  0
ARC
  8
0
  6
CONTINUOUS
 10
509.850006
 20
141.771866
 40
3.000000
 50
180.000000
 51
255.124603
  0
ARC
  8
0
  6
CONTINUOUS
 10
515.849976
 20
75.251297
 40
3.000000
 50
104.876099
 51
180.000000
  0
ARC
  8
0
  6
CONTINUOUS
 10
509.850006
 20
43.309868
 40
3.000000
 50
104.931801
 51
180.000000
  0
ARC
  8
0
  6
CONTINUOUS
 10
439.850006
 20
43.309849
 40
3.000000
 50
0.000000
 51
75.068779
  0
ARC
  8
0
  6
CONTINUOUS
 10
433.850006
 20
75.251266
 40
3.000000
 50
0.000000
 51
75.124496
  0
ARC
  8
0
  6
CONTINUOUS
 10
439.850006
 20
141.771835
 40
3.000000
 50
-75.124153
 51
0.000000
  0
LINE
  8
0
  6
DASHED
 10
424.350006
 20
14.714687
 11
424.350006
 21
2.714687
  0
LINE
  8
0
  6
DASHED
 10
435.350006
 20
14.714687
 11
435.350006
 21
2.714687
  0
LINE
  8
0
  6
DASHED
 10
514.349976
 20
14.714687
 11
514.349976
 21
2.714687
  0
LINE
  8
0
  6
DASHED
 10
525.349976
 20
14.714687
 11
525.349976
 21
2.714687
  0
LINE
  8
0
  6
CONTINUOUS
 10
445.079987
 20
129.714691
 11
504.750000
 21
129.714691
  0
LINE
  8
0
  6
CONTINUOUS
 10
427.350006
 20
34.714687
 11
427.350006
 21
43.766029
  0
LINE
  8
0
  6
CONTINUOUS
 10
522.349976
 20
34.714687
 11
522.349976
 21
43.766029
  0
LINE
  8
0
  6
CONTINUOUS
 10
432.350006
 20
29.714687
 11
441.381195
 21
29.714687
  0
LINE
  8
0
  6
CONTINUOUS
 10
517.349976
 20
29.714687
 11
508.298615
 21
29.714687
  0
ARC
  8
0
  6
CONTINUOUS
 10
474.850006
 20
77.214691
 40
57.250000
 50
-32.501888
 51
19.914110
  0
ARC
  8
0
  6
CONTINUOUS
 10
474.850006
 20
77.214691
 40
57.250000
 50
160.085907
 51
212.501907
  0
ARC
  8
0
  6
CONTINUOUS
 10
432.350006
 20
34.714687
 40
5.000000
 50
180.000000
 51
270.000000
  0
ARC
  8
0
  6
CONTINUOUS
 10
517.349976
 20
34.714687
 40
5.000000
 50
-90.000000
 51
0.000000
  0
ARC
  8
0
  6
CONTINUOUS
 10
441.401398
 20
24.714687
 40
5.000000
 50
73.928284
 51
90.230461
  0
ARC
  8
0
  6
CONTINUOUS
 10
508.298615
 20
24.714687
 40
5.000000
 50
90.000000
 51
106.071800
  0
ARC
  8
0
  6
CONTINUOUS
 10
422.350006
 20
43.766029
 40
5.000000
 50
0.000000
 51
32.499691
  0
ARC
  8
0
  6
CONTINUOUS
 10
527.349976
 20
43.766029
 40
5.000000
 50
147.498306
 51
180.000000
  0
LINE
  8
0
  6
CONTINUOUS
 10
508.850006
 20
28.214687
 11
506.850006
 21
28.214687
  0
LINE
  8
0
  6
CONTINUOUS
 10
440.850006
 20
28.214687
 11
442.850006
 21
28.214687
  0
ARC
  8
0
  6
CONTINUOUS
 10
508.850006
 20
32.214687
 40
4.000000
 50
270.000000
 51
322.311005
  0
ARC
  8
0
  6
CONTINUOUS
 10
440.850006
 20
32.214687
 40
4.000000
 50
218.645996
 51
270.000000
  0
LINE
  8
0
  6
CONTINUOUS
 10
260.549530
 20
104.714706
 11
260.549530
 21
110.714706
  0
LINE
  8
0
  6
CONTINUOUS
 10
266.549530
 20
104.714729
 11
266.549530
 21
110.714729
  0
LINE
  8
0
  6
CONTINUOUS
 10
266.549530
 20
104.714729
 11
260.549530
 21
104.714706
  0
LINE
  8
0
  6
CONTINUOUS
 10
266.549530
 20
110.714729
 11
260.549530
 21
110.714706
  0
ARC
  8
0
  6
CONTINUOUS
 10
253.049530
 20
107.714691
 40
11.000000
 50
15.826600
 51
344.173401
  0
LINE
  8
0
  6
CONTINUOUS
 10
384.850006
 20
96.714691
 11
384.850006
 21
118.714691
  0
LINE
  8
0
  6
CONTINUOUS
 10
424.850006
 20
118.714691
 11
384.850006
 21
118.714691
  0
LINE
  8
0
  6
CONTINUOUS
 10
424.850006
 20
96.714691
 11
384.850006
 21
96.714691
  0
LINE
  8
0
  6
CONTINUOUS
 10
424.850006
 20
120.214691
 11
424.850006
 21
95.214691
  0
LINE
  8
0
  6
CONTINUOUS
 10
426.850006
 20
120.214691
 11
424.850006
 21
120.214691
  0
LINE
  8
0
  6
CONTINUOUS
 10
426.850006
 20
95.214691
 11
424.850006
 21
95.214691
  0
ARC
  8
0
  6
CONTINUOUS
 10
416.850006
 20
107.714691
 40
3.000000
 50
-90.000000
 51
90.000000
  0
LINE
  8
0
  6
CONTINUOUS
 10
416.850006
 20
110.714691
 11
384.850006
 21
110.714691
  0
LINE
  8
0
  6
CONTINUOUS
 10
416.850006
 20
104.714691
 11
384.850006
 21
104.714691
  0
LINE
  8
0
  6
CONTINUOUS
 10
564.849976
 20
96.714691
 11
564.849976
 21
118.714691
  0
LINE
  8
0
  6
CONTINUOUS
 10
524.849976
 20
118.714691
 11
564.849976
 21
118.714691
  0
LINE
  8
0
  6
CONTINUOUS
 10
524.849976
 20
96.714691
 11
564.849976
 21
96.714691
  0
LINE
  8
0
  6
CONTINUOUS
 10
524.849976
 20
120.214691
 11
524.849976
 21
95.214691
  0
LINE
  8
0
  6
CONTINUOUS
 10
522.849976
 20
120.214691
 11
524.849976
 21
120.214691
  0
LINE
  8
0
  6
CONTINUOUS
 10
522.849976
 20
95.214691
 11
524.849976
 21
95.214691
  0
ARC
  8
0
  6
CONTINUOUS
 10
532.849976
 20
107.714691
 40
3.000000
 50
90.000000
 51
270.000000
  0
LINE
  8
0
  6
CONTINUOUS
 10
532.849976
 20
110.714691
 11
564.849976
 21
110.714691
  0
LINE
  8
0
  6
CONTINUOUS
 10
532.849976
 20
104.714691
 11
564.849976
 21
104.714691
  0
LINE
  8
0
  6
CENTER
 10
-10.275469
 20
66.214691
 11
221.049530
 21
66.214691
  0
LINE
  8
0
  6
CONTINUOUS
 10
177.886780
 20
105.666946
 11
136.299530
 21
104.214691
  0
LINE
  8
0
  6
CONTINUOUS
 10
188.299530
 20
26.398808
 11
136.299530
 21
28.214687
  0
LINE
  8
0
  6
CONTINUOUS
 10
180.299530
 20
133.714691
 11
180.299530
 21
106.714691
  0
LINE
  8
0
  6
CONTINUOUS
 10
181.299530
 20
134.714691
 11
188.299545
 21
134.714691
  0
LINE
  8
0
  6
CONTINUOUS
 10
182.799530
 20
19.714687
 11
188.299530
 21
19.714687
  0
LINE
  8
0
  6
CONTINUOUS
 10
180.299530
 20
107.214691
 11
180.299530
 21
36.302032
  0
LINE
  8
0
  6
CONTINUOUS
 10
136.299530
 20
104.214691
 11
136.299530
 21
28.214687
  0
LINE
  8
0
  6
CONTINUOUS
 10
178.886398
 20
117.532494
 11
152.942978
 21
105.008080
  0
LINE
  8
0
  6
CENTER
 10
253.049530
 20
407.370636
 11
253.049530
 21
210.945007
  0
LINE
  8
0
  6
CENTER
 10
-9.647110
 20
311.168945
 11
322.388977
 21
311.168945
  0
LINE
  8
0
  6
CONTINUOUS
 10
201.831512
 20
343.168945
 11
300.577484
 21
343.168945
  0
LINE
  8
0
  6
CONTINUOUS
 10
201.831512
 20
279.168945
 11
300.577484
 21
279.168945
  0
LINE
  8
0
  6
CONTINUOUS
 10
295.987640
 20
369.168945
 11
266.549530
 21
369.168945
  0
LINE
  8
0
  6
CONTINUOUS
 10
210.111435
 20
253.168961
 11
242.049530
 21
253.168961
  0
LINE
  8
0
  6
CONTINUOUS
 10
306.049530
 20
311.168945
 11
305.490967
 21
343.168945
  0
LINE
  8
0
  6
CONTINUOUS
 10
300.881592
 20
365.193207
 11
305.490967
 21
343.168945
  0
ARC
  8
0
  6
CONTINUOUS
 10
295.987640
 20
364.168945
 40
5.000000
 50
11.820596
 51
90.000000
  0
LINE
  8
0
  6
CONTINUOUS
 10
306.049530
 20
311.168945
 11
305.490967
 21
279.168945
  0
LINE
  8
0
  6
CONTINUOUS
 10
300.881592
 20
257.144714
 11
305.490967
 21
279.168945
  0
ARC
  8
0
  6
CONTINUOUS
 10
295.987640
 20
258.168945
 40
5.000000
 50
-90.000000
 51
-11.820596
  0
LINE
  8
0
  6
CONTINUOUS
 10
273.049530
 20
281.168945
 11
273.049530
 21
341.168945
  0
LINE
  8
0
  6
CONTINUOUS
 10
233.049530
 20
281.168945
 11
233.049530
 21
341.168945
  0
ARC
  8
0
  6
CONTINUOUS
 10
300.577484
 20
338.168945
 40
5.000000
 50
1.000000
 51
90.000000
  0
ARC
  8
0
  6
CONTINUOUS
 10
300.577484
 20
284.168945
 40
5.000000
 50
270.000000
 51
359.000000
  0
LINE
  8
0
  6
CONTINUOUS
 10
196.376038
 20
256.840424
 11
196.833221
 21
274.299835
  0
LINE
  8
0
  6
CONTINUOUS
 10
188.299530
 20
368.668945
 11
188.299530
 21
253.668961
  0
LINE
  8
0
  6
CONTINUOUS
 10
206.864532
 20
329.168945
 11
206.864532
 21
293.168945
  0
LINE
  8
0
  6
CONTINUOUS
 10
188.299530
 20
368.418945
 11
193.377060
 21
368.418945
  0
LINE
  8
0
  6
CONTINUOUS
 10
193.377060
 20
253.918961
 11
188.299530
 21
253.918961
  0
ARC
  8
0
  6
CONTINUOUS
 10
201.831512
 20
274.168945
 40
5.000000
 50
90.000000
 51
178.500000
  0
ARC
  8
0
  6
CONTINUOUS
 10
193.377060
 20
256.918945
 40
3.000000
 50
270.000000
 51
358.500000
  0
LINE
  8
0
  6
CONTINUOUS
 10
196.376038
 20
365.497498
 11
196.833221
 21
348.038086
  0
ARC
  8
0
  6
CONTINUOUS
 10
201.831512
 20
348.168945
 40
5.000000
 50
-178.500000
 51
-90.000000
  0
ARC
  8
0
  6
CONTINUOUS
 10
193.377060
 20
365.418945
 40
3.000000
 50
-358.500000
 51
-270.000000
  0
LINE
  8
0
  6
CONTINUOUS
 10
205.217453
 20
365.193207
 11
200.638321
 21
343.313416
  0
ARC
  8
0
  6
CONTINUOUS
 10
210.111435
 20
364.168945
 40
5.000000
 50
90.000000
 51
168.179398
  0
LINE
  8
0
  6
CONTINUOUS
 10
205.217453
 20
257.144714
 11
200.638321
 21
279.024506
  0
ARC
  8
0
  6
CONTINUOUS
 10
210.111435
 20
258.168945
 40
5.000000
 50
-168.179398
 51
-90.000000
  0
LINE
  8
0
  6
CENTER
 10
277.599915
 20
266.168945
 11
298.454102
 21
266.168945
  0
LINE
  8
0
  6
CENTER
 10
288.049530
 20
273.726257
 11
288.049530
 21
256.955414
  0
CIRCLE
  8
0
  6
CONTINUOUS
 10
288.049530
 20
266.168945
 40
5.500000
  0
LINE
  8
0
  6
CENTER
 10
228.499130
 20
266.168945
 11
207.644974
 21
266.168945
  0
LINE
  8
0
  6
CENTER
 10
218.049530
 20
273.726257
 11
218.049530
 21
256.955414
  0
CIRCLE
  8
0
  6
CONTINUOUS
 10
218.049530
 20
266.168945
 40
5.500000
  0
LINE
  8
0
  6
CENTER
 10
277.599915
 20
356.168945
 11
298.454102
 21
356.168945
  0
LINE
  8
0
  6
CENTER
 10
288.049530
 20
348.611664
 11
288.049530
 21
365.382507
  0
CIRCLE
  8
0
  6
CONTINUOUS
 10
288.049530
 20
356.168945
 40
5.500000
  0
LINE
  8
0
  6
CENTER
 10
228.499130
 20
356.168945
 11
207.644974
 21
356.168945
  0
LINE
  8
0
  6
CENTER
 10
218.049530
 20
348.611664
 11
218.049530
 21
365.382507
  0
CIRCLE
  8
0
  6
CONTINUOUS
 10
218.049530
 20
356.168945
 40
5.500000
  0
LINE
  8
0
  6
CONTINUOUS
 10
227.856689
 20
263.168945
 11
278.242371
 21
263.168945
  0
LINE
  8
0
  6
CONTINUOUS
 10
283.205780
 20
273.168945
 11
286.492615
 21
273.168945
  0
ARC
  8
0
  6
CONTINUOUS
 10
278.242371
 20
266.168945
 40
3.000000
 50
270.000000
 51
345.124329
  0
LINE
  8
0
  6
CONTINUOUS
 10
289.392090
 20
275.398804
 11
289.801239
 21
276.939117
  0
ARC
  8
0
  6
CONTINUOUS
 10
286.492615
 20
276.168945
 40
3.000000
 50
270.000000
 51
345.124329
  0
ARC
  8
0
  6
CONTINUOUS
 10
292.700684
 20
276.168945
 40
3.000000
 50
90.000000
 51
165.124313
  0
LINE
  8
0
  6
CONTINUOUS
 10
283.205780
 20
273.168945
 11
281.141846
 21
265.398804
  0
LINE
  8
0
  6
CONTINUOUS
 10
216.706985
 20
275.398804
 11
216.297836
 21
276.939117
  0
ARC
  8
0
  6
CONTINUOUS
 10
219.606445
 20
276.168945
 40
3.000000
 50
-165.124313
 51
-90.000000
  0
ARC
  8
0
  6
CONTINUOUS
 10
213.398376
 20
276.168945
 40
3.000000
 50
14.875682
 51
90.000000
  0
LINE
  8
0
  6
CONTINUOUS
 10
222.893280
 20
273.168945
 11
219.606445
 21
273.168945
  0
ARC
  8
0
  6
CONTINUOUS
 10
227.856689
 20
266.168945
 40
3.000000
 50
-165.124313
 51
-90.000000
  0
LINE
  8
0
  6
CONTINUOUS
 10
222.893280
 20
273.168945
 11
224.957230
 21
265.398804
  0
CIRCLE
  8
0
  6
CONTINUOUS
 10
288.049530
 20
356.168945
 40
5.500000
  0
LINE
  8
0
  6
CONTINUOUS
 10
227.856689
 20
359.168945
 11
278.242371
 21
359.168945
  0
LINE
  8
0
  6
CONTINUOUS
 10
283.205780
 20
349.168945
 11
286.492615
 21
349.168945
  0
ARC
  8
0
  6
CONTINUOUS
 10
278.242371
 20
356.168945
 40
3.000000
 50
-345.124329
 51
-270.000000
  0
LINE
  8
0
  6
CONTINUOUS
 10
289.392090
 20
346.939117
 11
289.801239
 21
345.398804
  0
ARC
  8
0
  6
CONTINUOUS
 10
286.492615
 20
346.168945
 40
3.000000
 50
-345.124329
 51
-270.000000
  0
ARC
  8
0
  6
CONTINUOUS
 10
292.700684
 20
346.168945
 40
3.000000
 50
-165.124313
 51
-90.000000
  0
LINE
  8
0
  6
CONTINUOUS
 10
283.205780
 20
349.168945
 11
281.141846
 21
356.939117
  0
LINE
  8
0
  6
CONTINUOUS
 10
216.706985
 20
346.939117
 11
216.297836
 21
345.398804
  0
ARC
  8
0
  6
CONTINUOUS
 10
219.606445
 20
346.168945
 40
3.000000
 50
90.000000
 51
165.124313
  0
ARC
  8
0
  6
CONTINUOUS
 10
213.398376
 20
346.168945
 40
3.000000
 50
-90.000000
 51
-14.875682
  0
LINE
  8
0
  6
CONTINUOUS
 10
222.893280
 20
349.168945
 11
219.606445
 21
349.168945
  0
ARC
  8
0
  6
CONTINUOUS
 10
227.856689
 20
356.168945
 40
3.000000
 50
90.000000
 51
165.124313
  0
LINE
  8
0
  6
CONTINUOUS
 10
222.893280
 20
349.168945
 11
224.957230
 21
356.939117
  0
LINE
  8
0
  6
CONTINUOUS
 10
242.049530
 20
221.168961
 11
266.549530
 21
221.168961
  0
LINE
  8
0
  6
CONTINUOUS
 10
264.049530
 20
261.168945
 11
264.049530
 21
256.168945
  0
LINE
  8
0
  6
CONTINUOUS
 10
242.049530
 20
261.168945
 11
242.049530
 21
221.168961
  0
LINE
  8
0
  6
CONTINUOUS
 10
265.549530
 20
263.168945
 11
265.549530
 21
261.168945
  0
LINE
  8
0
  6
CONTINUOUS
 10
240.549530
 20
263.168945
 11
240.549530
 21
261.168945
  0
LINE
  8
0
  6
CONTINUOUS
 10
240.549530
 20
261.168945
 11
265.549530
 21
261.168945
  0
LINE
  8
0
  6
CONTINUOUS
 10
266.549530
 20
253.168961
 11
295.987640
 21
253.168961
  0
LINE
  8
0
  6
CONTINUOUS
 10
266.549530
 20
256.168945
 11
266.549530
 21
221.168961
  0
LINE
  8
0
  6
CONTINUOUS
 10
263.632538
 20
221.168961
 11
263.632538
 21
256.168945
  0
LINE
  8
0
  6
CONTINUOUS
 10
263.632538
 20
256.168945
 11
266.549530
 21
256.168945
  0
LINE
  8
0
  6
CONTINUOUS
 10
242.049530
 20
401.168945
 11
266.549530
 21
401.168945
  0
LINE
  8
0
  6
CONTINUOUS
 10
264.049530
 20
361.168945
 11
264.049530
 21
366.168945
  0
LINE
  8
0
  6
CONTINUOUS
 10
242.049530
 20
361.168945
 11
242.049530
 21
401.168945
  0
LINE
  8
0
  6
CONTINUOUS
 10
265.549530
 20
359.168945
 11
265.549530
 21
361.168945
  0
LINE
  8
0
  6
CONTINUOUS
 10
240.549530
 20
359.168945
 11
240.549530
 21
361.168945
  0
LINE
  8
0
  6
CONTINUOUS
 10
240.549530
 20
361.168945
 11
265.549530
 21
361.168945
  0
LINE
  8
0
  6
CONTINUOUS
 10
266.549530
 20
366.168945
 11
266.549530
 21
401.168945
  0
LINE
  8
0
  6
CONTINUOUS
 10
263.632538
 20
401.168945
 11
263.632538
 21
366.168945
  0
LINE
  8
0
  6
CONTINUOUS
 10
263.632538
 20
366.168945
 11
266.549530
 21
366.168945
  0
LINE
  8
0
  6
CONTINUOUS
 10
242.049530
 20
369.168945
 11
209.933258
 21
369.168945
  0
LINE
  8
0
  6
CONTINUOUS
 10
188.299530
 20
358.668945
 11
193.632370
 21
358.668945
  0
ARC
  8
0
  6
CONTINUOUS
 10
193.632370
 20
355.668945
 40
3.000000
 50
1.500000
 51
90.000000
  0
LINE
  8
0
  6
CONTINUOUS
 10
196.590012
 20
343.168945
 11
188.299530
 21
343.168945
  0
LINE
  8
0
  6
CONTINUOUS
 10
196.590012
 20
279.168945
 11
188.299530
 21
279.168945
  0
LINE
  8
0
  6
CONTINUOUS
 10
188.299530
 20
263.668945
 11
193.632370
 21
263.668945
  0
ARC
  8
0
  6
CONTINUOUS
 10
193.632370
 20
266.668945
 40
3.000000
 50
-90.000000
 51
-1.500000
  0
LINE
  8
0
  6
CONTINUOUS
 10
450.850006
 20
3.714687
 11
498.850006
 21
3.714687
  0
LINE
  8
0
  6
CONTINUOUS
 10
499.850006
 20
2.714687
 11
498.850006
 21
3.714687
  0
LINE
  8
0
  6
CONTINUOUS
 10
449.850006
 20
2.714687
 11
450.850006
 21
3.714687
  0
LINE
  8
0
  6
CONTINUOUS
 10
499.850006
 20
2.714687
 11
532.849976
 21
2.714687
  0
LINE
  8
0
  6
CONTINUOUS
 10
182.799530
 20
253.668961
 11
188.299530
 21
253.668961
  0
LINE
  8
0
  6
CONTINUOUS
 10
182.799530
 20
368.668945
 11
188.299530
 21
368.668945
  0
LINE
  8
0
  6
CONTINUOUS
 10
180.299530
 20
256.168945
 11
180.299530
 21
366.168945
  0
LINE
  8
0
  6
CONTINUOUS
 10
136.299530
 20
349.168945
 11
136.299530
 21
273.168945
  0
LINE
  8
0
  6
CONTINUOUS
 10
177.886780
 20
350.621216
 11
136.299530
 21
349.168945
  0
LINE
  8
0
  6
CONTINUOUS
 10
177.886780
 20
271.716705
 11
136.299530
 21
273.168945
  0
ARC
  8
0
  6
CONTINUOUS
 10
182.799530
 20
366.168945
 40
2.500000
 50
90.000000
 51
180.000000
  0
ARC
  8
0
  6
CONTINUOUS
 10
182.799530
 20
256.168945
 40
2.500000
 50
180.000000
 51
270.000000
  0
ARC
  8
0
  6
CONTINUOUS
 10
181.299530
 20
133.714691
 40
1.000000
 50
90.000000
 51
180.000000
  0
ARC
  8
0
  6
CONTINUOUS
 10
177.799530
 20
119.783867
 40
2.500000
 50
-64.230675
 51
0.000000
  0
ARC
  8
0
  6
CONTINUOUS
 10
177.799530
 20
108.165421
 40
2.500000
 50
-88.000000
 51
0.000000
  0
ARC
  8
0
  6
CONTINUOUS
 10
151.856110
 20
107.259460
 40
2.500000
 50
272.000000
 51
295.769318
  0
LINE
  8
0
  6
CONTINUOUS
 10
136.299530
 20
349.168945
 11
136.299530
 21
273.168945
  0
LINE
  8
0
  6
CONTINUOUS
 10
22.299652
 20
273.168976
 11
22.299652
 21
286.168945
  0
LINE
  8
0
  6
CONTINUOUS
 10
22.299652
 20
349.168945
 11
136.299652
 21
349.168945
  0
LINE
  8
0
  6
CONTINUOUS
 10
22.299652
 20
273.168976
 11
136.299652
 21
273.168976
  0
LINE
  8
0
  6
CONTINUOUS
 10
128.299652
 20
347.168945
 11
128.299652
 21
334.168945
  0
ARC
  8
0
  6
CONTINUOUS
 10
130.299652
 20
347.168945
 40
2.000000
 50
90.000000
 51
180.000000
  0
ARC
  8
0
  6
CONTINUOUS
 10
130.299652
 20
275.168976
 40
2.000000
 50
180.000000
 51
270.000000
  0
LINE
  8
0
  6
CONTINUOUS
 10
1.799653
 20
279.168945
 11
1.799653
 21
343.168945
  0
LINE
  8
0
  6
CONTINUOUS
 10
5.763733
 20
349.168945
 11
22.299652
 21
349.168945
  0
LINE
  8
0
  6
CONTINUOUS
 10
5.763753
 20
273.168945
 11
22.299652
 21
273.168945
  0
LINE
  8
0
  6
CONTINUOUS
 10
2.299653
 20
276.168945
 11
2.299653
 21
346.168945
  0
LINE
  8
0
  6
CONTINUOUS
 10
1.799653
 20
343.168945
 11
2.299653
 21
343.668945
  0
LINE
  8
0
  6
CONTINUOUS
 10
1.799653
 20
279.168945
 11
2.299653
 21
278.668945
  0
LINE
  8
0
  6
CONTINUOUS
 10
3.165673
 20
347.668945
 11
2.299653
 21
346.168945
  0
ARC
  8
0
  6
CONTINUOUS
 10
5.763753
 20
346.168976
 40
3.000000
 50
90.000000
 51
150.000397
  0
LINE
  8
0
  6
CONTINUOUS
 10
3.165673
 20
274.668976
 11
2.299653
 21
276.168945
  0
ARC
  8
0
  6
CONTINUOUS
 10
5.763753
 20
276.168945
 40
3.000000
 50
-150.000397
 51
-90.000000
  0
LINE
  8
0
  6
CONTINUOUS
 10
63.299644
 20
334.168945
 11
128.299652
 21
334.168945
  0
LINE
  8
0
  6
CONTINUOUS
 10
13.299653
 20
334.168945
 11
3.881283
 21
334.168945
  0
LINE
  8
0
  6
CONTINUOUS
 10
63.299648
 20
288.168945
 11
128.299652
 21
288.168945
  0
LINE
  8
0
  6
CONTINUOUS
 10
13.299653
 20
288.168945
 11
3.881283
 21
288.168945
  0
LINE
  8
0
  6
CONTINUOUS
 10
128.299652
 20
288.168945
 11
128.299652
 21
275.168945
  0
LINE
  8
0
  6
CONTINUOUS
 10
22.299652
 20
336.168945
 11
22.299652
 21
349.168945
  0
ARC
  8
0
  6
CONTINUOUS
 10
167.469162
 20
311.168945
 40
15.000000
 50
130.747620
 51
229.252380
  0
LINE
  8
0
  6
CONTINUOUS
 10
179.431351
 20
341.274963
 11
157.678238
 21
322.532837
  0
LINE
  8
0
  6
CONTINUOUS
 10
179.431351
 20
281.062958
 11
157.678238
 21
299.805084
  0
ARC
  8
0
  6
CONTINUOUS
 10
177.799530
 20
343.168915
 40
2.500000
 50
-49.252373
 51
0.000000
  0
ARC
  8
0
  6
CONTINUOUS
 10
177.799530
 20
353.119690
 40
2.500000
 50
-88.000000
 51
0.000000
  0
ARC
  8
0
  6
CONTINUOUS
 10
177.799530
 20
279.168976
 40
2.500000
 50
0.000000
 51
49.252373
  0
ARC
  8
0
  6
CONTINUOUS
 10
177.799530
 20
269.218231
 40
2.500000
 50
0.000000
 51
88.000000
  0
LINE
  8
0
  6
CONTINUOUS
 10
181.424606
 20
34.060688
 11
188.299530
 21
34.060688
  0
LINE
  8
0
  6
CONTINUOUS
 10
180.299530
 20
22.214687
 11
180.299530
 21
24.263952
  0
ARC
  8
0
  6
CONTINUOUS
 10
182.799530
 20
22.214687
 40
2.500000
 50
180.000000
 51
270.000000
  0
ARC
  8
0
  6
CONTINUOUS
 10
177.799530
 20
24.263952
 40
2.500000
 50
0.000000
 51
88.000000
  0
ARC
  8
0
  6
CONTINUOUS
 10
474.850006
 20
77.214691
 40
57.500000
 50
236.002823
 51
236.184402
  0
ARC
  8
0
  6
CONTINUOUS
 10
474.850006
 20
77.214691
 40
57.500000
 50
303.815582
 51
303.997162
  0
ARC
  8
0
  6
CONTINUOUS
 10
474.850006
 20
77.214691
 40
57.500000
 50
-33.997124
 51
19.823904
  0
ARC
  8
0
  6
CONTINUOUS
 10
474.850006
 20
77.214691
 40
57.500000
 50
160.176102
 51
213.997131
  0
LINE
  8
0
  6
CONTINUOUS
 10
12.299653
 20
318.668945
 11
13.299653
 21
318.668945
  0
ARC
  8
0
  6
CONTINUOUS
 10
12.299673
 20
317.668945
 40
1.000000
 50
90.000000
 51
180.000000
  0
LINE
  8
0
  6
CONTINUOUS
 10
7.799668
 20
315.168945
 11
7.799668
 21
307.168945
  0
LINE
  8
0
  6
CONTINUOUS
 10
7.799668
 20
315.168945
 11
11.299668
 21
316.668945
  0
LINE
  8
0
  6
CONTINUOUS
 10
7.799653
 20
307.168945
 11
11.299653
 21
305.668945
  0
LINE
  8
0
  6
CONTINUOUS
 10
11.299668
 20
317.668945
 11
11.299668
 21
304.668945
  0
LINE
  8
0
  6
CONTINUOUS
 10
12.299653
 20
303.668945
 11
13.299653
 21
303.668945
  0
ARC
  8
0
  6
CONTINUOUS
 10
12.299673
 20
304.668945
 40
1.000000
 50
-180.000000
 51
-90.000000
  0
LINE
  8
0
  6
CONTINUOUS
 10
13.299653
 20
288.168945
 11
13.299653
 21
334.168945
  0
LINE
  8
0
  6
CONTINUOUS
 10
15.299653
 20
336.168945
 11
13.299653
 21
334.168945
  0
LINE
  8
0
  6
CONTINUOUS
 10
15.299653
 20
336.168945
 11
61.299644
 21
336.168945
  0
LINE
  8
0
  6
CONTINUOUS
 10
55.799652
 20
331.668945
 11
55.799652
 21
336.168945
  0
ARC
  8
0
  6
CONTINUOUS
 10
58.799652
 20
331.668945
 40
3.000000
 50
180.000000
 51
270.000000
  0
LINE
  8
0
  6
CONTINUOUS
 10
58.799652
 20
328.668945
 11
63.299644
 21
328.668945
  0
CIRCLE
  8
0
  6
CONTINUOUS
 10
59.799652
 20
332.668945
 40
2.250000
  0
LINE
  8
0
  6
CONTINUOUS
 10
63.299648
 20
288.168945
 11
63.299644
 21
334.168945
  0
LINE
  8
0
  6
CONTINUOUS
 10
61.299644
 20
336.168945
 11
63.299644
 21
334.168945
  0
LINE
  8
0
  6
CONTINUOUS
 10
61.299648
 20
286.168945
 11
63.299648
 21
288.168945
  0
LINE
  8
0
  6
CONTINUOUS
 10
61.299648
 20
286.168945
 11
15.299653
 21
286.168945
  0
LINE
  8
0
  6
CONTINUOUS
 10
13.299653
 20
288.168945
 11
15.299653
 21
286.168945
  0
LINE
  8
0
  6
CONTINUOUS
 10
17.799652
 20
293.668945
 11
13.299663
 21
293.668945
  0
CIRCLE
  8
0
  6
CONTINUOUS
 10
16.799652
 20
289.668945
 40
2.250000
  0
ARC
  8
0
  6
CONTINUOUS
 10
17.799652
 20
290.668945
 40
3.000000
 50
0.000000
 51
90.000000
  0
LINE
  8
0
  6
CONTINUOUS
 10
20.799652
 20
290.668945
 11
20.799652
 21
286.168945
  0
LINE
  8
0
  6
CENTER
 10
38.299652
 20
278.703156
 11
38.299652
 21
342.835175
  0
LINE
  8
0
  6
CONTINUOUS
 10
15.713872
 20
335.168945
 11
14.299659
 21
333.754730
  0
LINE
  8
0
  6
CONTINUOUS
 10
14.299659
 20
293.668945
 11
14.299659
 21
333.754730
  0
LINE
  8
0
  6
CONTINUOUS
 10
55.799652
 20
335.168945
 11
15.713872
 21
335.168945
  0
LINE
  8
0
  6
CONTINUOUS
 10
62.299648
 20
328.668945
 11
62.299648
 21
288.583160
  0
LINE
  8
0
  6
CONTINUOUS
 10
20.799652
 20
287.168945
 11
60.885433
 21
287.168945
  0
LINE
  8
0
  6
CONTINUOUS
 10
60.885433
 20
287.168945
 11
62.299648
 21
288.583160
  0
LINE
  8
0
  6
CONTINUOUS
 10
14.799531
 20
105.714691
 11
61.299530
 21
105.714691
  0
LINE
  8
0
  6
CONTINUOUS
 10
63.299522
 20
135.714691
 11
63.299530
 21
107.714691
  0
LINE
  8
0
  6
CONTINUOUS
 10
13.299531
 20
135.714691
 11
13.299531
 21
107.714691
  0
LINE
  8
0
  6
CONTINUOUS
 10
11.299531
 20
117.714691
 11
63.299530
 21
117.714691
  0
LINE
  8
0
  6
CONTINUOUS
 10
61.299530
 20
105.714691
 11
63.299530
 21
107.714691
  0
LINE
  8
0
  6
CONTINUOUS
 10
13.299531
 20
107.714691
 11
15.299531
 21
105.714691
  0
LINE
  8
0
  6
CONTINUOUS
 10
13.299531
 20
107.714691
 11
63.299530
 21
107.714691
  0
LINE
  8
0
  6
CONTINUOUS
 10
14.299531
 20
136.714691
 11
62.299522
 21
136.714691
  0
LINE
  8
0
  6
CONTINUOUS
 10
62.299522
 20
136.714691
 11
63.299522
 21
135.714691
  0
LINE
  8
0
  6
CONTINUOUS
 10
14.299531
 20
136.714691
 11
13.299531
 21
135.714691
  0
LINE
  8
0
  6
CONTINUOUS
 10
13.299531
 20
135.714691
 11
63.299522
 21
135.714691
  0
LINE
  8
0
  6
CENTER
 10
5.355775
 20
127.214691
 11
17.430780
 21
127.214691
  0
LINE
  8
0
  6
CONTINUOUS
 10
11.299546
 20
133.714691
 11
11.299531
 21
117.714691
  0
LINE
  8
0
  6
CONTINUOUS
 10
12.299531
 20
134.714691
 11
13.299531
 21
134.714691
  0
ARC
  8
0
  6
CONTINUOUS
 10
12.299551
 20
133.714691
 40
1.000000
 50
90.000000
 51
180.000000
  0
LINE
  8
0
  6
CONTINUOUS
 10
7.799546
 20
131.214691
 11
7.799546
 21
123.214691
  0
LINE
  8
0
  6
CONTINUOUS
 10
7.799546
 20
131.214691
 11
11.299546
 21
132.714691
  0
LINE
  8
0
  6
CONTINUOUS
 10
7.799531
 20
123.214691
 11
11.299531
 21
121.714691
  0
LINE
  8
0
  6
CENTER
 10
38.299530
 20
101.020935
 11
38.299530
 21
142.102188
  0
LINE
  8
0
  6
CONTINUOUS
 10
14.799531
 20
105.714691
 11
14.799531
 21
104.214691
  0
LINE
  8
0
  6
CONTINUOUS
 10
60.799530
 20
105.714691
 11
60.799530
 21
104.214691
  0
LINE
  8
0
  6
CONTINUOUS
 10
136.299530
 20
56.814690
 11
180.299530
 21
56.814690
  0
LINE
  8
0
  6
CONTINUOUS
 10
136.299530
 20
46.614689
 11
180.299530
 21
46.614689
  0
TEXT
  8
0
 10
-10.000000
 20
-12.000000
 40
4.000000
 41
1.000000
  1
HLM-22T-300~900-T25WT
 50
0.000000
  0
ENDSEC
  0
EOF
