  0
SECTION
  2
HEADER
  9
$CLAYER
  8
1
  9
$LTSCALE
 40
3.0
  0
ENDSEC
  0
SECTION
  2
TABLES
  0
TABLE
  2
LTYPE
 70
     4
  0
LTYPE
  2
CONTINUOUS
  3
solid line
 70
    64
 72
    65
 73
     0
 40
0.0
  0
LTYPE
  2
DASHED
  3
__ __ __ __ __ __ __ __ __ __ __ __ __ __ __
 70
    64
 72
    65
 73
     2
 40
0.75
 49
0.5
 49
-0.25
  0
LTYPE
  2
CENTER
  3
____ _ ____ _ ____ _ ____ _ ____ _ ____ _ ____
 70
    64
 72
    65
 73
     4
 40
2.0
 49
1.25
 49
-0.25
 49
0.25
 49
-0.25
  0
LTYPE
  2
PHANTOM
  3
_____ _ _ _____ _ _ _____ _ _ _____ _ _ ____
 70
    64
 72
    65
 73
     6
 40
2.5
 49
1.25
 49
-0.25
 49
0.25
 49
-0.25
 49
0.25
 49
-0.25
  0
ENDTAB
  0
TABLE
  2
LAYER
 70
     1
  0
LAYER
  2
0
 70
    64
 62
     7
  6
CONTINUOUS
  0
ENDTAB
  0
TABLE
  2
STYLE
 70
     1
  0
STYLE
  2
STANDARD
 70
     0
 40
0.000000
 41
1.000000
 50
0.000000
 71
     0
 42
3.000000
  3
txt
  4
BIGFONT
  0
ENDTAB
  0
ENDSEC
  0
SECTION
  2
BLOCKS
  0
ENDSEC
  0
SECTION
  2
ENTITIES
  0
LINE
  8
0
  6
CENTER
 10
139.912506
 20
81.219688
 11
256.924530
 21
81.219688
  0
LINE
  8
0
  6
CENTER
 10
288.924530
 20
163.969681
 11
288.924530
 21
0.469687
  0
LINE
  8
0
  6
CENTER
 10
242.354126
 20
111.719688
 11
336.427490
 21
111.719688
  0
LINE
  8
0
  6
CONTINUOUS
 10
235.924530
 20
6.719687
 11
341.924530
 21
6.719687
  0
LINE
  8
0
  6
CONTINUOUS
 10
270.495117
 20
156.719681
 11
307.353943
 21
156.719681
  0
LINE
  8
0
  6
CONTINUOUS
 10
341.924530
 20
131.109924
 11
341.924530
 21
6.719708
  0
LINE
  8
0
  6
CONTINUOUS
 10
235.924530
 20
31.719687
 11
235.924530
 21
6.719687
  0
LINE
  8
0
  6
CONTINUOUS
 10
224.174530
 20
138.469681
 11
241.797531
 21
138.469681
  0
LINE
  8
0
  6
CONTINUOUS
 10
224.174530
 20
23.969687
 11
230.924545
 21
23.969687
  0
LINE
  8
0
  6
CONTINUOUS
 10
232.174530
 20
35.719688
 11
232.174530
 21
126.719688
  0
LINE
  8
0
  6
CONTINUOUS
 10
339.783539
 20
135.211929
 11
310.212921
 21
155.821671
  0
LINE
  8
0
  6
CONTINUOUS
 10
238.065536
 20
135.211929
 11
267.636139
 21
155.821671
  0
LINE
  8
0
  6
CONTINUOUS
 10
269.862946
 20
18.719687
 11
235.924530
 21
18.719687
  0
LINE
  8
0
  6
CONTINUOUS
 10
275.486145
 20
28.719687
 11
302.362946
 21
28.719687
  0
LINE
  8
0
  6
CONTINUOUS
 10
303.924530
 20
27.282187
 11
303.924530
 21
19.719687
  0
LINE
  8
0
  6
CONTINUOUS
 10
273.924530
 20
27.094687
 11
273.924530
 21
19.719687
  0
LINE
  8
0
  6
CONTINUOUS
 10
271.803345
 20
20.234608
 11
273.545746
 21
27.204767
  0
LINE
  8
0
  6
CONTINUOUS
 10
306.045746
 20
20.234608
 11
304.303345
 21
27.204748
  0
LINE
  8
0
  6
CONTINUOUS
 10
241.924530
 20
17.657187
 11
241.924530
 21
6.719687
  0
LINE
  8
0
  6
CONTINUOUS
 10
335.924530
 20
17.657187
 11
335.924530
 21
6.719687
  0
LINE
  8
0
  6
CENTER
 10
253.924530
 20
22.469687
 11
253.924530
 21
2.469687
  0
LINE
  8
0
  6
CENTER
 10
323.924530
 20
23.469687
 11
323.924530
 21
2.969687
  0
LINE
  8
0
  6
DASHED
 10
248.424530
 20
18.719687
 11
248.424530
 21
6.719687
  0
LINE
  8
0
  6
DASHED
 10
259.424530
 20
18.719687
 11
259.424530
 21
6.719687
  0
LINE
  8
0
  6
DASHED
 10
318.424530
 20
18.719687
 11
318.424530
 21
6.719687
  0
LINE
  8
0
  6
DASHED
 10
329.424530
 20
18.719687
 11
329.424530
 21
6.719687
  0
ARC
  8
0
  6
CONTINUOUS
 10
307.353943
 20
151.719681
 40
5.000000
 50
55.124809
 51
90.000000
  0
ARC
  8
0
  6
CONTINUOUS
 10
270.495117
 20
151.719681
 40
5.000000
 50
90.000000
 51
124.875603
  0
ARC
  8
0
  6
CONTINUOUS
 10
336.924530
 20
131.109924
 40
5.000000
 50
0.000000
 51
55.124851
  0
ARC
  8
0
  6
CONTINUOUS
 10
240.924530
 20
131.109940
 40
5.000000
 50
124.875702
 51
180.000000
  0
LINE
  8
0
  6
CONTINUOUS
 10
224.174530
 20
128.719681
 11
233.924530
 21
128.719681
  0
LINE
  8
0
  6
CONTINUOUS
 10
230.174530
 20
33.719688
 11
224.174530
 21
33.719688
  0
LINE
  8
0
  6
CONTINUOUS
 10
224.174530
 20
113.179688
 11
231.049530
 21
113.179688
  0
LINE
  8
0
  6
CONTINUOUS
 10
224.174530
 20
49.259689
 11
231.174530
 21
49.259689
  0
ARC
  8
0
  6
CONTINUOUS
 10
241.797333
 20
141.469681
 40
3.000000
 50
270.000000
 51
304.875397
  0
ARC
  8
0
  6
CONTINUOUS
 10
230.174545
 20
126.719688
 40
2.000000
 50
0.000000
 51
90.000000
  0
ARC
  8
0
  6
CONTINUOUS
 10
233.924530
 20
130.719681
 40
2.000000
 50
-90.000000
 51
0.000000
  0
LINE
  8
0
  6
CONTINUOUS
 10
235.924545
 20
131.109940
 11
235.924530
 21
130.719681
  0
ARC
  8
0
  6
CONTINUOUS
 10
233.924530
 20
31.719687
 40
2.000000
 50
0.000000
 51
90.000000
  0
LINE
  8
0
  6
CONTINUOUS
 10
230.174530
 20
33.719688
 11
233.924530
 21
33.719688
  0
ARC
  8
0
  6
CONTINUOUS
 10
230.174530
 20
35.719688
 40
2.000000
 50
-90.000000
 51
0.000000
  0
ARC
  8
0
  6
CONTINUOUS
 10
230.924545
 20
18.969667
 40
5.000000
 50
0.000000
 51
90.000000
  0
ARC
  8
0
  6
CONTINUOUS
 10
302.362946
 20
26.719687
 40
2.000000
 50
14.036440
 51
90.000000
  0
ARC
  8
0
  6
CONTINUOUS
 10
275.486145
 20
26.719687
 40
2.000000
 50
90.000000
 51
165.963898
  0
LINE
  8
0
  6
CONTINUOUS
 10
307.986145
 20
18.719687
 11
341.924530
 21
18.719687
  0
ARC
  8
0
  6
CONTINUOUS
 10
269.862946
 20
20.719687
 40
2.000000
 50
270.000000
 51
345.963715
  0
LINE
  8
0
  6
CONTINUOUS
 10
307.986145
 20
18.719687
 11
269.862946
 21
18.719687
  0
ARC
  8
0
  6
CONTINUOUS
 10
307.986145
 20
20.719687
 40
2.000000
 50
194.036194
 51
270.000000
  0
ARC
  8
0
  6
CONTINUOUS
 10
272.924530
 20
19.719687
 40
1.000000
 50
-90.000000
 51
0.000000
  0
ARC
  8
0
  6
CONTINUOUS
 10
304.924530
 20
19.719687
 40
1.000000
 50
180.000000
 51
270.000000
  0
CIRCLE
  8
0
  6
CONTINUOUS
 10
288.924530
 20
111.719688
 40
27.500000
  0
ARC
  8
0
  6
CONTINUOUS
 10
288.924530
 20
111.719688
 40
31.750000
 50
7.552697
 51
172.447403
  0
ARC
  8
0
  6
CONTINUOUS
 10
272.174530
 20
70.219688
 40
20.600000
 50
172.447403
 51
270.000000
  0
ARC
  8
0
  6
CONTINUOUS
 10
305.674530
 20
70.219688
 40
20.600000
 50
-90.000000
 51
7.552700
  0
LINE
  8
0
  6
CONTINUOUS
 10
320.399139
 20
115.892845
 11
326.095734
 21
72.927315
  0
LINE
  8
0
  6
CONTINUOUS
 10
251.753326
 20
72.927277
 11
257.449921
 21
115.892792
  0
LINE
  8
0
  6
CONTINUOUS
 10
272.174530
 20
49.619686
 11
305.674530
 21
49.619686
  0
ARC
  8
0
  6
CONTINUOUS
 10
272.174530
 20
70.219688
 40
19.000000
 50
172.447601
 51
270.000000
  0
ARC
  8
0
  6
CONTINUOUS
 10
305.674530
 20
70.219688
 40
19.000000
 50
-90.000000
 51
7.552700
  0
ARC
  8
0
  6
CONTINUOUS
 10
288.924530
 20
111.719688
 40
30.150000
 50
-187.552597
 51
7.552697
  0
LINE
  8
0
  6
CONTINUOUS
 10
253.339325
 20
72.716980
 11
259.036133
 21
115.682510
  0
LINE
  8
0
  6
CONTINUOUS
 10
318.812927
 20
115.682549
 11
324.509735
 21
72.717010
  0
LINE
  8
0
  6
CONTINUOUS
 10
272.174530
 20
51.219688
 11
305.674530
 21
51.219688
  0
LINE
  8
0
  6
CONTINUOUS
 10
278.628143
 20
58.719688
 11
274.467743
 21
58.719688
  0
LINE
  8
0
  6
CONTINUOUS
 10
280.924530
 20
65.688438
 11
280.924530
 21
58.719688
  0
LINE
  8
0
  6
CONTINUOUS
 10
284.924530
 20
68.219688
 11
284.924530
 21
70.719688
  0
LINE
  8
0
  6
CONTINUOUS
 10
292.924530
 20
68.219688
 11
292.924530
 21
70.719688
  0
LINE
  8
0
  6
CONTINUOUS
 10
288.143341
 20
69.250938
 11
288.143341
 21
60.032188
  0
LINE
  8
0
  6
CONTINUOUS
 10
289.643341
 20
69.250938
 11
289.643341
 21
60.032188
  0
LINE
  8
0
  6
CONTINUOUS
 10
297.518341
 20
69.250938
 11
297.518341
 21
59.969688
  0
LINE
  8
0
  6
CONTINUOUS
 10
298.893341
 20
64.329063
 11
298.893341
 21
59.969688
  0
LINE
  8
0
  6
CONTINUOUS
 10
279.026520
 20
69.125938
 11
275.171539
 21
69.125938
  0
LINE
  8
0
  6
CONTINUOUS
 10
275.171539
 20
69.125938
 11
274.268341
 21
68.005936
  0
LINE
  8
0
  6
CONTINUOUS
 10
274.376923
 20
70.719688
 11
272.924530
 21
68.859924
  0
LINE
  8
0
  6
CONTINUOUS
 10
274.268341
 20
61.092609
 11
275.185944
 21
60.125927
  0
LINE
  8
0
  6
CONTINUOUS
 10
272.924530
 20
60.276848
 11
274.467743
 21
58.719688
  0
LINE
  8
0
  6
CONTINUOUS
 10
272.924530
 20
68.859924
 11
272.924530
 21
60.276848
  0
LINE
  8
0
  6
CONTINUOUS
 10
274.268341
 20
68.005936
 11
274.268341
 21
61.092609
  0
LINE
  8
0
  6
CONTINUOUS
 10
279.768341
 20
68.408829
 11
279.011322
 21
69.125938
  0
LINE
  8
0
  6
CONTINUOUS
 10
279.756317
 20
70.719688
 11
280.924530
 21
69.423195
  0
LINE
  8
0
  6
CONTINUOUS
 10
279.768341
 20
68.219688
 11
280.924530
 21
68.219688
  0
LINE
  8
0
  6
CONTINUOUS
 10
274.376923
 20
70.719688
 11
279.756317
 21
70.719688
  0
LINE
  8
0
  6
CONTINUOUS
 10
277.674530
 20
65.688438
 11
280.924530
 21
65.688438
  0
LINE
  8
0
  6
CONTINUOUS
 10
279.768341
 20
64.375938
 11
277.674530
 21
64.375938
  0
LINE
  8
0
  6
CONTINUOUS
 10
277.268341
 20
60.125927
 11
275.185944
 21
60.125927
  0
LINE
  8
0
  6
CONTINUOUS
 10
279.768341
 20
63.125938
 11
279.768341
 21
64.125938
  0
ARC
  8
0
  6
CONTINUOUS
 10
277.268341
 20
62.625931
 40
2.500000
 50
-89.999786
 51
0.000109
  0
LINE
  8
0
  6
CONTINUOUS
 10
279.768341
 20
59.676247
 11
279.768341
 21
58.719688
  0
LINE
  8
0
  6
CONTINUOUS
 10
280.924530
 20
69.423195
 11
280.924530
 21
68.219688
  0
LINE
  8
0
  6
CONTINUOUS
 10
279.768341
 20
64.375938
 11
279.768341
 21
62.625935
  0
LINE
  8
0
  6
CONTINUOUS
 10
277.674530
 20
65.688438
 11
277.674530
 21
64.375938
  0
LINE
  8
0
  6
CONTINUOUS
 10
279.768341
 20
58.719688
 11
280.924530
 21
58.719688
  0
LINE
  8
0
  6
CONTINUOUS
 10
279.768341
 20
59.676247
 11
278.628143
 21
58.719688
  0
LINE
  8
0
  6
CONTINUOUS
 10
289.643341
 20
60.032188
 11
290.143341
 21
60.032188
  0
LINE
  8
0
  6
CONTINUOUS
 10
287.549530
 20
60.032188
 11
287.549530
 21
58.719688
  0
LINE
  8
0
  6
CONTINUOUS
 10
290.143341
 20
60.032188
 11
290.143341
 21
58.719688
  0
LINE
  8
0
  6
CONTINUOUS
 10
292.090118
 20
68.219688
 11
292.924530
 21
68.219688
  0
LINE
  8
0
  6
CONTINUOUS
 10
284.924530
 20
68.219688
 11
285.812531
 21
68.219688
  0
LINE
  8
0
  6
CONTINUOUS
 10
284.924530
 20
70.719688
 11
292.924530
 21
70.719688
  0
LINE
  8
0
  6
CONTINUOUS
 10
287.549530
 20
58.719688
 11
290.143341
 21
58.719688
  0
LINE
  8
0
  6
CONTINUOUS
 10
287.549530
 20
60.032188
 11
288.143341
 21
60.032188
  0
ARC
  8
0
  6
CONTINUOUS
 10
301.721527
 20
67.516563
 40
3.203126
 50
-73.981873
 51
90.003510
  0
ARC
  8
0
  6
CONTINUOUS
 10
301.721527
 20
67.516563
 40
1.954125
 50
-82.585274
 51
62.411850
  0
LINE
  8
0
  6
CONTINUOUS
 10
296.924530
 20
70.719688
 11
301.721527
 21
70.719688
  0
LINE
  8
0
  6
CONTINUOUS
 10
301.973541
 20
65.578781
 11
298.893341
 21
65.578781
  0
LINE
  8
0
  6
CONTINUOUS
 10
296.924530
 20
70.719688
 11
296.924530
 21
69.250938
  0
LINE
  8
0
  6
CONTINUOUS
 10
298.893341
 20
69.250938
 11
298.893341
 21
65.578781
  0
LINE
  8
0
  6
CONTINUOUS
 10
302.605316
 20
64.437798
 11
304.587738
 21
59.969688
  0
LINE
  8
0
  6
CONTINUOUS
 10
301.453735
 20
64.329063
 11
303.329926
 21
59.969688
  0
LINE
  8
0
  6
CONTINUOUS
 10
296.924530
 20
59.969688
 11
297.518341
 21
59.969688
  0
LINE
  8
0
  6
CONTINUOUS
 10
298.893341
 20
59.969688
 11
299.440125
 21
59.969688
  0
LINE
  8
0
  6
CONTINUOUS
 10
299.440125
 20
58.719688
 11
296.924530
 21
58.719688
  0
LINE
  8
0
  6
CONTINUOUS
 10
303.080719
 20
59.969688
 11
303.329926
 21
59.969688
  0
LINE
  8
0
  6
CONTINUOUS
 10
304.587738
 20
59.969688
 11
304.924530
 21
59.969688
  0
LINE
  8
0
  6
CONTINUOUS
 10
303.080719
 20
58.719688
 11
304.924530
 21
58.719688
  0
LINE
  8
0
  6
CONTINUOUS
 10
304.924530
 20
59.969688
 11
304.924530
 21
58.719688
  0
LINE
  8
0
  6
CONTINUOUS
 10
303.080719
 20
59.969688
 11
303.080719
 21
58.719688
  0
LINE
  8
0
  6
CONTINUOUS
 10
299.440125
 20
59.969688
 11
299.440125
 21
58.719688
  0
LINE
  8
0
  6
CONTINUOUS
 10
296.924530
 20
59.969688
 11
296.924530
 21
58.719688
  0
LINE
  8
0
  6
CONTINUOUS
 10
286.242340
 20
69.250938
 11
285.812531
 21
68.219688
  0
LINE
  8
0
  6
CONTINUOUS
 10
291.727722
 20
69.250938
 11
292.090118
 21
68.219688
  0
LINE
  8
0
  6
CONTINUOUS
 10
289.643341
 20
69.250938
 11
291.727722
 21
69.250938
  0
LINE
  8
0
  6
CONTINUOUS
 10
288.143341
 20
69.250938
 11
286.242340
 21
69.250938
  0
LINE
  8
0
  6
CONTINUOUS
 10
298.893341
 20
64.329063
 11
301.453735
 21
64.329063
  0
LINE
  8
0
  6
CONTINUOUS
 10
296.924530
 20
69.250938
 11
297.518341
 21
69.250938
  0
LINE
  8
0
  6
CONTINUOUS
 10
298.893341
 20
69.250938
 11
302.626343
 21
69.248505
  0
LINE
  8
0
  6
CONTINUOUS
 10
279.768341
 20
68.408829
 11
279.768341
 21
68.219688
  0
LINE
  8
0
  6
CONTINUOUS
 10
224.174545
 20
138.719681
 11
224.174530
 21
23.719687
  0
LINE
  8
0
  6
CONTINUOUS
 10
58.174530
 20
108.219666
 11
172.174530
 21
108.219666
  0
LINE
  8
0
  6
CONTINUOUS
 10
58.174530
 20
32.219707
 11
172.174530
 21
32.219707
  0
LINE
  8
0
  6
CONTINUOUS
 10
58.174530
 20
100.468666
 11
164.174530
 21
100.468666
  0
LINE
  8
0
  6
CONTINUOUS
 10
58.174530
 20
39.970707
 11
164.174530
 21
39.970707
  0
LINE
  8
0
  6
CONTINUOUS
 10
164.174530
 20
106.219666
 11
164.174530
 21
34.219688
  0
ARC
  8
0
  6
CONTINUOUS
 10
166.174530
 20
106.219688
 40
2.000000
 50
90.000000
 51
180.000000
  0
ARC
  8
0
  6
CONTINUOUS
 10
166.174530
 20
34.219707
 40
2.000000
 50
180.000000
 51
270.000000
  0
LINE
  8
0
  6
CENTER
 10
533.674561
 20
-8.905333
 11
533.674561
 21
170.644684
  0
LINE
  8
0
  6
CENTER
 10
463.449524
 20
81.219688
 11
602.574524
 21
81.219688
  0
LINE
  8
0
  6
CENTER
 10
431.924530
 20
111.719688
 11
636.924561
 21
111.719688
  0
LINE
  8
0
  6
CONTINUOUS
 10
475.674530
 20
6.719687
 11
508.674530
 21
6.719687
  0
LINE
  8
0
  6
CONTINUOUS
 10
475.674530
 20
17.346087
 11
475.674530
 21
6.719687
  0
LINE
  8
0
  6
CONTINUOUS
 10
591.674561
 20
17.346087
 11
591.674561
 21
6.719687
  0
LINE
  8
0
  6
CONTINUOUS
 10
477.674530
 20
18.719687
 11
498.674530
 21
18.719687
  0
LINE
  8
0
  6
CONTINUOUS
 10
589.674561
 20
18.719687
 11
568.674561
 21
18.719687
  0
LINE
  8
0
  6
CONTINUOUS
 10
501.674530
 20
30.093288
 11
501.674530
 21
154.195602
  0
LINE
  8
0
  6
CONTINUOUS
 10
565.674561
 20
30.093288
 11
565.674561
 21
154.195969
  0
LINE
  8
0
  6
CONTINUOUS
 10
563.709351
 20
156.195663
 11
533.674561
 21
156.719681
  0
LINE
  8
0
  6
CONTINUOUS
 10
503.639526
 20
156.195328
 11
533.674561
 21
156.719681
  0
ARC
  8
0
  6
CONTINUOUS
 10
503.674530
 20
154.195633
 40
2.000000
 50
91.000580
 51
180.000000
  0
ARC
  8
0
  6
CONTINUOUS
 10
563.674561
 20
154.195969
 40
2.000000
 50
0.000000
 51
89.000519
  0
LINE
  8
0
  6
CONTINUOUS
 10
565.674561
 20
21.719687
 11
565.674561
 21
6.719687
  0
ARC
  8
0
  6
CONTINUOUS
 10
568.674561
 20
21.719687
 40
3.000000
 50
180.000000
 51
270.000000
  0
LINE
  8
0
  6
CONTINUOUS
 10
501.674530
 20
21.719687
 11
501.674530
 21
6.719687
  0
ARC
  8
0
  6
CONTINUOUS
 10
498.674530
 20
21.719667
 40
3.000000
 50
-90.000000
 51
0.000000
  0
ARC
  8
0
  6
CONTINUOUS
 10
477.674530
 20
16.719687
 40
2.000000
 50
90.000000
 51
180.000000
  0
ARC
  8
0
  6
CONTINUOUS
 10
589.674561
 20
16.719687
 40
2.000000
 50
0.000000
 51
90.000000
  0
LINE
  8
0
  6
CENTER
 10
488.674530
 20
23.009687
 11
488.674530
 21
2.609688
  0
LINE
  8
0
  6
CENTER
 10
578.674561
 20
24.029688
 11
578.674561
 21
2.099687
  0
LINE
  8
0
  6
CONTINUOUS
 10
500.392517
 20
28.226608
 11
476.956543
 21
19.212788
  0
ARC
  8
0
  6
CONTINUOUS
 10
477.674530
 20
17.346107
 40
2.000000
 50
111.037903
 51
180.000000
  0
LINE
  8
0
  6
CONTINUOUS
 10
501.674530
 20
30.093288
 11
501.674530
 21
21.719687
  0
ARC
  8
0
  6
CONTINUOUS
 10
499.674530
 20
30.093288
 40
2.000000
 50
-68.962189
 51
0.000000
  0
LINE
  8
0
  6
CONTINUOUS
 10
566.956543
 20
28.226587
 11
590.392517
 21
19.212788
  0
ARC
  8
0
  6
CONTINUOUS
 10
589.674561
 20
17.346087
 40
2.000000
 50
0.000000
 51
68.962646
  0
LINE
  8
0
  6
CONTINUOUS
 10
565.674561
 20
30.093288
 11
565.674561
 21
21.719687
  0
ARC
  8
0
  6
CONTINUOUS
 10
567.674561
 20
30.093307
 40
2.000000
 50
180.000000
 51
248.962799
  0
LINE
  8
0
  6
CONTINUOUS
 10
485.674530
 20
86.526840
 11
485.674530
 21
136.912521
  0
LINE
  8
0
  6
CONTINUOUS
 10
581.674561
 20
86.526840
 11
581.674561
 21
136.912521
  0
LINE
  8
0
  6
CONTINUOUS
 10
571.674561
 20
53.524529
 11
571.674561
 21
113.789688
  0
LINE
  8
0
  6
CONTINUOUS
 10
495.674530
 20
53.524529
 11
495.674530
 21
113.789688
  0
LINE
  8
0
  6
CONTINUOUS
 10
579.444702
 20
139.811981
 11
567.904358
 21
142.877380
  0
LINE
  8
0
  6
CONTINUOUS
 10
579.444702
 20
83.627388
 11
573.904358
 21
82.155731
  0
LINE
  8
0
  6
CONTINUOUS
 10
569.447510
 20
50.625828
 11
567.901550
 21
50.213547
  0
LINE
  8
0
  6
CONTINUOUS
 10
497.901520
 20
50.625809
 11
499.447540
 21
50.213547
  0
LINE
  8
0
  6
CONTINUOUS
 10
487.904327
 20
83.627380
 11
493.444733
 21
82.155731
  0
LINE
  8
0
  6
CONTINUOUS
 10
487.904327
 20
139.811981
 11
499.444733
 21
142.877380
  0
ARC
  8
0
  6
CONTINUOUS
 10
488.674530
 20
136.912552
 40
3.000000
 50
104.876099
 51
180.000000
  0
ARC
  8
0
  6
CONTINUOUS
 10
488.674530
 20
86.526855
 40
3.000000
 50
180.000000
 51
255.124603
  0
ARC
  8
0
  6
CONTINUOUS
 10
578.674561
 20
136.912521
 40
3.000000
 50
0.000000
 51
75.124413
  0
ARC
  8
0
  6
CONTINUOUS
 10
578.674561
 20
86.526833
 40
3.000000
 50
-75.124207
 51
0.000000
  0
ARC
  8
0
  6
CONTINUOUS
 10
498.674530
 20
53.524548
 40
3.000000
 50
180.000000
 51
255.069000
  0
ARC
  8
0
  6
CONTINUOUS
 10
568.674561
 20
53.524529
 40
3.000000
 50
-75.068420
 51
0.000000
  0
ARC
  8
0
  6
CONTINUOUS
 10
568.674561
 20
145.776871
 40
3.000000
 50
180.000000
 51
255.124603
  0
ARC
  8
0
  6
CONTINUOUS
 10
574.674561
 20
79.256294
 40
3.000000
 50
104.876099
 51
180.000000
  0
ARC
  8
0
  6
CONTINUOUS
 10
568.674561
 20
47.314869
 40
3.000000
 50
104.931801
 51
180.000000
  0
ARC
  8
0
  6
CONTINUOUS
 10
498.674530
 20
47.314850
 40
3.000000
 50
0.000000
 51
75.068779
  0
ARC
  8
0
  6
CONTINUOUS
 10
492.674530
 20
79.256271
 40
3.000000
 50
0.000000
 51
75.124496
  0
ARC
  8
0
  6
CONTINUOUS
 10
498.674530
 20
145.776825
 40
3.000000
 50
-75.124153
 51
0.000000
  0
LINE
  8
0
  6
DASHED
 10
483.174530
 20
18.719687
 11
483.174530
 21
6.719687
  0
LINE
  8
0
  6
DASHED
 10
494.174530
 20
18.719687
 11
494.174530
 21
6.719687
  0
LINE
  8
0
  6
DASHED
 10
573.174561
 20
18.719687
 11
573.174561
 21
6.719687
  0
LINE
  8
0
  6
DASHED
 10
584.174561
 20
18.719687
 11
584.174561
 21
6.719687
  0
LINE
  8
0
  6
CONTINUOUS
 10
503.904541
 20
133.719681
 11
563.574524
 21
133.719681
  0
LINE
  8
0
  6
CONTINUOUS
 10
486.174530
 20
38.719688
 11
486.174530
 21
47.771027
  0
LINE
  8
0
  6
CONTINUOUS
 10
581.174561
 20
38.719688
 11
581.174561
 21
47.771027
  0
LINE
  8
0
  6
CONTINUOUS
 10
491.174530
 20
33.719688
 11
500.205719
 21
33.719688
  0
LINE
  8
0
  6
CONTINUOUS
 10
576.174561
 20
33.719688
 11
567.123108
 21
33.719688
  0
ARC
  8
0
  6
CONTINUOUS
 10
533.674561
 20
81.219688
 40
57.250000
 50
-32.501888
 51
19.914110
  0
ARC
  8
0
  6
CONTINUOUS
 10
533.674561
 20
81.219688
 40
57.250000
 50
160.085907
 51
212.501907
  0
ARC
  8
0
  6
CONTINUOUS
 10
491.174530
 20
38.719688
 40
5.000000
 50
180.000000
 51
270.000000
  0
ARC
  8
0
  6
CONTINUOUS
 10
576.174561
 20
38.719688
 40
5.000000
 50
-90.000000
 51
0.000000
  0
ARC
  8
0
  6
CONTINUOUS
 10
500.225922
 20
28.719687
 40
5.000000
 50
73.928284
 51
90.230461
  0
ARC
  8
0
  6
CONTINUOUS
 10
567.123108
 20
28.719687
 40
5.000000
 50
90.000000
 51
106.071800
  0
ARC
  8
0
  6
CONTINUOUS
 10
481.174530
 20
47.771027
 40
5.000000
 50
0.000000
 51
32.499691
  0
ARC
  8
0
  6
CONTINUOUS
 10
586.174561
 20
47.771027
 40
5.000000
 50
147.498306
 51
180.000000
  0
LINE
  8
0
  6
CONTINUOUS
 10
567.674561
 20
32.219688
 11
565.674561
 21
32.219688
  0
LINE
  8
0
  6
CONTINUOUS
 10
499.674530
 20
32.219688
 11
501.674530
 21
32.219688
  0
ARC
  8
0
  6
CONTINUOUS
 10
567.674561
 20
36.219688
 40
4.000000
 50
270.000000
 51
322.311005
  0
ARC
  8
0
  6
CONTINUOUS
 10
499.674530
 20
36.219688
 40
4.000000
 50
218.645996
 51
270.000000
  0
LINE
  8
0
  6
CONTINUOUS
 10
296.424530
 20
108.719711
 11
296.424530
 21
114.719711
  0
LINE
  8
0
  6
CONTINUOUS
 10
302.424530
 20
108.719727
 11
302.424530
 21
114.719727
  0
LINE
  8
0
  6
CONTINUOUS
 10
302.424530
 20
108.719727
 11
296.424530
 21
108.719711
  0
LINE
  8
0
  6
CONTINUOUS
 10
302.424530
 20
114.719727
 11
296.424530
 21
114.719711
  0
ARC
  8
0
  6
CONTINUOUS
 10
288.924530
 20
111.719688
 40
11.000000
 50
15.826600
 51
344.173401
  0
LINE
  8
0
  6
CONTINUOUS
 10
443.674530
 20
100.719688
 11
443.674530
 21
122.719688
  0
LINE
  8
0
  6
CONTINUOUS
 10
483.674530
 20
122.719688
 11
443.674530
 21
122.719688
  0
LINE
  8
0
  6
CONTINUOUS
 10
483.674530
 20
100.719688
 11
443.674530
 21
100.719688
  0
LINE
  8
0
  6
CONTINUOUS
 10
483.674530
 20
124.219688
 11
483.674530
 21
99.219688
  0
LINE
  8
0
  6
CONTINUOUS
 10
485.674530
 20
124.219688
 11
483.674530
 21
124.219688
  0
LINE
  8
0
  6
CONTINUOUS
 10
485.674530
 20
99.219688
 11
483.674530
 21
99.219688
  0
ARC
  8
0
  6
CONTINUOUS
 10
475.674530
 20
111.719688
 40
3.000000
 50
-90.000000
 51
90.000000
  0
LINE
  8
0
  6
CONTINUOUS
 10
475.674530
 20
114.719688
 11
443.674530
 21
114.719688
  0
LINE
  8
0
  6
CONTINUOUS
 10
475.674530
 20
108.719688
 11
443.674530
 21
108.719688
  0
LINE
  8
0
  6
CONTINUOUS
 10
623.674561
 20
100.719688
 11
623.674561
 21
122.719688
  0
LINE
  8
0
  6
CONTINUOUS
 10
583.674561
 20
122.719688
 11
623.674561
 21
122.719688
  0
LINE
  8
0
  6
CONTINUOUS
 10
583.674561
 20
100.719688
 11
623.674561
 21
100.719688
  0
LINE
  8
0
  6
CONTINUOUS
 10
583.674561
 20
124.219688
 11
583.674561
 21
99.219688
  0
LINE
  8
0
  6
CONTINUOUS
 10
581.674561
 20
124.219688
 11
583.674561
 21
124.219688
  0
LINE
  8
0
  6
CONTINUOUS
 10
581.674561
 20
99.219688
 11
583.674561
 21
99.219688
  0
ARC
  8
0
  6
CONTINUOUS
 10
591.674561
 20
111.719688
 40
3.000000
 50
90.000000
 51
270.000000
  0
LINE
  8
0
  6
CONTINUOUS
 10
591.674561
 20
114.719688
 11
623.674561
 21
114.719688
  0
LINE
  8
0
  6
CONTINUOUS
 10
591.674561
 20
108.719688
 11
623.674561
 21
108.719688
  0
LINE
  8
0
  6
CENTER
 10
-14.332500
 20
70.219688
 11
256.924530
 21
70.219688
  0
LINE
  8
0
  6
CONTINUOUS
 10
213.761780
 20
109.671944
 11
172.174530
 21
108.219688
  0
LINE
  8
0
  6
CONTINUOUS
 10
224.174530
 20
30.403809
 11
172.174530
 21
32.219688
  0
LINE
  8
0
  6
CONTINUOUS
 10
216.174530
 20
137.719681
 11
216.174530
 21
110.719688
  0
LINE
  8
0
  6
CONTINUOUS
 10
217.174530
 20
138.719681
 11
224.174545
 21
138.719681
  0
LINE
  8
0
  6
CONTINUOUS
 10
218.674530
 20
23.719687
 11
224.174530
 21
23.719687
  0
LINE
  8
0
  6
CONTINUOUS
 10
216.174530
 20
111.219688
 11
216.174530
 21
40.307030
  0
LINE
  8
0
  6
CONTINUOUS
 10
172.174530
 20
108.219688
 11
172.174530
 21
32.219688
  0
LINE
  8
0
  6
CONTINUOUS
 10
214.761398
 20
121.537491
 11
188.817978
 21
109.013077
  0
LINE
  8
0
  6
CENTER
 10
288.924530
 20
420.285645
 11
288.924530
 21
223.860001
  0
LINE
  8
0
  6
CENTER
 10
-14.332500
 20
324.083954
 11
358.263977
 21
324.083954
  0
LINE
  8
0
  6
CONTINUOUS
 10
237.706512
 20
356.083954
 11
336.452484
 21
356.083954
  0
LINE
  8
0
  6
CONTINUOUS
 10
237.706512
 20
292.083954
 11
336.452484
 21
292.083954
  0
LINE
  8
0
  6
CONTINUOUS
 10
331.862640
 20
382.083954
 11
302.424530
 21
382.083954
  0
LINE
  8
0
  6
CONTINUOUS
 10
245.986435
 20
266.083954
 11
277.924530
 21
266.083954
  0
LINE
  8
0
  6
CONTINUOUS
 10
341.924530
 20
324.083954
 11
341.365967
 21
356.083954
  0
LINE
  8
0
  6
CONTINUOUS
 10
336.756592
 20
378.108185
 11
341.365967
 21
356.083954
  0
ARC
  8
0
  6
CONTINUOUS
 10
331.862640
 20
377.083954
 40
5.000000
 50
11.820596
 51
90.000000
  0
LINE
  8
0
  6
CONTINUOUS
 10
341.924530
 20
324.083954
 11
341.365967
 21
292.083954
  0
LINE
  8
0
  6
CONTINUOUS
 10
336.756592
 20
270.059723
 11
341.365967
 21
292.083954
  0
ARC
  8
0
  6
CONTINUOUS
 10
331.862640
 20
271.083954
 40
5.000000
 50
-90.000000
 51
-11.820596
  0
LINE
  8
0
  6
CONTINUOUS
 10
308.924530
 20
294.083954
 11
308.924530
 21
354.083954
  0
LINE
  8
0
  6
CONTINUOUS
 10
268.924530
 20
294.083954
 11
268.924530
 21
354.083954
  0
ARC
  8
0
  6
CONTINUOUS
 10
336.452484
 20
351.083954
 40
5.000000
 50
1.000000
 51
90.000000
  0
ARC
  8
0
  6
CONTINUOUS
 10
336.452484
 20
297.083954
 40
5.000000
 50
270.000000
 51
359.000000
  0
LINE
  8
0
  6
CONTINUOUS
 10
232.251038
 20
269.755432
 11
232.708221
 21
287.214844
  0
LINE
  8
0
  6
CONTINUOUS
 10
224.174530
 20
381.583954
 11
224.174530
 21
266.583954
  0
LINE
  8
0
  6
CONTINUOUS
 10
242.739532
 20
342.083954
 11
242.739532
 21
306.083954
  0
LINE
  8
0
  6
CONTINUOUS
 10
224.174530
 20
381.333954
 11
229.252060
 21
381.333954
  0
LINE
  8
0
  6
CONTINUOUS
 10
229.252060
 20
266.833954
 11
224.174530
 21
266.833954
  0
ARC
  8
0
  6
CONTINUOUS
 10
237.706512
 20
287.083954
 40
5.000000
 50
90.000000
 51
178.500000
  0
ARC
  8
0
  6
CONTINUOUS
 10
229.252060
 20
269.833954
 40
3.000000
 50
270.000000
 51
358.500000
  0
LINE
  8
0
  6
CONTINUOUS
 10
232.251038
 20
378.412476
 11
232.708221
 21
360.953064
  0
ARC
  8
0
  6
CONTINUOUS
 10
237.706512
 20
361.083954
 40
5.000000
 50
-178.500000
 51
-90.000000
  0
ARC
  8
0
  6
CONTINUOUS
 10
229.252060
 20
378.333954
 40
3.000000
 50
-358.500000
 51
-270.000000
  0
LINE
  8
0
  6
CONTINUOUS
 10
241.092453
 20
378.108185
 11
236.513321
 21
356.228424
  0
ARC
  8
0
  6
CONTINUOUS
 10
245.986435
 20
377.083954
 40
5.000000
 50
90.000000
 51
168.179398
  0
LINE
  8
0
  6
CONTINUOUS
 10
241.092453
 20
270.059723
 11
236.513321
 21
291.939514
  0
ARC
  8
0
  6
CONTINUOUS
 10
245.986435
 20
271.083954
 40
5.000000
 50
-168.179398
 51
-90.000000
  0
LINE
  8
0
  6
CENTER
 10
313.474915
 20
279.083954
 11
334.329102
 21
279.083954
  0
LINE
  8
0
  6
CENTER
 10
323.924530
 20
286.641235
 11
323.924530
 21
269.870422
  0
CIRCLE
  8
0
  6
CONTINUOUS
 10
323.924530
 20
279.083954
 40
5.500000
  0
LINE
  8
0
  6
CENTER
 10
264.374146
 20
279.083954
 11
243.519974
 21
279.083954
  0
LINE
  8
0
  6
CENTER
 10
253.924530
 20
286.641235
 11
253.924530
 21
269.870422
  0
CIRCLE
  8
0
  6
CONTINUOUS
 10
253.924530
 20
279.083954
 40
5.500000
  0
LINE
  8
0
  6
CENTER
 10
313.474915
 20
369.083954
 11
334.329102
 21
369.083954
  0
LINE
  8
0
  6
CENTER
 10
323.924530
 20
361.526672
 11
323.924530
 21
378.297485
  0
CIRCLE
  8
0
  6
CONTINUOUS
 10
323.924530
 20
369.083954
 40
5.500000
  0
LINE
  8
0
  6
CENTER
 10
264.374146
 20
369.083954
 11
243.519974
 21
369.083954
  0
LINE
  8
0
  6
CENTER
 10
253.924530
 20
361.526672
 11
253.924530
 21
378.297485
  0
CIRCLE
  8
0
  6
CONTINUOUS
 10
253.924530
 20
369.083954
 40
5.500000
  0
LINE
  8
0
  6
CONTINUOUS
 10
263.731689
 20
276.083954
 11
314.117371
 21
276.083954
  0
LINE
  8
0
  6
CONTINUOUS
 10
319.080780
 20
286.083954
 11
322.367615
 21
286.083954
  0
ARC
  8
0
  6
CONTINUOUS
 10
314.117371
 20
279.083954
 40
3.000000
 50
270.000000
 51
345.124329
  0
LINE
  8
0
  6
CONTINUOUS
 10
325.267090
 20
288.313782
 11
325.676239
 21
289.854126
  0
ARC
  8
0
  6
CONTINUOUS
 10
322.367615
 20
289.083954
 40
3.000000
 50
270.000000
 51
345.124329
  0
ARC
  8
0
  6
CONTINUOUS
 10
328.575684
 20
289.083954
 40
3.000000
 50
90.000000
 51
165.124313
  0
LINE
  8
0
  6
CONTINUOUS
 10
319.080780
 20
286.083954
 11
317.016846
 21
278.313782
  0
LINE
  8
0
  6
CONTINUOUS
 10
252.581985
 20
288.313782
 11
252.172836
 21
289.854126
  0
ARC
  8
0
  6
CONTINUOUS
 10
255.481445
 20
289.083954
 40
3.000000
 50
-165.124313
 51
-90.000000
  0
ARC
  8
0
  6
CONTINUOUS
 10
249.273376
 20
289.083954
 40
3.000000
 50
14.875682
 51
90.000000
  0
LINE
  8
0
  6
CONTINUOUS
 10
258.768280
 20
286.083954
 11
255.481445
 21
286.083954
  0
ARC
  8
0
  6
CONTINUOUS
 10
263.731689
 20
279.083954
 40
3.000000
 50
-165.124313
 51
-90.000000
  0
LINE
  8
0
  6
CONTINUOUS
 10
258.768280
 20
286.083954
 11
260.832245
 21
278.313782
  0
CIRCLE
  8
0
  6
CONTINUOUS
 10
323.924530
 20
369.083954
 40
5.500000
  0
LINE
  8
0
  6
CONTINUOUS
 10
263.731689
 20
372.083954
 11
314.117371
 21
372.083954
  0
LINE
  8
0
  6
CONTINUOUS
 10
319.080780
 20
362.083954
 11
322.367615
 21
362.083954
  0
ARC
  8
0
  6
CONTINUOUS
 10
314.117371
 20
369.083954
 40
3.000000
 50
-345.124329
 51
-270.000000
  0
LINE
  8
0
  6
CONTINUOUS
 10
325.267090
 20
359.854126
 11
325.676239
 21
358.313782
  0
ARC
  8
0
  6
CONTINUOUS
 10
322.367615
 20
359.083954
 40
3.000000
 50
-345.124329
 51
-270.000000
  0
ARC
  8
0
  6
CONTINUOUS
 10
328.575684
 20
359.083954
 40
3.000000
 50
-165.124313
 51
-90.000000
  0
LINE
  8
0
  6
CONTINUOUS
 10
319.080780
 20
362.083954
 11
317.016846
 21
369.854126
  0
LINE
  8
0
  6
CONTINUOUS
 10
252.581985
 20
359.854126
 11
252.172836
 21
358.313782
  0
ARC
  8
0
  6
CONTINUOUS
 10
255.481445
 20
359.083954
 40
3.000000
 50
90.000000
 51
165.124313
  0
ARC
  8
0
  6
CONTINUOUS
 10
249.273376
 20
359.083954
 40
3.000000
 50
-90.000000
 51
-14.875682
  0
LINE
  8
0
  6
CONTINUOUS
 10
258.768280
 20
362.083954
 11
255.481445
 21
362.083954
  0
ARC
  8
0
  6
CONTINUOUS
 10
263.731689
 20
369.083954
 40
3.000000
 50
90.000000
 51
165.124313
  0
LINE
  8
0
  6
CONTINUOUS
 10
258.768280
 20
362.083954
 11
260.832245
 21
369.854126
  0
LINE
  8
0
  6
CONTINUOUS
 10
277.924530
 20
234.083954
 11
302.424530
 21
234.083954
  0
LINE
  8
0
  6
CONTINUOUS
 10
299.924530
 20
274.083954
 11
299.924530
 21
269.083954
  0
LINE
  8
0
  6
CONTINUOUS
 10
277.924530
 20
274.083954
 11
277.924530
 21
234.083954
  0
LINE
  8
0
  6
CONTINUOUS
 10
301.424530
 20
276.083954
 11
301.424530
 21
274.083954
  0
LINE
  8
0
  6
CONTINUOUS
 10
276.424530
 20
276.083954
 11
276.424530
 21
274.083954
  0
LINE
  8
0
  6
CONTINUOUS
 10
276.424530
 20
274.083954
 11
301.424530
 21
274.083954
  0
LINE
  8
0
  6
CONTINUOUS
 10
302.424530
 20
266.083954
 11
331.862640
 21
266.083954
  0
LINE
  8
0
  6
CONTINUOUS
 10
302.424530
 20
269.083954
 11
302.424530
 21
234.083954
  0
LINE
  8
0
  6
CONTINUOUS
 10
299.507538
 20
234.083954
 11
299.507538
 21
269.083954
  0
LINE
  8
0
  6
CONTINUOUS
 10
299.507538
 20
269.083954
 11
302.424530
 21
269.083954
  0
LINE
  8
0
  6
CONTINUOUS
 10
277.924530
 20
414.083954
 11
302.424530
 21
414.083954
  0
LINE
  8
0
  6
CONTINUOUS
 10
299.924530
 20
374.083954
 11
299.924530
 21
379.083954
  0
LINE
  8
0
  6
CONTINUOUS
 10
277.924530
 20
374.083954
 11
277.924530
 21
414.083954
  0
LINE
  8
0
  6
CONTINUOUS
 10
301.424530
 20
372.083954
 11
301.424530
 21
374.083954
  0
LINE
  8
0
  6
CONTINUOUS
 10
276.424530
 20
372.083954
 11
276.424530
 21
374.083954
  0
LINE
  8
0
  6
CONTINUOUS
 10
276.424530
 20
374.083954
 11
301.424530
 21
374.083954
  0
LINE
  8
0
  6
CONTINUOUS
 10
302.424530
 20
379.083954
 11
302.424530
 21
414.083954
  0
LINE
  8
0
  6
CONTINUOUS
 10
299.507538
 20
414.083954
 11
299.507538
 21
379.083954
  0
LINE
  8
0
  6
CONTINUOUS
 10
299.507538
 20
379.083954
 11
302.424530
 21
379.083954
  0
LINE
  8
0
  6
CONTINUOUS
 10
277.924530
 20
382.083954
 11
245.808258
 21
382.083954
  0
LINE
  8
0
  6
CONTINUOUS
 10
224.174530
 20
371.583954
 11
229.507370
 21
371.583954
  0
ARC
  8
0
  6
CONTINUOUS
 10
229.507370
 20
368.583954
 40
3.000000
 50
1.500000
 51
90.000000
  0
LINE
  8
0
  6
CONTINUOUS
 10
232.465012
 20
356.083954
 11
224.174530
 21
356.083954
  0
LINE
  8
0
  6
CONTINUOUS
 10
232.465012
 20
292.083954
 11
224.174530
 21
292.083954
  0
LINE
  8
0
  6
CONTINUOUS
 10
224.174530
 20
276.583954
 11
229.507370
 21
276.583954
  0
ARC
  8
0
  6
CONTINUOUS
 10
229.507370
 20
279.583954
 40
3.000000
 50
-90.000000
 51
-1.500000
  0
LINE
  8
0
  6
CONTINUOUS
 10
509.674530
 20
7.719687
 11
557.674561
 21
7.719687
  0
LINE
  8
0
  6
CONTINUOUS
 10
558.674561
 20
6.719687
 11
557.674561
 21
7.719687
  0
LINE
  8
0
  6
CONTINUOUS
 10
508.674530
 20
6.719687
 11
509.674530
 21
7.719687
  0
LINE
  8
0
  6
CONTINUOUS
 10
558.674561
 20
6.719687
 11
591.674561
 21
6.719687
  0
LINE
  8
0
  6
CONTINUOUS
 10
218.674530
 20
266.583954
 11
224.174530
 21
266.583954
  0
LINE
  8
0
  6
CONTINUOUS
 10
218.674530
 20
381.583954
 11
224.174530
 21
381.583954
  0
LINE
  8
0
  6
CONTINUOUS
 10
216.174530
 20
269.083954
 11
216.174530
 21
379.083954
  0
LINE
  8
0
  6
CONTINUOUS
 10
172.174530
 20
362.083954
 11
172.174530
 21
286.083954
  0
LINE
  8
0
  6
CONTINUOUS
 10
213.761780
 20
363.536224
 11
172.174530
 21
362.083954
  0
LINE
  8
0
  6
CONTINUOUS
 10
213.761780
 20
284.631714
 11
172.174530
 21
286.083954
  0
ARC
  8
0
  6
CONTINUOUS
 10
218.674530
 20
379.083954
 40
2.500000
 50
90.000000
 51
180.000000
  0
ARC
  8
0
  6
CONTINUOUS
 10
218.674530
 20
269.083954
 40
2.500000
 50
180.000000
 51
270.000000
  0
ARC
  8
0
  6
CONTINUOUS
 10
217.174530
 20
137.719681
 40
1.000000
 50
90.000000
 51
180.000000
  0
ARC
  8
0
  6
CONTINUOUS
 10
213.674530
 20
123.788872
 40
2.500000
 50
-64.230675
 51
0.000000
  0
ARC
  8
0
  6
CONTINUOUS
 10
213.674530
 20
112.170425
 40
2.500000
 50
-88.000000
 51
0.000000
  0
ARC
  8
0
  6
CONTINUOUS
 10
187.731110
 20
111.264458
 40
2.500000
 50
272.000000
 51
295.769318
  0
LINE
  8
0
  6
CONTINUOUS
 10
172.174530
 20
362.083954
 11
172.174530
 21
286.083954
  0
LINE
  8
0
  6
CONTINUOUS
 10
58.174652
 20
362.083923
 11
172.174652
 21
362.083923
  0
LINE
  8
0
  6
CONTINUOUS
 10
58.174652
 20
286.083984
 11
172.174652
 21
286.083984
  0
LINE
  8
0
  6
CONTINUOUS
 10
164.174652
 20
360.083923
 11
164.174652
 21
347.083954
  0
ARC
  8
0
  6
CONTINUOUS
 10
166.174652
 20
360.083954
 40
2.000000
 50
90.000000
 51
180.000000
  0
ARC
  8
0
  6
CONTINUOUS
 10
166.174652
 20
288.083984
 40
2.000000
 50
180.000000
 51
270.000000
  0
LINE
  8
0
  6
CONTINUOUS
 10
58.174652
 20
347.083954
 11
164.174652
 21
347.083954
  0
LINE
  8
0
  6
CONTINUOUS
 10
58.174652
 20
301.083954
 11
164.174652
 21
301.083954
  0
LINE
  8
0
  6
CONTINUOUS
 10
164.174652
 20
301.083954
 11
164.174652
 21
288.083954
  0
ARC
  8
0
  6
CONTINUOUS
 10
203.344162
 20
324.083954
 40
15.000000
 50
130.747620
 51
229.252380
  0
LINE
  8
0
  6
CONTINUOUS
 10
215.306351
 20
354.189941
 11
193.553238
 21
335.447845
  0
LINE
  8
0
  6
CONTINUOUS
 10
215.306351
 20
293.977966
 11
193.553238
 21
312.720062
  0
ARC
  8
0
  6
CONTINUOUS
 10
213.674530
 20
356.083923
 40
2.500000
 50
-49.252373
 51
0.000000
  0
ARC
  8
0
  6
CONTINUOUS
 10
213.674530
 20
366.034698
 40
2.500000
 50
-88.000000
 51
0.000000
  0
ARC
  8
0
  6
CONTINUOUS
 10
213.674530
 20
292.083984
 40
2.500000
 50
0.000000
 51
49.252373
  0
ARC
  8
0
  6
CONTINUOUS
 10
213.674530
 20
282.133209
 40
2.500000
 50
0.000000
 51
88.000000
  0
LINE
  8
0
  6
CONTINUOUS
 10
217.299606
 20
38.065689
 11
224.174530
 21
38.065689
  0
LINE
  8
0
  6
CONTINUOUS
 10
216.174530
 20
26.219687
 11
216.174530
 21
28.268951
  0
ARC
  8
0
  6
CONTINUOUS
 10
218.674530
 20
26.219687
 40
2.500000
 50
180.000000
 51
270.000000
  0
ARC
  8
0
  6
CONTINUOUS
 10
213.674530
 20
28.268951
 40
2.500000
 50
0.000000
 51
88.000000
  0
ARC
  8
0
  6
CONTINUOUS
 10
533.674561
 20
81.219688
 40
57.500000
 50
236.002823
 51
236.184402
  0
ARC
  8
0
  6
CONTINUOUS
 10
533.674561
 20
81.219688
 40
57.500000
 50
303.815582
 51
303.997162
  0
ARC
  8
0
  6
CONTINUOUS
 10
533.674561
 20
81.219688
 40
57.500000
 50
-33.997124
 51
19.823904
  0
ARC
  8
0
  6
CONTINUOUS
 10
533.674561
 20
81.219688
 40
57.500000
 50
160.176102
 51
213.997131
  0
LINE
  8
0
  6
CONTINUOUS
 10
58.174652
 20
362.083923
 11
58.174652
 21
330.949951
  0
LINE
  8
0
  6
CONTINUOUS
 10
58.174652
 20
362.083923
 11
48.674652
 21
362.083923
  0
LINE
  8
0
  6
CONTINUOUS
 10
58.174652
 20
286.083923
 11
48.674652
 21
286.083923
  0
LINE
  8
0
  6
CONTINUOUS
 10
58.174652
 20
301.083923
 11
48.674652
 21
301.083923
  0
LINE
  8
0
  6
CONTINUOUS
 10
58.174652
 20
347.083923
 11
48.674652
 21
347.083923
  0
LINE
  8
0
  6
CONTINUOUS
 10
51.674652
 20
318.083923
 11
51.674652
 21
330.083923
  0
LINE
  8
0
  6
CONTINUOUS
 10
58.674652
 20
318.083923
 11
58.674652
 21
330.083923
  0
LINE
  8
0
  6
CONTINUOUS
 10
52.674652
 20
331.083923
 11
57.674652
 21
331.083923
  0
LINE
  8
0
  6
CONTINUOUS
 10
57.674652
 20
317.083923
 11
52.674652
 21
317.083923
  0
ARC
  8
0
  6
CONTINUOUS
 10
57.674652
 20
330.083923
 40
1.000000
 50
0.000000
 51
90.000000
  0
ARC
  8
0
  6
CONTINUOUS
 10
52.674652
 20
330.083923
 40
1.000000
 50
90.000000
 51
180.000000
  0
ARC
  8
0
  6
CONTINUOUS
 10
52.674652
 20
318.083923
 40
1.000000
 50
180.000000
 51
270.000000
  0
ARC
  8
0
  6
CONTINUOUS
 10
57.674652
 20
318.083923
 40
1.000000
 50
-90.000000
 51
0.000000
  0
LINE
  8
0
  6
CONTINUOUS
 10
56.174652
 20
320.583923
 11
56.174652
 21
327.583923
  0
LINE
  8
0
  6
CONTINUOUS
 10
54.174652
 20
320.583923
 11
54.174652
 21
327.583923
  0
ARC
  8
0
  6
CONTINUOUS
 10
55.174652
 20
327.583923
 40
1.000000
 50
90.000000
 51
180.000000
  0
ARC
  8
0
  6
CONTINUOUS
 10
55.174652
 20
327.583923
 40
1.000000
 50
0.000000
 51
90.000000
  0
ARC
  8
0
  6
CONTINUOUS
 10
55.174652
 20
320.583923
 40
1.000000
 50
180.000000
 51
270.000000
  0
ARC
  8
0
  6
CONTINUOUS
 10
55.174652
 20
320.583923
 40
1.000000
 50
-90.000000
 51
0.000000
  0
LINE
  8
0
  6
CONTINUOUS
 10
58.174652
 20
317.217926
 11
58.174652
 21
286.083923
  0
LINE
  8
0
  6
CONTINUOUS
 10
48.674652
 20
284.083923
 11
48.674652
 21
364.083923
  0
LINE
  8
0
  6
CONTINUOUS
 10
4.674653
 20
364.083923
 11
48.674652
 21
364.083923
  0
LINE
  8
0
  6
CONTINUOUS
 10
4.674653
 20
284.083923
 11
48.674652
 21
284.083923
  0
LINE
  8
0
  6
CONTINUOUS
 10
-0.325347
 20
289.083923
 11
-0.325347
 21
359.083923
  0
ARC
  8
0
  6
CONTINUOUS
 10
4.674653
 20
359.083923
 40
5.000000
 50
90.000000
 51
180.000000
  0
ARC
  8
0
  6
CONTINUOUS
 10
4.674653
 20
289.083923
 40
5.000000
 50
180.000000
 51
270.000000
  0
LINE
  8
0
  6
CONTINUOUS
 10
2.174653
 20
348.083923
 11
48.674652
 21
348.083923
  0
LINE
  8
0
  6
CONTINUOUS
 10
2.174653
 20
298.083954
 11
48.674652
 21
298.083954
  0
LINE
  8
0
  6
CONTINUOUS
 10
48.674530
 20
108.219666
 11
58.174530
 21
108.219666
  0
LINE
  8
0
  6
CONTINUOUS
 10
48.674530
 20
32.219666
 11
58.174530
 21
32.219666
  0
LINE
  8
0
  6
CONTINUOUS
 10
48.674530
 20
30.219667
 11
48.674530
 21
110.219666
  0
LINE
  8
0
  6
CONTINUOUS
 10
58.674530
 20
109.719666
 11
58.674530
 21
108.219666
  0
LINE
  8
0
  6
CONTINUOUS
 10
51.674530
 20
109.719666
 11
51.674530
 21
108.219666
  0
LINE
  8
0
  6
CONTINUOUS
 10
51.674530
 20
109.719666
 11
58.674530
 21
109.719666
  0
LINE
  8
0
  6
CONTINUOUS
 10
56.074520
 20
122.719666
 11
56.074520
 21
109.719666
  0
LINE
  8
0
  6
CONTINUOUS
 10
54.274540
 20
123.344666
 11
54.274540
 21
109.719666
  0
LINE
  8
0
  6
CONTINUOUS
 10
52.474529
 20
121.282166
 11
52.474529
 21
109.719666
  0
LINE
  8
0
  6
CONTINUOUS
 10
57.874531
 20
122.094666
 11
57.874531
 21
109.719666
  0
LINE
  8
0
  6
CONTINUOUS
 10
54.274540
 20
123.344666
 11
56.074520
 21
122.719666
  0
LINE
  8
0
  6
CONTINUOUS
 10
52.474529
 20
121.282166
 11
54.274540
 21
121.907166
  0
LINE
  8
0
  6
CONTINUOUS
 10
57.874531
 20
122.094666
 11
56.075531
 21
121.646965
  0
LINE
  8
0
  6
CONTINUOUS
 10
48.674530
 20
100.468666
 11
58.174530
 21
100.468666
  0
LINE
  8
0
  6
CONTINUOUS
 10
48.674530
 20
39.970669
 11
58.174530
 21
39.970669
  0
LINE
  8
0
  6
CONTINUOUS
 10
4.674531
 20
110.219666
 11
48.674530
 21
110.219666
  0
LINE
  8
0
  6
CONTINUOUS
 10
4.674531
 20
30.219667
 11
48.674530
 21
30.219667
  0
LINE
  8
0
  6
CONTINUOUS
 10
-0.325469
 20
35.219666
 11
-0.325469
 21
105.219666
  0
ARC
  8
0
  6
CONTINUOUS
 10
4.674531
 20
105.219666
 40
5.000000
 50
90.000000
 51
180.000000
  0
ARC
  8
0
  6
CONTINUOUS
 10
4.674531
 20
35.219666
 40
5.000000
 50
180.000000
 51
270.000000
  0
LINE
  8
0
  6
CONTINUOUS
 10
2.174531
 20
96.219666
 11
48.674530
 21
96.219666
  0
LINE
  8
0
  6
CONTINUOUS
 10
2.174531
 20
46.219666
 11
48.674530
 21
46.219666
  0
LINE
  8
0
  6
CONTINUOUS
 10
58.174530
 20
32.219688
 11
58.174530
 21
108.219666
  0
LINE
  8
0
  6
CONTINUOUS
 10
172.174530
 20
60.819687
 11
216.174530
 21
60.819687
  0
LINE
  8
0
  6
CONTINUOUS
 10
172.174530
 20
50.619686
 11
216.174530
 21
50.619686
  0
TEXT
  8
0
 10
-14.000000
 20
-8.000000
 40
4.000000
 41
1.000000
  1
HLM-22T-300~450-T60W
 50
0.000000
  0
ENDSEC
  0
EOF
