  0
SECTION
  2
HEADER
  9
$CLAYER
  8
1
  9
$LTSCALE
 40
3.0
  0
ENDSEC
  0
SECTION
  2
TABLES
  0
TABLE
  2
LTYPE
 70
     4
  0
LTYPE
  2
CONTINUOUS
  3
solid line
 70
    64
 72
    65
 73
     0
 40
0.0
  0
LTYPE
  2
DASHED
  3
__ __ __ __ __ __ __ __ __ __ __ __ __ __ __
 70
    64
 72
    65
 73
     2
 40
0.75
 49
0.5
 49
-0.25
  0
LTYPE
  2
CENTER
  3
____ _ ____ _ ____ _ ____ _ ____ _ ____ _ ____
 70
    64
 72
    65
 73
     4
 40
2.0
 49
1.25
 49
-0.25
 49
0.25
 49
-0.25
  0
LTYPE
  2
PHANTOM
  3
_____ _ _ _____ _ _ _____ _ _ _____ _ _ ____
 70
    64
 72
    65
 73
     6
 40
2.5
 49
1.25
 49
-0.25
 49
0.25
 49
-0.25
 49
0.25
 49
-0.25
  0
ENDTAB
  0
TABLE
  2
LAYER
 70
     1
  0
LAYER
  2
0
 70
    64
 62
     7
  6
CONTINUOUS
  0
ENDTAB
  0
TABLE
  2
STYLE
 70
     1
  0
STYLE
  2
STANDARD
 70
     0
 40
0.000000
 41
1.000000
 50
0.000000
 71
     0
 42
3.000000
  3
txt
  4
BIGFONT
  0
ENDTAB
  0
ENDSEC
  0
SECTION
  2
BLOCKS
  0
ENDSEC
  0
SECTION
  2
ENTITIES
  0
LINE
  8
0
  6
CONTINUOUS
 10
474.914001
 20
120.122581
 11
474.914001
 21
34.122559
  0
LINE
  8
0
  6
CONTINUOUS
 10
584.914001
 20
122.122581
 11
465.914001
 21
122.122581
  0
LINE
  8
0
  6
CONTINUOUS
 10
584.914001
 20
32.122578
 11
465.914001
 21
32.122578
  0
LINE
  8
0
  6
CONTINUOUS
 10
584.914001
 20
122.122581
 11
584.914001
 21
32.122578
  0
LINE
  8
0
  6
CONTINUOUS
 10
584.914001
 20
111.531876
 11
475.951691
 21
111.531876
  0
LINE
  8
0
  6
CONTINUOUS
 10
584.914001
 20
42.713280
 11
475.951691
 21
42.713280
  0
ARC
  8
0
  6
CONTINUOUS
 10
472.914001
 20
120.122597
 40
2.000000
 50
0.000000
 51
90.000000
  0
ARC
  8
0
  6
CONTINUOUS
 10
472.914001
 20
34.122578
 40
2.000000
 50
-90.000000
 51
0.000000
  0
LINE
  8
0
  6
CONTINUOUS
 10
605.414001
 20
42.122578
 11
605.414001
 21
112.122581
  0
LINE
  8
0
  6
CONTINUOUS
 10
600.872559
 20
122.122581
 11
584.914001
 21
122.122581
  0
LINE
  8
0
  6
CONTINUOUS
 10
604.914001
 20
119.122581
 11
604.914001
 21
35.122578
  0
LINE
  8
0
  6
CONTINUOUS
 10
584.914001
 20
111.531876
 11
603.164001
 21
111.531876
  0
LINE
  8
0
  6
CONTINUOUS
 10
604.336670
 20
120.122559
 11
604.914001
 21
119.122581
  0
ARC
  8
0
  6
CONTINUOUS
 10
600.872559
 20
118.122581
 40
4.000000
 50
29.999599
 51
90.000000
  0
LINE
  8
0
  6
CONTINUOUS
 10
600.872559
 20
32.122578
 11
584.914001
 21
32.122578
  0
LINE
  8
0
  6
CONTINUOUS
 10
584.914001
 20
42.713280
 11
603.164001
 21
42.713280
  0
LINE
  8
0
  6
CONTINUOUS
 10
604.336670
 20
34.122578
 11
604.914001
 21
35.122578
  0
ARC
  8
0
  6
CONTINUOUS
 10
600.872559
 20
36.122559
 40
4.000000
 50
270.000000
 51
330.000397
  0
LINE
  8
0
  6
CONTINUOUS
 10
605.414001
 20
112.122581
 11
604.914001
 21
112.622581
  0
LINE
  8
0
  6
CONTINUOUS
 10
605.414001
 20
42.122578
 11
604.914001
 21
41.622578
  0
LINE
  8
0
  6
CENTER
 10
494.051239
 20
90.122581
 11
367.664001
 21
90.122581
  0
LINE
  8
0
  6
CONTINUOUS
 10
411.414001
 20
90.122581
 11
411.414001
 21
26.122480
  0
LINE
  8
0
  6
CONTINUOUS
 10
411.414001
 20
90.122581
 11
411.414001
 21
154.122681
  0
LINE
  8
0
  6
CONTINUOUS
 10
123.105499
 20
37.122578
 11
123.105499
 21
41.101299
  0
LINE
  8
0
  6
CONTINUOUS
 10
33.105499
 20
37.122578
 11
33.105499
 21
41.101238
  0
LINE
  8
0
  6
CONTINUOUS
 10
38.105499
 20
32.122578
 11
41.105499
 21
32.122578
  0
LINE
  8
0
  6
CONTINUOUS
 10
118.105499
 20
32.122578
 11
115.105499
 21
32.122578
  0
ARC
  8
0
  6
CONTINUOUS
 10
38.105499
 20
37.122578
 40
5.000000
 50
180.000000
 51
270.000000
  0
ARC
  8
0
  6
CONTINUOUS
 10
118.105499
 20
37.122578
 40
5.000000
 50
-90.000000
 51
0.000000
  0
ARC
  8
0
  6
CONTINUOUS
 10
119.117897
 20
49.110619
 40
8.000000
 50
306.780975
 51
358.958740
  0
ARC
  8
0
  6
CONTINUOUS
 10
37.093300
 20
49.110359
 40
8.000000
 50
181.041107
 51
233.216995
  0
ARC
  8
0
  6
CONTINUOUS
 10
125.105499
 20
41.101318
 40
2.000000
 50
126.781197
 51
180.000000
  0
ARC
  8
0
  6
CONTINUOUS
 10
31.105499
 20
41.101238
 40
2.000000
 50
0.000000
 51
53.217121
  0
LINE
  8
0
  6
CENTER
 10
78.105499
 20
-11.206262
 11
78.105499
 21
202.041901
  0
LINE
  8
0
  6
CENTER
 10
7.796750
 20
126.122581
 11
195.142502
 21
126.122581
  0
LINE
  8
0
  6
CONTINUOUS
 10
15.105500
 20
6.122578
 11
50.605499
 21
6.122578
  0
LINE
  8
0
  6
CONTINUOUS
 10
19.105499
 20
21.122578
 11
37.105499
 21
21.122578
  0
LINE
  8
0
  6
CONTINUOUS
 10
137.105499
 20
21.122578
 11
119.105499
 21
21.122578
  0
LINE
  8
0
  6
CONTINUOUS
 10
42.605499
 20
154.122574
 11
113.355499
 21
154.122574
  0
LINE
  8
0
  6
CONTINUOUS
 10
112.157898
 20
180.028458
 11
78.105499
 21
180.622574
  0
LINE
  8
0
  6
CONTINUOUS
 10
44.053101
 20
180.028061
 11
78.105499
 21
180.622574
  0
LINE
  8
0
  6
CONTINUOUS
 10
115.105499
 20
177.028915
 11
115.105499
 21
6.122558
  0
LINE
  8
0
  6
CONTINUOUS
 10
41.105499
 20
177.028519
 11
41.105499
 21
6.122578
  0
LINE
  8
0
  6
CONTINUOUS
 10
25.105499
 20
96.410309
 11
25.105499
 21
155.834824
  0
LINE
  8
0
  6
CONTINUOUS
 10
131.105499
 20
155.834839
 11
131.105499
 21
96.410316
  0
LINE
  8
0
  6
CONTINUOUS
 10
32.105499
 20
55.922997
 11
32.105499
 21
128.622574
  0
LINE
  8
0
  6
CONTINUOUS
 10
124.105499
 20
55.922997
 11
124.105499
 21
128.622574
  0
LINE
  8
0
  6
CONTINUOUS
 10
141.105499
 20
17.818516
 11
141.105499
 21
6.122578
  0
LINE
  8
0
  6
CONTINUOUS
 10
15.105500
 20
17.818516
 11
15.105500
 21
6.122578
  0
LINE
  8
0
  6
CENTER
 10
28.105499
 20
29.122578
 11
28.105499
 21
-5.230822
  0
LINE
  8
0
  6
CENTER
 10
128.105499
 20
29.622578
 11
128.105499
 21
-5.230822
  0
LINE
  8
0
  6
DASHED
 10
22.605499
 20
21.122578
 11
22.605499
 21
6.122578
  0
LINE
  8
0
  6
DASHED
 10
33.605499
 20
21.122578
 11
33.605499
 21
6.122578
  0
LINE
  8
0
  6
DASHED
 10
122.605499
 20
21.122578
 11
122.605499
 21
6.122578
  0
LINE
  8
0
  6
DASHED
 10
133.605499
 20
21.122578
 11
133.605499
 21
6.122578
  0
ARC
  8
0
  6
CONTINUOUS
 10
44.105499
 20
177.028534
 40
3.000000
 50
91.000526
 51
180.000000
  0
ARC
  8
0
  6
CONTINUOUS
 10
112.105499
 20
177.028900
 40
3.000000
 50
0.000000
 51
89.000580
  0
LINE
  8
0
  6
CONTINUOUS
 10
105.605499
 20
6.122578
 11
141.105499
 21
6.122578
  0
LINE
  8
0
  6
CONTINUOUS
 10
51.605499
 20
7.122578
 11
104.605499
 21
7.122578
  0
LINE
  8
0
  6
CONTINUOUS
 10
28.751699
 20
160.648102
 11
37.459099
 21
163.097061
  0
LINE
  8
0
  6
CONTINUOUS
 10
28.751699
 20
91.597061
 11
29.917700
 21
91.269127
  0
LINE
  8
0
  6
CONTINUOUS
 10
35.767300
 20
51.105419
 11
37.443699
 21
50.639736
  0
LINE
  8
0
  6
CONTINUOUS
 10
120.443703
 20
51.105419
 11
118.767303
 21
50.639736
  0
LINE
  8
0
  6
CONTINUOUS
 10
127.459099
 20
91.597061
 11
126.293297
 21
91.269135
  0
LINE
  8
0
  6
CONTINUOUS
 10
127.459099
 20
160.648102
 11
118.751900
 21
163.097061
  0
ARC
  8
0
  6
CONTINUOUS
 10
30.105499
 20
155.834854
 40
5.000000
 50
105.709000
 51
180.000000
  0
ARC
  8
0
  6
CONTINUOUS
 10
30.105499
 20
96.410347
 40
5.000000
 50
180.000000
 51
254.291702
  0
ARC
  8
0
  6
CONTINUOUS
 10
37.105499
 20
55.923038
 40
5.000000
 50
180.000000
 51
254.476196
  0
ARC
  8
0
  6
CONTINUOUS
 10
119.105499
 20
55.922997
 40
5.000000
 50
-74.475708
 51
0.000000
  0
ARC
  8
0
  6
CONTINUOUS
 10
126.105499
 20
96.410309
 40
5.000000
 50
-74.291199
 51
0.000000
  0
ARC
  8
0
  6
CONTINUOUS
 10
126.105499
 20
155.834824
 40
5.000000
 50
0.000000
 51
74.291527
  0
ARC
  8
0
  6
CONTINUOUS
 10
127.105499
 20
88.381195
 40
3.000000
 50
105.709000
 51
180.000000
  0
ARC
  8
0
  6
CONTINUOUS
 10
29.105499
 20
88.381165
 40
3.000000
 50
0.000000
 51
74.291397
  0
ARC
  8
0
  6
CONTINUOUS
 10
36.105499
 20
167.910324
 40
5.000000
 50
-74.291199
 51
0.000000
  0
ARC
  8
0
  6
CONTINUOUS
 10
120.105499
 20
167.910339
 40
5.000000
 50
180.000000
 51
254.291702
  0
ARC
  8
0
  6
CONTINUOUS
 10
120.105499
 20
45.822178
 40
5.000000
 50
105.524399
 51
180.000000
  0
ARC
  8
0
  6
CONTINUOUS
 10
36.105499
 20
45.822140
 40
5.000000
 50
0.000000
 51
74.475952
  0
LINE
  8
0
  6
CONTINUOUS
 10
105.605499
 20
6.122578
 11
104.605499
 21
7.122578
  0
LINE
  8
0
  6
CONTINUOUS
 10
50.605499
 20
6.122578
 11
51.605499
 21
7.122578
  0
LINE
  8
0
  6
CENTER
 10
1.206750
 20
90.122574
 11
157.626755
 21
90.122574
  0
LINE
  8
0
  6
CONTINUOUS
 10
178.105499
 20
112.122581
 11
178.105499
 21
140.122574
  0
LINE
  8
0
  6
CONTINUOUS
 10
133.105499
 20
140.122574
 11
178.105499
 21
140.122574
  0
LINE
  8
0
  6
CONTINUOUS
 10
133.105499
 20
112.122581
 11
178.105499
 21
112.122581
  0
LINE
  8
0
  6
CONTINUOUS
 10
133.105499
 20
141.122574
 11
133.105499
 21
111.122581
  0
LINE
  8
0
  6
CONTINUOUS
 10
131.105499
 20
111.122581
 11
133.105499
 21
111.122581
  0
ARC
  8
0
  6
CONTINUOUS
 10
142.105499
 20
126.122581
 40
4.000000
 50
90.000000
 51
270.000000
  0
LINE
  8
0
  6
CONTINUOUS
 10
142.105499
 20
130.122574
 11
178.105499
 21
130.122574
  0
LINE
  8
0
  6
CONTINUOUS
 10
142.105499
 20
122.122581
 11
178.105499
 21
122.122581
  0
LINE
  8
0
  6
CONTINUOUS
 10
131.105499
 20
141.122574
 11
133.105499
 21
141.122574
  0
LINE
  8
0
  6
CONTINUOUS
 10
417.914001
 20
154.122681
 11
411.414001
 21
154.122681
  0
LINE
  8
0
  6
CONTINUOUS
 10
417.914001
 20
26.122480
 11
411.414001
 21
26.122480
  0
LINE
  8
0
  6
CONTINUOUS
 10
465.914001
 20
122.122581
 11
419.914001
 21
123.728935
  0
LINE
  8
0
  6
CONTINUOUS
 10
411.414001
 20
30.219397
 11
465.914001
 21
32.122578
  0
ARC
  8
0
  6
CONTINUOUS
 10
417.913971
 20
152.122696
 40
2.000000
 50
0.000000
 51
90.000000
  0
ARC
  8
0
  6
CONTINUOUS
 10
417.914001
 20
28.122480
 40
2.000000
 50
-90.000000
 51
-0.260773
  0
LINE
  8
0
  6
CENTER
 10
619.432800
 20
77.122581
 11
367.664001
 21
77.122581
  0
LINE
  8
0
  6
CONTINUOUS
 10
465.914001
 20
122.122581
 11
465.914001
 21
32.122578
  0
LINE
  8
0
  6
CONTINUOUS
 10
420.646240
 20
129.890350
 11
426.360748
 21
124.175835
  0
LINE
  8
0
  6
CONTINUOUS
 10
389.150635
 20
320.357452
 11
270.007935
 21
320.357452
  0
ARC
  8
0
  6
CONTINUOUS
 10
270.007935
 20
323.357452
 40
3.000000
 50
181.000000
 51
270.000000
  0
LINE
  8
0
  6
CONTINUOUS
 10
283.919739
 20
315.003723
 11
283.029297
 21
318.169678
  0
ARC
  8
0
  6
CONTINUOUS
 10
280.141357
 20
317.357452
 40
3.000000
 50
15.708648
 51
90.000000
  0
ARC
  8
0
  6
CONTINUOUS
 10
397.336395
 20
303.130890
 40
3.000000
 50
181.500198
 51
257.801208
  0
LINE
  8
0
  6
CONTINUOUS
 10
394.337402
 20
303.052338
 11
393.981384
 21
316.647095
  0
ARC
  8
0
  6
CONTINUOUS
 10
396.068604
 20
297.266357
 40
3.000000
 50
15.000100
 51
77.801201
  0
LINE
  8
0
  6
CENTER
 10
619.704956
 20
357.357452
 11
251.010117
 21
357.357452
  0
LINE
  8
0
  6
CONTINUOUS
 10
377.899109
 20
420.357452
 11
328.914001
 21
420.357452
  0
LINE
  8
0
  6
CONTINUOUS
 10
266.414001
 20
357.357452
 11
267.059845
 21
320.357452
  0
LINE
  8
0
  6
CONTINUOUS
 10
275.224091
 20
297.664795
 11
267.059845
 21
320.357452
  0
ARC
  8
0
  6
CONTINUOUS
 10
279.928864
 20
299.357452
 40
5.000000
 50
199.787491
 51
270.000000
  0
LINE
  8
0
  6
CONTINUOUS
 10
266.414001
 20
357.357452
 11
267.059845
 21
394.357452
  0
LINE
  8
0
  6
CONTINUOUS
 10
275.224091
 20
417.050110
 11
267.059845
 21
394.357452
  0
ARC
  8
0
  6
CONTINUOUS
 10
279.928864
 20
415.357452
 40
5.000000
 50
90.000000
 51
160.212509
  0
LINE
  8
0
  6
CONTINUOUS
 10
389.150635
 20
320.357452
 11
270.007935
 21
320.357452
  0
LINE
  8
0
  6
CENTER
 10
328.914001
 20
436.476135
 11
328.914001
 21
246.251251
  0
ARC
  8
0
  6
CONTINUOUS
 10
270.007935
 20
323.357452
 40
3.000000
 50
181.000000
 51
270.000000
  0
ARC
  8
0
  6
CONTINUOUS
 10
270.007935
 20
391.357452
 40
3.000000
 50
90.000000
 51
179.000000
  0
LINE
  8
0
  6
CONTINUOUS
 10
389.077393
 20
394.357452
 11
270.007935
 21
394.357452
  0
LINE
  8
0
  6
CONTINUOUS
 10
299.201721
 20
304.357452
 11
358.626251
 21
304.357452
  0
LINE
  8
0
  6
CONTINUOUS
 10
294.388489
 20
308.003723
 11
293.445251
 21
311.357452
  0
ARC
  8
0
  6
CONTINUOUS
 10
299.201721
 20
309.357452
 40
5.000000
 50
195.708633
 51
270.000000
  0
LINE
  8
0
  6
CONTINUOUS
 10
293.445251
 20
311.357452
 11
288.733002
 21
311.357452
  0
ARC
  8
0
  6
CONTINUOUS
 10
288.733002
 20
316.357452
 40
5.000000
 50
195.708633
 51
270.000000
  0
LINE
  8
0
  6
CONTINUOUS
 10
363.439514
 20
308.003723
 11
364.382751
 21
311.357452
  0
ARC
  8
0
  6
CONTINUOUS
 10
358.626251
 20
309.357452
 40
5.000000
 50
270.000000
 51
344.291351
  0
LINE
  8
0
  6
CONTINUOUS
 10
364.382751
 20
311.357452
 11
369.095001
 21
311.357452
  0
LINE
  8
0
  6
CONTINUOUS
 10
373.908264
 20
315.003723
 11
374.798676
 21
318.169678
  0
ARC
  8
0
  6
CONTINUOUS
 10
369.095001
 20
316.357452
 40
5.000000
 50
270.000000
 51
344.291351
  0
ARC
  8
0
  6
CONTINUOUS
 10
377.686646
 20
317.357452
 40
3.000000
 50
90.000000
 51
164.291367
  0
LINE
  8
0
  6
CONTINUOUS
 10
299.201721
 20
410.357452
 11
358.626251
 21
410.357452
  0
LINE
  8
0
  6
CONTINUOUS
 10
294.388489
 20
406.711182
 11
293.445251
 21
403.357452
  0
ARC
  8
0
  6
CONTINUOUS
 10
299.201721
 20
405.357452
 40
5.000000
 50
90.000000
 51
164.291367
  0
LINE
  8
0
  6
CONTINUOUS
 10
293.445251
 20
403.357452
 11
288.733002
 21
403.357452
  0
LINE
  8
0
  6
CONTINUOUS
 10
283.919739
 20
399.711182
 11
283.029297
 21
396.545227
  0
ARC
  8
0
  6
CONTINUOUS
 10
288.733002
 20
398.357452
 40
5.000000
 50
90.000000
 51
164.291367
  0
ARC
  8
0
  6
CONTINUOUS
 10
280.141357
 20
397.357452
 40
3.000000
 50
-90.000000
 51
-15.708638
  0
LINE
  8
0
  6
CONTINUOUS
 10
363.439514
 20
406.711182
 11
364.382751
 21
403.357452
  0
ARC
  8
0
  6
CONTINUOUS
 10
358.626251
 20
405.357452
 40
5.000000
 50
15.708638
 51
90.000000
  0
LINE
  8
0
  6
CONTINUOUS
 10
364.382751
 20
403.357452
 11
369.095001
 21
403.357452
  0
LINE
  8
0
  6
CONTINUOUS
 10
373.908264
 20
399.711182
 11
374.798676
 21
396.545227
  0
ARC
  8
0
  6
CONTINUOUS
 10
369.095001
 20
398.357452
 40
5.000000
 50
15.708638
 51
90.000000
  0
ARC
  8
0
  6
CONTINUOUS
 10
377.686646
 20
397.357452
 40
3.000000
 50
195.708633
 51
270.000000
  0
LINE
  8
0
  6
CONTINUOUS
 10
382.603882
 20
297.664795
 11
390.681732
 21
320.117249
  0
ARC
  8
0
  6
CONTINUOUS
 10
377.899109
 20
299.357452
 40
5.000000
 50
270.000000
 51
340.212524
  0
LINE
  8
0
  6
CONTINUOUS
 10
382.603882
 20
417.050110
 11
390.665894
 21
394.641693
  0
ARC
  8
0
  6
CONTINUOUS
 10
377.899109
 20
415.357452
 40
5.000000
 50
19.787489
 51
90.000000
  0
LINE
  8
0
  6
CONTINUOUS
 10
377.899109
 20
294.357452
 11
342.914001
 21
294.357452
  0
LINE
  8
0
  6
CENTER
 10
288.914001
 20
296.244171
 11
288.914001
 21
315.685577
  0
LINE
  8
0
  6
CENTER
 10
298.824890
 20
307.357452
 11
280.306335
 21
307.357452
  0
ARC
  8
0
  6
CONTINUOUS
 10
288.914001
 20
307.357452
 40
5.500000
 50
-239.465683
 51
7.598493
  0
ARC
  8
0
  6
CONTINUOUS
 10
368.914001
 20
307.357452
 40
5.500000
 50
-187.598602
 51
59.465683
  0
LINE
  8
0
  6
CENTER
 10
368.914001
 20
296.244171
 11
368.914001
 21
315.685577
  0
LINE
  8
0
  6
CENTER
 10
359.003113
 20
307.357452
 11
377.521667
 21
307.357452
  0
ARC
  8
0
  6
CONTINUOUS
 10
368.914001
 20
407.357452
 40
5.500000
 50
-59.465683
 51
187.598602
  0
LINE
  8
0
  6
CENTER
 10
359.003113
 20
407.357452
 11
377.521667
 21
407.357452
  0
LINE
  8
0
  6
CENTER
 10
368.914001
 20
418.470734
 11
368.914001
 21
399.029327
  0
LINE
  8
0
  6
CENTER
 10
288.914001
 20
418.470734
 11
288.914001
 21
399.029327
  0
LINE
  8
0
  6
CENTER
 10
298.824890
 20
407.357452
 11
280.306335
 21
407.357452
  0
ARC
  8
0
  6
CONTINUOUS
 10
288.914001
 20
407.357452
 40
5.500000
 50
-7.598608
 51
239.465683
  0
LINE
  8
0
  6
CONTINUOUS
 10
304.914001
 20
391.357452
 11
304.914001
 21
323.357452
  0
LINE
  8
0
  6
CONTINUOUS
 10
352.914001
 20
391.357452
 11
352.914001
 21
323.357452
  0
LINE
  8
0
  6
CONTINUOUS
 10
393.833710
 20
398.063354
 11
399.082336
 21
417.651550
  0
LINE
  8
0
  6
CONTINUOUS
 10
394.337402
 20
412.209473
 11
393.981384
 21
398.614685
  0
ARC
  8
0
  6
CONTINUOUS
 10
397.336395
 20
412.130890
 40
3.000000
 50
102.198799
 51
178.499802
  0
ARC
  8
0
  6
CONTINUOUS
 10
396.068604
 20
417.995483
 40
3.000000
 50
282.198792
 51
345.000031
  0
ARC
  8
0
  6
CONTINUOUS
 10
397.336395
 20
303.130890
 40
3.000000
 50
181.500198
 51
257.801208
  0
LINE
  8
0
  6
CONTINUOUS
 10
394.337402
 20
303.052338
 11
393.981384
 21
316.647095
  0
ARC
  8
0
  6
CONTINUOUS
 10
396.068604
 20
297.266357
 40
3.000000
 50
15.000100
 51
77.801201
  0
LINE
  8
0
  6
CONTINUOUS
 10
403.985199
 20
293.357452
 11
411.414001
 21
293.357452
  0
LINE
  8
0
  6
CONTINUOUS
 10
399.228821
 20
297.063385
 11
393.906982
 21
316.924957
  0
ARC
  8
0
  6
CONTINUOUS
 10
389.004059
 20
399.357452
 40
5.000000
 50
270.000000
 51
345.000031
  0
ARC
  8
0
  6
CONTINUOUS
 10
389.150635
 20
315.357452
 40
5.000000
 50
14.999843
 51
90.000000
  0
LINE
  8
0
  6
CONTINUOUS
 10
311.914001
 20
257.357452
 11
342.914001
 21
257.357452
  0
LINE
  8
0
  6
CONTINUOUS
 10
342.914001
 20
302.357452
 11
342.914001
 21
257.357452
  0
LINE
  8
0
  6
CONTINUOUS
 10
314.914001
 20
302.357452
 11
314.914001
 21
297.357452
  0
LINE
  8
0
  6
CONTINUOUS
 10
343.914001
 20
302.357452
 11
313.914001
 21
302.357452
  0
LINE
  8
0
  6
CONTINUOUS
 10
313.914001
 20
304.357452
 11
313.914001
 21
302.357452
  0
LINE
  8
0
  6
CONTINUOUS
 10
343.914001
 20
304.357452
 11
343.914001
 21
302.357452
  0
LINE
  8
0
  6
CONTINUOUS
 10
311.914001
 20
294.357452
 11
279.928864
 21
294.357452
  0
LINE
  8
0
  6
CONTINUOUS
 10
315.497589
 20
297.357452
 11
311.914001
 21
297.357452
  0
LINE
  8
0
  6
CONTINUOUS
 10
315.497589
 20
297.357452
 11
315.497589
 21
257.357452
  0
LINE
  8
0
  6
CONTINUOUS
 10
311.914001
 20
257.357452
 11
311.914001
 21
297.357452
  0
LINE
  8
0
  6
CONTINUOUS
 10
328.914001
 20
420.357452
 11
279.928864
 21
420.357452
  0
LINE
  8
0
  6
CONTINUOUS
 10
411.414001
 20
421.357452
 11
403.911957
 21
421.357452
  0
ARC
  8
0
  6
CONTINUOUS
 10
403.911957
 20
416.357452
 40
5.000000
 50
90.000000
 51
165.000031
  0
ARC
  8
0
  6
CONTINUOUS
 10
404.058472
 20
298.357452
 40
5.000000
 50
194.999847
 51
270.000000
  0
LINE
  8
0
  6
CONTINUOUS
 10
391.414001
 20
357.357452
 11
390.819611
 21
323.305084
  0
LINE
  8
0
  6
CONTINUOUS
 10
391.414001
 20
357.357452
 11
390.819611
 21
391.409821
  0
ARC
  8
0
  6
CONTINUOUS
 10
387.820068
 20
323.357452
 40
3.000000
 50
270.000000
 51
359.000000
  0
ARC
  8
0
  6
CONTINUOUS
 10
387.820068
 20
391.357452
 40
3.000000
 50
1.000000
 51
90.000000
  0
LINE
  8
0
  6
CONTINUOUS
 10
18.350109
 20
21.746553
 11
37.860886
 21
25.498615
  0
ARC
  8
0
  6
CONTINUOUS
 10
78.105499
 20
90.122581
 40
64.000099
 50
-54.681290
 51
20.105476
  0
ARC
  8
0
  6
CONTINUOUS
 10
78.105499
 20
90.122581
 40
64.000099
 50
145.906479
 51
234.681290
  0
ARC
  8
0
  6
CONTINUOUS
 10
19.105499
 20
17.122578
 40
4.000000
 50
90.000000
 51
180.000000
  0
ARC
  8
0
  6
CONTINUOUS
 10
19.105499
 20
17.818516
 40
4.000000
 50
100.885529
 51
180.000000
  0
ARC
  8
0
  6
CONTINUOUS
 10
37.105499
 20
29.426641
 40
4.000000
 50
-79.114502
 51
0.000000
  0
ARC
  8
0
  6
CONTINUOUS
 10
37.105499
 20
25.122578
 40
4.000000
 50
-90.000000
 51
0.000000
  0
LINE
  8
0
  6
CONTINUOUS
 10
137.860886
 20
21.746553
 11
118.350113
 21
25.498615
  0
ARC
  8
0
  6
CONTINUOUS
 10
137.105499
 20
17.122578
 40
4.000000
 50
0.000000
 51
90.000000
  0
ARC
  8
0
  6
CONTINUOUS
 10
137.105499
 20
17.818516
 40
4.000000
 50
0.000000
 51
79.114471
  0
ARC
  8
0
  6
CONTINUOUS
 10
119.105499
 20
29.426641
 40
4.000000
 50
180.000000
 51
259.114502
  0
ARC
  8
0
  6
CONTINUOUS
 10
119.105499
 20
25.122578
 40
4.000000
 50
180.000000
 51
270.000000
  0
LINE
  8
0
  6
CONTINUOUS
 10
411.414001
 20
293.357452
 11
411.414001
 21
421.357452
  0
LINE
  8
0
  6
CONTINUOUS
 10
465.914001
 20
56.616577
 11
421.914001
 21
56.616577
  0
LINE
  8
0
  6
CONTINUOUS
 10
465.914001
 20
41.603577
 11
411.414001
 21
41.603580
  0
LINE
  8
0
  6
CONTINUOUS
 10
419.346039
 20
49.555576
 11
411.414001
 21
49.555576
  0
LINE
  8
0
  6
CONTINUOUS
 10
419.914001
 20
50.770313
 11
419.914001
 21
152.122696
  0
ARC
  8
0
  6
CONTINUOUS
 10
422.413940
 20
28.101999
 40
2.500000
 50
92.000000
 51
179.739227
  0
ARC
  8
0
  6
CONTINUOUS
 10
422.414001
 20
131.658112
 40
2.500000
 50
180.000000
 51
225.000000
  0
ARC
  8
0
  6
CONTINUOUS
 10
428.128510
 20
125.943604
 40
2.500000
 50
-135.000000
 51
-92.000000
  0
LINE
  8
0
  6
CONTINUOUS
 10
419.914001
 20
419.357452
 11
419.914001
 21
295.357452
  0
LINE
  8
0
  6
CONTINUOUS
 10
465.914001
 20
312.357452
 11
422.350372
 21
310.836182
  0
LINE
  8
0
  6
CONTINUOUS
 10
465.914001
 20
402.357452
 11
422.350372
 21
403.878723
  0
LINE
  8
0
  6
CONTINUOUS
 10
465.914001
 20
308.345459
 11
465.914001
 21
406.369446
  0
LINE
  8
0
  6
CONTINUOUS
 10
417.914001
 20
293.357452
 11
411.414001
 21
293.357452
  0
LINE
  8
0
  6
CONTINUOUS
 10
417.914001
 20
421.357452
 11
411.414001
 21
421.357452
  0
LINE
  8
0
  6
CONTINUOUS
 10
427.057007
 20
333.357452
 11
419.942017
 21
333.357452
  0
LINE
  8
0
  6
CONTINUOUS
 10
426.451843
 20
381.357452
 11
419.942017
 21
381.357452
  0
LINE
  8
0
  6
CONTINUOUS
 10
427.057007
 20
335.561951
 11
427.057007
 21
379.274536
  0
LINE
  8
0
  6
CONTINUOUS
 10
474.914001
 20
314.357452
 11
474.914001
 21
328.357452
  0
LINE
  8
0
  6
CONTINUOUS
 10
584.914001
 20
312.357452
 11
465.914001
 21
312.357452
  0
LINE
  8
0
  6
CONTINUOUS
 10
584.914001
 20
402.357452
 11
465.914001
 21
402.357452
  0
LINE
  8
0
  6
CONTINUOUS
 10
584.914001
 20
312.357452
 11
584.914001
 21
332.357483
  0
LINE
  8
0
  6
CONTINUOUS
 10
584.914001
 20
328.357452
 11
474.914001
 21
328.357452
  0
LINE
  8
0
  6
CONTINUOUS
 10
584.914001
 20
386.357452
 11
474.914001
 21
386.357452
  0
ARC
  8
0
  6
CONTINUOUS
 10
472.914001
 20
314.357422
 40
2.000000
 50
-90.000000
 51
0.000000
  0
ARC
  8
0
  6
CONTINUOUS
 10
472.914001
 20
400.357452
 40
2.000000
 50
0.000000
 51
90.000000
  0
LINE
  8
0
  6
CONTINUOUS
 10
605.414001
 20
392.357452
 11
605.414001
 21
322.357452
  0
LINE
  8
0
  6
CONTINUOUS
 10
600.872559
 20
312.357452
 11
584.914001
 21
312.357452
  0
LINE
  8
0
  6
CONTINUOUS
 10
604.914001
 20
315.357452
 11
604.914001
 21
399.357452
  0
LINE
  8
0
  6
CONTINUOUS
 10
584.914001
 20
328.357452
 11
603.164001
 21
328.357452
  0
LINE
  8
0
  6
CONTINUOUS
 10
604.336670
 20
314.357483
 11
604.914001
 21
315.357452
  0
ARC
  8
0
  6
CONTINUOUS
 10
600.872559
 20
316.357452
 40
4.000000
 50
270.000000
 51
330.000397
  0
LINE
  8
0
  6
CONTINUOUS
 10
600.872559
 20
402.357452
 11
584.914001
 21
402.357452
  0
LINE
  8
0
  6
CONTINUOUS
 10
584.914001
 20
386.357452
 11
603.164001
 21
386.357452
  0
LINE
  8
0
  6
CONTINUOUS
 10
604.336670
 20
400.357452
 11
604.914001
 21
399.357452
  0
ARC
  8
0
  6
CONTINUOUS
 10
600.872559
 20
398.357483
 40
4.000000
 50
29.999599
 51
90.000000
  0
LINE
  8
0
  6
CONTINUOUS
 10
605.414001
 20
322.357452
 11
604.914001
 21
321.857452
  0
LINE
  8
0
  6
CONTINUOUS
 10
605.414001
 20
392.357452
 11
604.914001
 21
392.857452
  0
LINE
  8
0
  6
CONTINUOUS
 10
465.914001
 20
312.357452
 11
465.914001
 21
402.357452
  0
ARC
  8
0
  6
CONTINUOUS
 10
417.914001
 20
295.357452
 40
2.000000
 50
-90.000000
 51
0.000000
  0
ARC
  8
0
  6
CONTINUOUS
 10
417.914001
 20
419.357452
 40
2.000000
 50
0.000000
 51
90.000000
  0
ARC
  8
0
  6
CONTINUOUS
 10
422.437622
 20
308.337708
 40
2.500000
 50
92.000000
 51
179.895706
  0
ARC
  8
0
  6
CONTINUOUS
 10
422.437622
 20
406.377197
 40
2.500000
 50
180.104294
 51
268.000000
  0
LINE
  8
0
  6
CONTINUOUS
 10
419.914001
 20
310.751099
 11
419.942017
 21
310.752075
  0
LINE
  8
0
  6
CONTINUOUS
 10
465.414307
 20
307.828003
 11
419.914001
 21
306.239105
  0
LINE
  8
0
  6
CONTINUOUS
 10
465.914001
 20
308.345459
 11
465.414307
 21
307.828003
  0
LINE
  8
0
  6
CONTINUOUS
 10
465.414307
 20
406.886902
 11
419.914001
 21
408.475800
  0
LINE
  8
0
  6
CONTINUOUS
 10
465.914001
 20
406.369446
 11
465.414307
 21
406.886902
  0
LINE
  8
0
  6
CONTINUOUS
 10
584.914001
 20
382.357483
 11
584.914001
 21
402.357452
  0
LINE
  8
0
  6
CONTINUOUS
 10
266.414001
 20
151.494202
 11
266.414001
 21
6.122578
  0
LINE
  8
0
  6
CONTINUOUS
 10
391.414001
 20
6.122578
 11
266.414001
 21
6.122578
  0
LINE
  8
0
  6
CENTER
 10
371.846344
 20
126.122581
 11
286.873993
 21
126.122581
  0
LINE
  8
0
  6
CENTER
 10
328.914001
 20
197.622543
 11
328.914001
 21
-4.627422
  0
LINE
  8
0
  6
CONTINUOUS
 10
351.359589
 20
180.622543
 11
306.468384
 21
180.622543
  0
LINE
  8
0
  6
CONTINUOUS
 10
303.633606
 20
179.741241
 11
268.579193
 21
155.612823
  0
LINE
  8
0
  6
CONTINUOUS
 10
388.414001
 20
21.122578
 11
269.414001
 21
21.122578
  0
LINE
  8
0
  6
CONTINUOUS
 10
276.414001
 20
19.585079
 11
276.414001
 21
6.122578
  0
LINE
  8
0
  6
CONTINUOUS
 10
380.414001
 20
19.585079
 11
380.414001
 21
6.122578
  0
LINE
  8
0
  6
CENTER
 10
288.914001
 20
28.372578
 11
288.914001
 21
-0.627422
  0
LINE
  8
0
  6
CENTER
 10
368.914001
 20
28.372578
 11
368.914001
 21
0.622578
  0
LINE
  8
0
  6
DASHED
 10
283.414001
 20
21.122578
 11
283.414001
 21
6.122578
  0
LINE
  8
0
  6
DASHED
 10
294.414001
 20
21.122578
 11
294.414001
 21
6.122578
  0
LINE
  8
0
  6
DASHED
 10
363.414001
 20
21.122578
 11
363.414001
 21
6.122578
  0
LINE
  8
0
  6
DASHED
 10
374.414001
 20
21.122578
 11
374.414001
 21
6.122578
  0
ARC
  8
0
  6
CONTINUOUS
 10
348.914001
 20
76.122581
 40
26.500000
 50
-90.000000
 51
9.470901
  0
ARC
  8
0
  6
CONTINUOUS
 10
308.914001
 20
76.122581
 40
26.500000
 50
170.529099
 51
270.000000
  0
LINE
  8
0
  6
CONTINUOUS
 10
375.052795
 20
80.483055
 11
366.395996
 21
132.375305
  0
LINE
  8
0
  6
CONTINUOUS
 10
291.432007
 20
132.375412
 11
282.775208
 21
80.483086
  0
LINE
  8
0
  6
CONTINUOUS
 10
348.914001
 20
49.622578
 11
308.914001
 21
49.622578
  0
ARC
  8
0
  6
CONTINUOUS
 10
271.414001
 20
151.494141
 40
5.000000
 50
124.539902
 51
180.000000
  0
ARC
  8
0
  6
CONTINUOUS
 10
306.468384
 20
175.622543
 40
5.000000
 50
90.000000
 51
124.539902
  0
ARC
  8
0
  6
CONTINUOUS
 10
351.325592
 20
175.622543
 40
5.000000
 50
88.961128
 51
90.000000
  0
LINE
  8
0
  6
CONTINUOUS
 10
391.414001
 20
6.122578
 11
391.414001
 21
38.522598
  0
ARC
  8
0
  6
CONTINUOUS
 10
348.914001
 20
76.122581
 40
24.000000
 50
-90.000000
 51
9.470790
  0
ARC
  8
0
  6
CONTINUOUS
 10
308.914001
 20
76.122581
 40
24.000000
 50
170.528992
 51
271.534393
  0
LINE
  8
0
  6
CONTINUOUS
 10
348.914001
 20
52.122578
 11
308.914001
 21
52.122578
  0
CIRCLE
  8
0
  6
CONTINUOUS
 10
328.914001
 20
126.122581
 40
33.500000
  0
ARC
  8
0
  6
CONTINUOUS
 10
328.914001
 20
126.122581
 40
38.000000
 50
9.471016
 51
170.529007
  0
ARC
  8
0
  6
CONTINUOUS
 10
328.914001
 20
126.122581
 40
35.500000
 50
-189.597305
 51
7.618591
  0
LINE
  8
0
  6
CONTINUOUS
 10
372.586792
 20
80.071671
 11
363.930206
 21
131.963974
  0
LINE
  8
0
  6
CONTINUOUS
 10
293.898010
 20
131.964020
 11
285.241211
 21
80.071732
  0
LINE
  8
0
  6
CONTINUOUS
 10
392.968353
 20
154.122681
 11
411.414001
 21
154.122681
  0
LINE
  8
0
  6
CONTINUOUS
 10
411.414001
 20
26.122480
 11
396.414001
 21
26.122480
  0
LINE
  8
0
  6
CONTINUOUS
 10
390.133453
 20
155.004028
 11
354.194397
 21
179.741196
  0
ARC
  8
0
  6
CONTINUOUS
 10
351.359589
 20
175.622543
 40
5.000000
 50
55.459671
 51
90.000000
  0
ARC
  8
0
  6
CONTINUOUS
 10
386.414001
 20
151.494171
 40
5.000000
 50
0.000000
 51
55.459560
  0
ARC
  8
0
  6
CONTINUOUS
 10
396.414001
 20
21.122461
 40
5.000000
 50
90.000000
 51
180.000000
  0
ARC
  8
0
  6
CONTINUOUS
 10
388.414001
 20
18.122601
 40
3.000000
 50
0.000000
 51
90.000000
  0
ARC
  8
0
  6
CONTINUOUS
 10
269.414001
 20
18.122578
 40
3.000000
 50
90.000000
 51
180.000000
  0
LINE
  8
0
  6
CONTINUOUS
 10
318.617584
 20
62.122578
 11
314.457184
 21
62.122578
  0
LINE
  8
0
  6
CONTINUOUS
 10
320.914001
 20
69.091316
 11
320.914001
 21
62.122578
  0
LINE
  8
0
  6
CONTINUOUS
 10
324.914001
 20
71.622581
 11
324.914001
 21
74.122581
  0
LINE
  8
0
  6
CONTINUOUS
 10
332.914001
 20
71.622581
 11
332.914001
 21
74.122581
  0
LINE
  8
0
  6
CONTINUOUS
 10
328.132782
 20
72.653831
 11
328.132782
 21
63.435081
  0
LINE
  8
0
  6
CONTINUOUS
 10
329.632782
 20
72.653831
 11
329.632782
 21
63.435081
  0
LINE
  8
0
  6
CONTINUOUS
 10
337.507782
 20
72.653831
 11
337.507782
 21
63.372578
  0
LINE
  8
0
  6
CONTINUOUS
 10
338.882782
 20
67.731956
 11
338.882782
 21
63.372578
  0
LINE
  8
0
  6
CONTINUOUS
 10
319.015991
 20
72.528831
 11
315.161011
 21
72.528831
  0
LINE
  8
0
  6
CONTINUOUS
 10
315.161011
 20
72.528831
 11
314.257782
 21
71.408829
  0
LINE
  8
0
  6
CONTINUOUS
 10
314.366394
 20
74.122581
 11
312.914001
 21
72.262817
  0
LINE
  8
0
  6
CONTINUOUS
 10
314.257782
 20
64.495499
 11
315.175385
 21
63.528816
  0
LINE
  8
0
  6
CONTINUOUS
 10
312.914001
 20
63.679737
 11
314.457184
 21
62.122578
  0
LINE
  8
0
  6
CONTINUOUS
 10
312.914001
 20
72.262817
 11
312.914001
 21
63.679737
  0
LINE
  8
0
  6
CONTINUOUS
 10
314.257782
 20
71.408829
 11
314.257782
 21
64.495499
  0
LINE
  8
0
  6
CONTINUOUS
 10
319.757782
 20
71.811722
 11
319.000793
 21
72.528831
  0
LINE
  8
0
  6
CONTINUOUS
 10
319.745789
 20
74.122581
 11
320.914001
 21
72.826088
  0
LINE
  8
0
  6
CONTINUOUS
 10
319.757782
 20
71.622581
 11
320.914001
 21
71.622581
  0
LINE
  8
0
  6
CONTINUOUS
 10
314.366394
 20
74.122581
 11
319.745789
 21
74.122581
  0
LINE
  8
0
  6
CONTINUOUS
 10
317.664001
 20
69.091316
 11
320.914001
 21
69.091316
  0
LINE
  8
0
  6
CONTINUOUS
 10
319.757782
 20
67.778816
 11
317.664001
 21
67.778816
  0
LINE
  8
0
  6
CONTINUOUS
 10
317.257782
 20
63.528816
 11
315.175385
 21
63.528816
  0
LINE
  8
0
  6
CONTINUOUS
 10
319.757782
 20
66.528816
 11
319.757782
 21
67.528816
  0
ARC
  8
0
  6
CONTINUOUS
 10
317.257782
 20
66.028816
 40
2.500000
 50
-89.999786
 51
0.000109
  0
LINE
  8
0
  6
CONTINUOUS
 10
319.757782
 20
63.079140
 11
319.757782
 21
62.122578
  0
LINE
  8
0
  6
CONTINUOUS
 10
320.914001
 20
72.826088
 11
320.914001
 21
71.622581
  0
LINE
  8
0
  6
CONTINUOUS
 10
319.757782
 20
67.778816
 11
319.757782
 21
66.028816
  0
LINE
  8
0
  6
CONTINUOUS
 10
317.664001
 20
69.091316
 11
317.664001
 21
67.778816
  0
LINE
  8
0
  6
CONTINUOUS
 10
319.757782
 20
62.122578
 11
320.914001
 21
62.122578
  0
LINE
  8
0
  6
CONTINUOUS
 10
319.757782
 20
63.079140
 11
318.617584
 21
62.122578
  0
LINE
  8
0
  6
CONTINUOUS
 10
329.632782
 20
63.435081
 11
330.132782
 21
63.435081
  0
LINE
  8
0
  6
CONTINUOUS
 10
327.539001
 20
63.435081
 11
327.539001
 21
62.122578
  0
LINE
  8
0
  6
CONTINUOUS
 10
330.132782
 20
63.435081
 11
330.132782
 21
62.122578
  0
LINE
  8
0
  6
CONTINUOUS
 10
332.079590
 20
71.622581
 11
332.914001
 21
71.622581
  0
LINE
  8
0
  6
CONTINUOUS
 10
324.914001
 20
71.622581
 11
325.802002
 21
71.622581
  0
LINE
  8
0
  6
CONTINUOUS
 10
324.914001
 20
74.122581
 11
332.914001
 21
74.122581
  0
LINE
  8
0
  6
CONTINUOUS
 10
327.539001
 20
62.122578
 11
330.132782
 21
62.122578
  0
LINE
  8
0
  6
CONTINUOUS
 10
327.539001
 20
63.435081
 11
328.132782
 21
63.435081
  0
ARC
  8
0
  6
CONTINUOUS
 10
341.710999
 20
70.919456
 40
3.203128
 50
-73.981873
 51
90.003510
  0
ARC
  8
0
  6
CONTINUOUS
 10
341.710999
 20
70.919456
 40
1.954124
 50
-82.585274
 51
62.411850
  0
LINE
  8
0
  6
CONTINUOUS
 10
336.914001
 20
74.122581
 11
341.710999
 21
74.122581
  0
LINE
  8
0
  6
CONTINUOUS
 10
341.962982
 20
68.981659
 11
338.882782
 21
68.981659
  0
LINE
  8
0
  6
CONTINUOUS
 10
336.914001
 20
74.122581
 11
336.914001
 21
72.653831
  0
LINE
  8
0
  6
CONTINUOUS
 10
338.882782
 20
72.653831
 11
338.882782
 21
68.981659
  0
LINE
  8
0
  6
CONTINUOUS
 10
342.594788
 20
67.840698
 11
344.577393
 21
63.372578
  0
LINE
  8
0
  6
CONTINUOUS
 10
341.443207
 20
67.731956
 11
343.319397
 21
63.372578
  0
LINE
  8
0
  6
CONTINUOUS
 10
336.914001
 20
63.372578
 11
337.507782
 21
63.372578
  0
LINE
  8
0
  6
CONTINUOUS
 10
338.882782
 20
63.372578
 11
339.429596
 21
63.372578
  0
LINE
  8
0
  6
CONTINUOUS
 10
339.429596
 20
62.122578
 11
336.914001
 21
62.122578
  0
LINE
  8
0
  6
CONTINUOUS
 10
343.070190
 20
63.372578
 11
343.319397
 21
63.372578
  0
LINE
  8
0
  6
CONTINUOUS
 10
344.577393
 20
63.372578
 11
344.914001
 21
63.372578
  0
LINE
  8
0
  6
CONTINUOUS
 10
343.070190
 20
62.122578
 11
344.914001
 21
62.122578
  0
LINE
  8
0
  6
CONTINUOUS
 10
344.914001
 20
63.372578
 11
344.914001
 21
62.122578
  0
LINE
  8
0
  6
CONTINUOUS
 10
343.070190
 20
63.372578
 11
343.070190
 21
62.122578
  0
LINE
  8
0
  6
CONTINUOUS
 10
339.429596
 20
63.372578
 11
339.429596
 21
62.122578
  0
LINE
  8
0
  6
CONTINUOUS
 10
336.914001
 20
63.372578
 11
336.914001
 21
62.122578
  0
LINE
  8
0
  6
CONTINUOUS
 10
326.231781
 20
72.653831
 11
325.802002
 21
71.622581
  0
LINE
  8
0
  6
CONTINUOUS
 10
331.717194
 20
72.653831
 11
332.079590
 21
71.622581
  0
LINE
  8
0
  6
CONTINUOUS
 10
329.632782
 20
72.653831
 11
331.717194
 21
72.653831
  0
LINE
  8
0
  6
CONTINUOUS
 10
328.132782
 20
72.653831
 11
326.231781
 21
72.653831
  0
LINE
  8
0
  6
CONTINUOUS
 10
338.882782
 20
67.731956
 11
341.443207
 21
67.731956
  0
LINE
  8
0
  6
CONTINUOUS
 10
336.914001
 20
72.653831
 11
337.507782
 21
72.653831
  0
LINE
  8
0
  6
CONTINUOUS
 10
338.882782
 20
72.653831
 11
342.615784
 21
72.651398
  0
LINE
  8
0
  6
CONTINUOUS
 10
319.757782
 20
71.811722
 11
319.757782
 21
71.622581
  0
ARC
  8
0
  6
CONTINUOUS
 10
328.914001
 20
104.122581
 40
73.000000
 50
47.590931
 51
132.409302
  0
ARC
  8
0
  6
CONTINUOUS
 10
328.914001
 20
104.122581
 40
73.000000
 50
227.591095
 51
312.409393
  0
LINE
  8
0
  6
CONTINUOUS
 10
387.914001
 20
135.871597
 11
387.914001
 21
72.373566
  0
LINE
  8
0
  6
CONTINUOUS
 10
269.914001
 20
135.871597
 11
269.914001
 21
72.373566
  0
ARC
  8
0
  6
CONTINUOUS
 10
357.914001
 20
135.871597
 40
30.000000
 50
0.000000
 51
47.590950
  0
ARC
  8
0
  6
CONTINUOUS
 10
357.914001
 20
72.373566
 40
30.000000
 50
-47.590061
 51
0.000000
  0
ARC
  8
0
  6
CONTINUOUS
 10
299.914001
 20
135.871597
 40
30.000000
 50
132.409500
 51
180.000000
  0
ARC
  8
0
  6
CONTINUOUS
 10
299.914001
 20
72.373566
 40
30.000000
 50
180.000000
 51
227.591400
  0
LINE
  8
0
  6
CONTINUOUS
 10
318.914001
 20
130.122574
 11
318.914001
 21
122.122581
  0
LINE
  8
0
  6
CONTINUOUS
 10
311.914001
 20
130.122574
 11
311.914001
 21
122.122581
  0
LINE
  8
0
  6
CONTINUOUS
 10
311.914001
 20
130.122574
 11
318.914001
 21
130.122574
  0
LINE
  8
0
  6
CONTINUOUS
 10
311.914001
 20
122.122581
 11
318.914001
 21
122.122581
  0
ARC
  8
0
  6
CONTINUOUS
 10
328.914001
 20
126.122581
 40
14.000000
 50
-163.398499
 51
163.398499
  0
LINE
  8
0
  6
CONTINUOUS
 10
308.914001
 20
25.753351
 11
308.914001
 21
21.122578
  0
LINE
  8
0
  6
CONTINUOUS
 10
310.355865
 20
26.122578
 11
347.472107
 21
26.122578
  0
LINE
  8
0
  6
CONTINUOUS
 10
308.013275
 20
24.996653
 11
305.814758
 21
22.248505
  0
ARC
  8
0
  6
CONTINUOUS
 10
303.472137
 20
24.122578
 40
3.000000
 50
270.000000
 51
321.340454
  0
ARC
  8
0
  6
CONTINUOUS
 10
310.355865
 20
23.122578
 40
3.000000
 50
90.000000
 51
141.340454
  0
LINE
  8
0
  6
CONTINUOUS
 10
348.914001
 20
25.753351
 11
348.914001
 21
21.122578
  0
LINE
  8
0
  6
CONTINUOUS
 10
349.814728
 20
24.996653
 11
352.013214
 21
22.248505
  0
ARC
  8
0
  6
CONTINUOUS
 10
354.355835
 20
24.122578
 40
3.000000
 50
-141.340454
 51
-90.000000
  0
ARC
  8
0
  6
CONTINUOUS
 10
347.472107
 20
23.122578
 40
3.000000
 50
38.659546
 51
90.000000
  0
LINE
  8
0
  6
CONTINUOUS
 10
392.914001
 20
141.722580
 11
392.914001
 21
38.522598
  0
LINE
  8
0
  6
CONTINUOUS
 10
392.914001
 20
141.722580
 11
391.414001
 21
141.722580
  0
LINE
  8
0
  6
CONTINUOUS
 10
392.914001
 20
38.522598
 11
391.414001
 21
38.522598
  0
ARC
  8
0
  6
CONTINUOUS
 10
208.960800
 20
90.122581
 40
191.053177
 50
-15.669100
 51
15.669100
  0
ARC
  8
0
  6
CONTINUOUS
 10
208.960800
 20
90.122581
 40
190.053177
 50
-1.478500
 51
1.451400
  0
LINE
  8
0
  6
CONTINUOUS
 10
396.914001
 20
95.122581
 11
397.918793
 21
95.122581
  0
LINE
  8
0
  6
CONTINUOUS
 10
394.414001
 20
92.622581
 11
394.414001
 21
87.622581
  0
ARC
  8
0
  6
CONTINUOUS
 10
397.918793
 20
96.120979
 40
1.000000
 50
-90.000000
 51
1.817900
  0
ARC
  8
0
  6
CONTINUOUS
 10
396.914001
 20
92.622581
 40
2.500000
 50
90.000000
 51
180.000000
  0
LINE
  8
0
  6
CONTINUOUS
 10
396.914001
 20
85.122581
 11
397.918793
 21
85.122581
  0
ARC
  8
0
  6
CONTINUOUS
 10
397.918793
 20
84.124176
 40
1.000000
 50
-1.817900
 51
90.000000
  0
ARC
  8
0
  6
CONTINUOUS
 10
396.914001
 20
87.622581
 40
2.500000
 50
180.000000
 51
270.000000
  0
LINE
  8
0
  6
CONTINUOUS
 10
391.414001
 20
141.722580
 11
391.414001
 21
151.494156
  0
ARC
  8
0
  6
CONTINUOUS
 10
392.968353
 20
159.122681
 40
5.000000
 50
235.460007
 51
270.000000
  0
LINE
  8
0
  6
CONTINUOUS
 10
594.914001
 20
349.857483
 11
593.914001
 21
349.857483
  0
ARC
  8
0
  6
CONTINUOUS
 10
594.914001
 20
350.857483
 40
1.000000
 50
-90.000000
 51
0.000000
  0
LINE
  8
0
  6
CONTINUOUS
 10
599.414001
 20
353.357483
 11
599.414001
 21
361.357483
  0
LINE
  8
0
  6
CONTINUOUS
 10
599.414001
 20
353.357483
 11
595.914001
 21
351.857483
  0
LINE
  8
0
  6
CONTINUOUS
 10
599.414001
 20
361.357483
 11
595.914001
 21
362.857483
  0
LINE
  8
0
  6
CONTINUOUS
 10
595.914001
 20
350.857483
 11
595.914001
 21
363.857483
  0
LINE
  8
0
  6
CONTINUOUS
 10
594.914001
 20
364.857483
 11
593.914001
 21
364.857483
  0
ARC
  8
0
  6
CONTINUOUS
 10
594.914001
 20
363.857483
 40
1.000000
 50
0.000000
 51
90.000000
  0
LINE
  8
0
  6
CONTINUOUS
 10
593.914001
 20
380.357483
 11
593.914001
 21
334.357483
  0
LINE
  8
0
  6
CONTINUOUS
 10
591.914001
 20
332.357483
 11
593.914001
 21
334.357483
  0
LINE
  8
0
  6
CONTINUOUS
 10
591.914001
 20
332.357483
 11
545.914001
 21
332.357483
  0
LINE
  8
0
  6
CONTINUOUS
 10
551.414001
 20
336.857483
 11
551.414001
 21
332.357483
  0
ARC
  8
0
  6
CONTINUOUS
 10
548.414001
 20
336.857483
 40
3.000000
 50
0.000000
 51
90.000000
  0
LINE
  8
0
  6
CONTINUOUS
 10
548.414001
 20
339.857483
 11
543.914001
 21
339.857483
  0
CIRCLE
  8
0
  6
CONTINUOUS
 10
547.414001
 20
335.857483
 40
2.250000
  0
LINE
  8
0
  6
CONTINUOUS
 10
543.914001
 20
380.357483
 11
543.914001
 21
334.357483
  0
LINE
  8
0
  6
CONTINUOUS
 10
545.914001
 20
332.357483
 11
543.914001
 21
334.357483
  0
LINE
  8
0
  6
CONTINUOUS
 10
545.914001
 20
382.357483
 11
543.914001
 21
380.357483
  0
LINE
  8
0
  6
CONTINUOUS
 10
545.914001
 20
382.357483
 11
591.914001
 21
382.357483
  0
LINE
  8
0
  6
CONTINUOUS
 10
593.914001
 20
380.357483
 11
591.914001
 21
382.357483
  0
LINE
  8
0
  6
CONTINUOUS
 10
589.414001
 20
374.857483
 11
593.914001
 21
374.857483
  0
CIRCLE
  8
0
  6
CONTINUOUS
 10
590.414001
 20
378.857483
 40
2.250000
  0
ARC
  8
0
  6
CONTINUOUS
 10
589.414001
 20
377.857483
 40
3.000000
 50
180.000000
 51
270.000000
  0
LINE
  8
0
  6
CONTINUOUS
 10
586.414001
 20
377.857483
 11
586.414001
 21
382.357483
  0
LINE
  8
0
  6
CENTER
 10
568.914001
 20
389.823242
 11
568.914001
 21
325.691223
  0
LINE
  8
0
  6
CONTINUOUS
 10
591.499756
 20
333.357452
 11
592.914001
 21
334.771667
  0
LINE
  8
0
  6
CONTINUOUS
 10
592.914001
 20
374.857452
 11
592.914001
 21
334.771667
  0
LINE
  8
0
  6
CONTINUOUS
 10
551.414001
 20
333.357452
 11
591.499756
 21
333.357452
  0
LINE
  8
0
  6
CONTINUOUS
 10
544.914001
 20
339.857452
 11
544.914001
 21
379.943237
  0
LINE
  8
0
  6
CONTINUOUS
 10
586.414001
 20
381.357452
 11
546.328186
 21
381.357452
  0
LINE
  8
0
  6
CONTINUOUS
 10
546.328186
 20
381.357452
 11
544.914001
 21
379.943237
  0
LINE
  8
0
  6
CONTINUOUS
 10
592.414001
 20
123.622581
 11
545.914001
 21
123.622581
  0
LINE
  8
0
  6
CONTINUOUS
 10
543.914001
 20
153.622574
 11
543.914001
 21
125.622581
  0
LINE
  8
0
  6
CONTINUOUS
 10
593.914001
 20
153.622574
 11
593.914001
 21
125.622581
  0
LINE
  8
0
  6
CONTINUOUS
 10
595.914001
 20
135.622574
 11
543.914001
 21
135.622574
  0
LINE
  8
0
  6
CONTINUOUS
 10
545.914001
 20
123.622581
 11
543.914001
 21
125.622581
  0
LINE
  8
0
  6
CONTINUOUS
 10
593.914001
 20
125.622581
 11
591.914001
 21
123.622581
  0
LINE
  8
0
  6
CONTINUOUS
 10
593.914001
 20
125.622581
 11
543.914001
 21
125.622581
  0
LINE
  8
0
  6
CONTINUOUS
 10
592.914001
 20
154.622574
 11
544.914001
 21
154.622574
  0
LINE
  8
0
  6
CONTINUOUS
 10
544.914001
 20
154.622574
 11
543.914001
 21
153.622574
  0
LINE
  8
0
  6
CONTINUOUS
 10
592.914001
 20
154.622574
 11
593.914001
 21
153.622574
  0
LINE
  8
0
  6
CONTINUOUS
 10
593.914001
 20
153.622574
 11
543.914001
 21
153.622574
  0
LINE
  8
0
  6
CENTER
 10
601.857727
 20
145.122574
 11
589.782776
 21
145.122574
  0
LINE
  8
0
  6
CONTINUOUS
 10
595.914001
 20
151.622574
 11
595.914001
 21
135.622574
  0
LINE
  8
0
  6
CONTINUOUS
 10
594.914001
 20
152.622574
 11
593.914001
 21
152.622574
  0
ARC
  8
0
  6
CONTINUOUS
 10
594.914001
 20
151.622574
 40
1.000000
 50
0.000000
 51
90.000000
  0
LINE
  8
0
  6
CONTINUOUS
 10
599.414001
 20
149.122574
 11
599.414001
 21
141.122574
  0
LINE
  8
0
  6
CONTINUOUS
 10
599.414001
 20
149.122574
 11
595.914001
 21
150.622574
  0
LINE
  8
0
  6
CONTINUOUS
 10
599.414001
 20
141.122574
 11
595.914001
 21
139.622574
  0
LINE
  8
0
  6
CENTER
 10
568.914001
 20
118.928825
 11
568.914001
 21
160.010071
  0
LINE
  8
0
  6
CONTINUOUS
 10
592.414001
 20
123.622581
 11
592.414001
 21
122.122581
  0
LINE
  8
0
  6
CONTINUOUS
 10
546.414001
 20
123.622581
 11
546.414001
 21
122.122581
  0
LINE
  8
0
  6
CONTINUOUS
 10
474.914001
 20
386.357452
 11
474.914001
 21
400.357483
  0
TEXT
  8
0
 10
-1.000000
 20
-11.000000
 40
4.000000
 41
1.000000
  1
HLM-28L-1200~1800-S25T
 50
0.000000
  0
ENDSEC
  0
EOF
