  0
SECTION
  2
HEADER
  9
$CLAYER
  8
1
  9
$LTSCALE
 40
3.0
  0
ENDSEC
  0
SECTION
  2
TABLES
  0
TABLE
  2
LTYPE
 70
     4
  0
LTYPE
  2
CONTINUOUS
  3
solid line
 70
    64
 72
    65
 73
     0
 40
0.0
  0
LTYPE
  2
DASHED
  3
__ __ __ __ __ __ __ __ __ __ __ __ __ __ __
 70
    64
 72
    65
 73
     2
 40
0.75
 49
0.5
 49
-0.25
  0
LTYPE
  2
CENTER
  3
____ _ ____ _ ____ _ ____ _ ____ _ ____ _ ____
 70
    64
 72
    65
 73
     4
 40
2.0
 49
1.25
 49
-0.25
 49
0.25
 49
-0.25
  0
LTYPE
  2
PHANTOM
  3
_____ _ _ _____ _ _ _____ _ _ _____ _ _ ____
 70
    64
 72
    65
 73
     6
 40
2.5
 49
1.25
 49
-0.25
 49
0.25
 49
-0.25
 49
0.25
 49
-0.25
  0
ENDTAB
  0
TABLE
  2
LAYER
 70
     1
  0
LAYER
  2
0
 70
    64
 62
     7
  6
CONTINUOUS
  0
ENDTAB
  0
TABLE
  2
STYLE
 70
     1
  0
STYLE
  2
STANDARD
 70
     0
 40
0.000000
 41
1.000000
 50
0.000000
 71
     0
 42
3.000000
  3
txt
  4
BIGFONT
  0
ENDTAB
  0
ENDSEC
  0
SECTION
  2
BLOCKS
  0
ENDSEC
  0
SECTION
  2
ENTITIES
  0
LINE
  8
0
  6
CONTINUOUS
 10
445.294006
 20
128.555084
 11
445.294006
 21
42.555058
  0
LINE
  8
0
  6
CONTINUOUS
 10
555.294006
 20
130.555084
 11
436.294006
 21
130.555084
  0
LINE
  8
0
  6
CONTINUOUS
 10
555.294006
 20
40.555077
 11
436.294006
 21
40.555077
  0
LINE
  8
0
  6
CONTINUOUS
 10
555.294006
 20
119.964378
 11
446.331665
 21
119.964378
  0
LINE
  8
0
  6
CONTINUOUS
 10
555.294006
 20
51.145779
 11
446.331665
 21
51.145779
  0
ARC
  8
0
  6
CONTINUOUS
 10
443.294006
 20
128.555099
 40
2.000000
 50
0.000000
 51
90.000000
  0
ARC
  8
0
  6
CONTINUOUS
 10
443.294006
 20
42.555077
 40
2.000000
 50
-90.000000
 51
0.000000
  0
LINE
  8
0
  6
CENTER
 10
408.543762
 20
98.555077
 11
338.044006
 21
98.555077
  0
LINE
  8
0
  6
CONTINUOUS
 10
381.794006
 20
98.555077
 11
381.794006
 21
34.554981
  0
LINE
  8
0
  6
CONTINUOUS
 10
381.794006
 20
98.555077
 11
381.794006
 21
162.555176
  0
LINE
  8
0
  6
CONTINUOUS
 10
107.424248
 20
45.555077
 11
107.424248
 21
49.533798
  0
LINE
  8
0
  6
CONTINUOUS
 10
17.424250
 20
45.555077
 11
17.424250
 21
49.533737
  0
LINE
  8
0
  6
CONTINUOUS
 10
22.424250
 20
40.555077
 11
25.424250
 21
40.555077
  0
LINE
  8
0
  6
CONTINUOUS
 10
102.424248
 20
40.555077
 11
99.424248
 21
40.555077
  0
ARC
  8
0
  6
CONTINUOUS
 10
22.424250
 20
45.555077
 40
5.000000
 50
180.000000
 51
270.000000
  0
ARC
  8
0
  6
CONTINUOUS
 10
102.424248
 20
45.555077
 40
5.000000
 50
-90.000000
 51
0.000000
  0
ARC
  8
0
  6
CONTINUOUS
 10
103.436653
 20
57.543118
 40
8.000000
 50
306.780975
 51
358.958740
  0
ARC
  8
0
  6
CONTINUOUS
 10
21.412050
 20
57.542858
 40
8.000000
 50
181.041107
 51
233.216995
  0
ARC
  8
0
  6
CONTINUOUS
 10
109.424248
 20
49.533817
 40
2.000000
 50
126.781197
 51
180.000000
  0
ARC
  8
0
  6
CONTINUOUS
 10
15.424250
 20
49.533737
 40
2.000000
 50
0.000000
 51
53.217121
  0
LINE
  8
0
  6
CENTER
 10
62.424252
 20
-2.773762
 11
62.424252
 21
201.750000
  0
LINE
  8
0
  6
CENTER
 10
-3.530625
 20
134.555084
 11
172.496246
 21
134.555084
  0
LINE
  8
0
  6
CONTINUOUS
 10
-0.575750
 20
14.555078
 11
34.924252
 21
14.555078
  0
LINE
  8
0
  6
CONTINUOUS
 10
3.424250
 20
29.555079
 11
21.424250
 21
29.555079
  0
LINE
  8
0
  6
CONTINUOUS
 10
121.424248
 20
29.555079
 11
103.424248
 21
29.555079
  0
LINE
  8
0
  6
CONTINUOUS
 10
26.924250
 20
162.555084
 11
97.674248
 21
162.555084
  0
LINE
  8
0
  6
CONTINUOUS
 10
96.476646
 20
188.460953
 11
62.424252
 21
189.055084
  0
LINE
  8
0
  6
CONTINUOUS
 10
28.371849
 20
188.460556
 11
62.424252
 21
189.055084
  0
LINE
  8
0
  6
CONTINUOUS
 10
99.424248
 20
185.461411
 11
99.424248
 21
14.555058
  0
LINE
  8
0
  6
CONTINUOUS
 10
25.424250
 20
185.461014
 11
25.424250
 21
14.555078
  0
LINE
  8
0
  6
CONTINUOUS
 10
9.424250
 20
104.842812
 11
9.424250
 21
164.267319
  0
LINE
  8
0
  6
CONTINUOUS
 10
115.424248
 20
164.267334
 11
115.424248
 21
104.842819
  0
LINE
  8
0
  6
CONTINUOUS
 10
16.424250
 20
64.355499
 11
16.424250
 21
137.055084
  0
LINE
  8
0
  6
CONTINUOUS
 10
108.424248
 20
64.355499
 11
108.424248
 21
137.055084
  0
LINE
  8
0
  6
CONTINUOUS
 10
125.424248
 20
26.251017
 11
125.424248
 21
14.555078
  0
LINE
  8
0
  6
CONTINUOUS
 10
-0.575750
 20
26.251017
 11
-0.575750
 21
14.555078
  0
LINE
  8
0
  6
CENTER
 10
12.424250
 20
37.555077
 11
12.424250
 21
3.201678
  0
LINE
  8
0
  6
CENTER
 10
112.424248
 20
38.055077
 11
112.424248
 21
3.201678
  0
LINE
  8
0
  6
DASHED
 10
6.924250
 20
29.555079
 11
6.924250
 21
14.555078
  0
LINE
  8
0
  6
DASHED
 10
17.924250
 20
29.555079
 11
17.924250
 21
14.555078
  0
LINE
  8
0
  6
DASHED
 10
106.924248
 20
29.555079
 11
106.924248
 21
14.555078
  0
LINE
  8
0
  6
DASHED
 10
117.924248
 20
29.555079
 11
117.924248
 21
14.555078
  0
ARC
  8
0
  6
CONTINUOUS
 10
28.424250
 20
185.461044
 40
3.000000
 50
91.000526
 51
180.000000
  0
ARC
  8
0
  6
CONTINUOUS
 10
96.424248
 20
185.461395
 40
3.000000
 50
0.000000
 51
89.000580
  0
LINE
  8
0
  6
CONTINUOUS
 10
89.924248
 20
14.555078
 11
125.424248
 21
14.555078
  0
LINE
  8
0
  6
CONTINUOUS
 10
35.924252
 20
15.555078
 11
88.924248
 21
15.555078
  0
LINE
  8
0
  6
CONTINUOUS
 10
13.070450
 20
169.080597
 11
21.777849
 21
171.529556
  0
LINE
  8
0
  6
CONTINUOUS
 10
13.070450
 20
100.029556
 11
14.236450
 21
99.701630
  0
LINE
  8
0
  6
CONTINUOUS
 10
20.086050
 20
59.537918
 11
21.762449
 21
59.072239
  0
LINE
  8
0
  6
CONTINUOUS
 10
104.762451
 20
59.537918
 11
103.086052
 21
59.072239
  0
LINE
  8
0
  6
CONTINUOUS
 10
111.777847
 20
100.029564
 11
110.612053
 21
99.701637
  0
LINE
  8
0
  6
CONTINUOUS
 10
111.777847
 20
169.080597
 11
103.070648
 21
171.529556
  0
ARC
  8
0
  6
CONTINUOUS
 10
14.424250
 20
164.267365
 40
5.000000
 50
105.709000
 51
180.000000
  0
ARC
  8
0
  6
CONTINUOUS
 10
14.424250
 20
104.842850
 40
5.000000
 50
180.000000
 51
254.291702
  0
ARC
  8
0
  6
CONTINUOUS
 10
21.424250
 20
64.355537
 40
5.000000
 50
180.000000
 51
254.476196
  0
ARC
  8
0
  6
CONTINUOUS
 10
103.424248
 20
64.355499
 40
5.000000
 50
-74.475708
 51
0.000000
  0
ARC
  8
0
  6
CONTINUOUS
 10
110.424248
 20
104.842812
 40
5.000000
 50
-74.291199
 51
0.000000
  0
ARC
  8
0
  6
CONTINUOUS
 10
110.424248
 20
164.267319
 40
5.000000
 50
0.000000
 51
74.291527
  0
ARC
  8
0
  6
CONTINUOUS
 10
111.424248
 20
96.813698
 40
3.000000
 50
105.709000
 51
180.000000
  0
ARC
  8
0
  6
CONTINUOUS
 10
13.424250
 20
96.813667
 40
3.000000
 50
0.000000
 51
74.291397
  0
ARC
  8
0
  6
CONTINUOUS
 10
20.424250
 20
176.342819
 40
5.000000
 50
-74.291199
 51
0.000000
  0
ARC
  8
0
  6
CONTINUOUS
 10
104.424248
 20
176.342834
 40
5.000000
 50
180.000000
 51
254.291702
  0
ARC
  8
0
  6
CONTINUOUS
 10
104.424248
 20
54.254677
 40
5.000000
 50
105.524399
 51
180.000000
  0
ARC
  8
0
  6
CONTINUOUS
 10
20.424250
 20
54.254639
 40
5.000000
 50
0.000000
 51
74.475952
  0
LINE
  8
0
  6
CONTINUOUS
 10
89.924248
 20
14.555078
 11
88.924248
 21
15.555078
  0
LINE
  8
0
  6
CONTINUOUS
 10
34.924252
 20
14.555078
 11
35.924252
 21
15.555078
  0
LINE
  8
0
  6
CENTER
 10
-8.574375
 20
98.555077
 11
134.163757
 21
98.555077
  0
LINE
  8
0
  6
CONTINUOUS
 10
162.424255
 20
120.555077
 11
162.424255
 21
148.555084
  0
LINE
  8
0
  6
CONTINUOUS
 10
117.424248
 20
148.555084
 11
162.424255
 21
148.555084
  0
LINE
  8
0
  6
CONTINUOUS
 10
117.424248
 20
120.555077
 11
162.424255
 21
120.555077
  0
LINE
  8
0
  6
CONTINUOUS
 10
117.424248
 20
149.555084
 11
117.424248
 21
119.555077
  0
LINE
  8
0
  6
CONTINUOUS
 10
115.424248
 20
119.555077
 11
117.424248
 21
119.555077
  0
ARC
  8
0
  6
CONTINUOUS
 10
126.424248
 20
134.555084
 40
4.000000
 50
90.000000
 51
270.000000
  0
LINE
  8
0
  6
CONTINUOUS
 10
126.424248
 20
138.555084
 11
162.424255
 21
138.555084
  0
LINE
  8
0
  6
CONTINUOUS
 10
126.424248
 20
130.555084
 11
162.424255
 21
130.555084
  0
LINE
  8
0
  6
CONTINUOUS
 10
115.424248
 20
149.555084
 11
117.424248
 21
149.555084
  0
LINE
  8
0
  6
CONTINUOUS
 10
388.294006
 20
162.555176
 11
381.794006
 21
162.555176
  0
LINE
  8
0
  6
CONTINUOUS
 10
388.294006
 20
34.554981
 11
381.794006
 21
34.554981
  0
LINE
  8
0
  6
CONTINUOUS
 10
436.294006
 20
130.555084
 11
390.294006
 21
132.161438
  0
LINE
  8
0
  6
CONTINUOUS
 10
381.794006
 20
38.651897
 11
436.294006
 21
40.555077
  0
ARC
  8
0
  6
CONTINUOUS
 10
388.293976
 20
160.555206
 40
2.000000
 50
0.000000
 51
90.000000
  0
ARC
  8
0
  6
CONTINUOUS
 10
388.294006
 20
36.554981
 40
2.000000
 50
-90.000000
 51
-0.260773
  0
LINE
  8
0
  6
CENTER
 10
625.520020
 20
85.555077
 11
338.044006
 21
85.555077
  0
LINE
  8
0
  6
CONTINUOUS
 10
436.294006
 20
130.555084
 11
436.294006
 21
40.555077
  0
LINE
  8
0
  6
CONTINUOUS
 10
391.026215
 20
138.322845
 11
396.740753
 21
132.608337
  0
LINE
  8
0
  6
CONTINUOUS
 10
359.530609
 20
316.399963
 11
240.387924
 21
316.399963
  0
ARC
  8
0
  6
CONTINUOUS
 10
240.387924
 20
319.399963
 40
3.000000
 50
181.000000
 51
270.000000
  0
LINE
  8
0
  6
CONTINUOUS
 10
254.299728
 20
311.046234
 11
253.409302
 21
314.212189
  0
ARC
  8
0
  6
CONTINUOUS
 10
250.521347
 20
313.399963
 40
3.000000
 50
15.708648
 51
90.000000
  0
ARC
  8
0
  6
CONTINUOUS
 10
367.716400
 20
299.173401
 40
3.000000
 50
181.500198
 51
257.801208
  0
LINE
  8
0
  6
CONTINUOUS
 10
364.717407
 20
299.094818
 11
364.361389
 21
312.689606
  0
ARC
  8
0
  6
CONTINUOUS
 10
366.448608
 20
293.308838
 40
3.000000
 50
15.000100
 51
77.801201
  0
LINE
  8
0
  6
CENTER
 10
627.424988
 20
353.399963
 11
221.390121
 21
353.399963
  0
LINE
  8
0
  6
CONTINUOUS
 10
348.279114
 20
416.399963
 11
299.294006
 21
416.399963
  0
LINE
  8
0
  6
CONTINUOUS
 10
236.793991
 20
353.399963
 11
237.439835
 21
316.399963
  0
LINE
  8
0
  6
CONTINUOUS
 10
245.604095
 20
293.707275
 11
237.439835
 21
316.399963
  0
ARC
  8
0
  6
CONTINUOUS
 10
250.308868
 20
295.399963
 40
5.000000
 50
199.787491
 51
270.000000
  0
LINE
  8
0
  6
CONTINUOUS
 10
236.793991
 20
353.399963
 11
237.439835
 21
390.399963
  0
LINE
  8
0
  6
CONTINUOUS
 10
245.604095
 20
413.092621
 11
237.439835
 21
390.399963
  0
ARC
  8
0
  6
CONTINUOUS
 10
250.308868
 20
411.399963
 40
5.000000
 50
90.000000
 51
160.212509
  0
LINE
  8
0
  6
CONTINUOUS
 10
359.530609
 20
316.399963
 11
240.387924
 21
316.399963
  0
LINE
  8
0
  6
CENTER
 10
299.294006
 20
432.518646
 11
299.294006
 21
242.293747
  0
ARC
  8
0
  6
CONTINUOUS
 10
240.387924
 20
319.399963
 40
3.000000
 50
181.000000
 51
270.000000
  0
ARC
  8
0
  6
CONTINUOUS
 10
240.387924
 20
387.399963
 40
3.000000
 50
90.000000
 51
179.000000
  0
LINE
  8
0
  6
CONTINUOUS
 10
359.457397
 20
390.399963
 11
240.387924
 21
390.399963
  0
LINE
  8
0
  6
CONTINUOUS
 10
269.581726
 20
300.399963
 11
329.006256
 21
300.399963
  0
LINE
  8
0
  6
CONTINUOUS
 10
264.768494
 20
304.046234
 11
263.825256
 21
307.399963
  0
ARC
  8
0
  6
CONTINUOUS
 10
269.581726
 20
305.399963
 40
5.000000
 50
195.708633
 51
270.000000
  0
LINE
  8
0
  6
CONTINUOUS
 10
263.825256
 20
307.399963
 11
259.112976
 21
307.399963
  0
ARC
  8
0
  6
CONTINUOUS
 10
259.112976
 20
312.399963
 40
5.000000
 50
195.708633
 51
270.000000
  0
LINE
  8
0
  6
CONTINUOUS
 10
333.819519
 20
304.046234
 11
334.762756
 21
307.399963
  0
ARC
  8
0
  6
CONTINUOUS
 10
329.006256
 20
305.399963
 40
5.000000
 50
270.000000
 51
344.291351
  0
LINE
  8
0
  6
CONTINUOUS
 10
334.762756
 20
307.399963
 11
339.475006
 21
307.399963
  0
LINE
  8
0
  6
CONTINUOUS
 10
344.288269
 20
311.046234
 11
345.178680
 21
314.212189
  0
ARC
  8
0
  6
CONTINUOUS
 10
339.475006
 20
312.399963
 40
5.000000
 50
270.000000
 51
344.291351
  0
ARC
  8
0
  6
CONTINUOUS
 10
348.066650
 20
313.399963
 40
3.000000
 50
90.000000
 51
164.291367
  0
LINE
  8
0
  6
CONTINUOUS
 10
269.581726
 20
406.399963
 11
329.006256
 21
406.399963
  0
LINE
  8
0
  6
CONTINUOUS
 10
264.768494
 20
402.753693
 11
263.825256
 21
399.399963
  0
ARC
  8
0
  6
CONTINUOUS
 10
269.581726
 20
401.399963
 40
5.000000
 50
90.000000
 51
164.291367
  0
LINE
  8
0
  6
CONTINUOUS
 10
263.825256
 20
399.399963
 11
259.112976
 21
399.399963
  0
LINE
  8
0
  6
CONTINUOUS
 10
254.299728
 20
395.753693
 11
253.409302
 21
392.587708
  0
ARC
  8
0
  6
CONTINUOUS
 10
259.112976
 20
394.399963
 40
5.000000
 50
90.000000
 51
164.291367
  0
ARC
  8
0
  6
CONTINUOUS
 10
250.521347
 20
393.399963
 40
3.000000
 50
-90.000000
 51
-15.708638
  0
LINE
  8
0
  6
CONTINUOUS
 10
333.819519
 20
402.753693
 11
334.762756
 21
399.399963
  0
ARC
  8
0
  6
CONTINUOUS
 10
329.006256
 20
401.399963
 40
5.000000
 50
15.708638
 51
90.000000
  0
LINE
  8
0
  6
CONTINUOUS
 10
334.762756
 20
399.399963
 11
339.475006
 21
399.399963
  0
LINE
  8
0
  6
CONTINUOUS
 10
344.288269
 20
395.753693
 11
345.178680
 21
392.587708
  0
ARC
  8
0
  6
CONTINUOUS
 10
339.475006
 20
394.399963
 40
5.000000
 50
15.708638
 51
90.000000
  0
ARC
  8
0
  6
CONTINUOUS
 10
348.066650
 20
393.399963
 40
3.000000
 50
195.708633
 51
270.000000
  0
LINE
  8
0
  6
CONTINUOUS
 10
352.983887
 20
293.707275
 11
361.061737
 21
316.159760
  0
ARC
  8
0
  6
CONTINUOUS
 10
348.279114
 20
295.399963
 40
5.000000
 50
270.000000
 51
340.212524
  0
LINE
  8
0
  6
CONTINUOUS
 10
352.983887
 20
413.092621
 11
361.045898
 21
390.684204
  0
ARC
  8
0
  6
CONTINUOUS
 10
348.279114
 20
411.399963
 40
5.000000
 50
19.787489
 51
90.000000
  0
LINE
  8
0
  6
CONTINUOUS
 10
348.279114
 20
290.399963
 11
313.294006
 21
290.399963
  0
LINE
  8
0
  6
CENTER
 10
259.294006
 20
292.286682
 11
259.294006
 21
311.728088
  0
LINE
  8
0
  6
CENTER
 10
269.204895
 20
303.399963
 11
250.686325
 21
303.399963
  0
ARC
  8
0
  6
CONTINUOUS
 10
259.294006
 20
303.399963
 40
5.500000
 50
-239.465683
 51
7.598493
  0
ARC
  8
0
  6
CONTINUOUS
 10
339.294006
 20
303.399963
 40
5.500000
 50
-187.598602
 51
59.465683
  0
LINE
  8
0
  6
CENTER
 10
339.294006
 20
292.286682
 11
339.294006
 21
311.728088
  0
LINE
  8
0
  6
CENTER
 10
329.383118
 20
303.399963
 11
347.901672
 21
303.399963
  0
ARC
  8
0
  6
CONTINUOUS
 10
339.294006
 20
403.399963
 40
5.500000
 50
-59.465683
 51
187.598602
  0
LINE
  8
0
  6
CENTER
 10
329.383118
 20
403.399963
 11
347.901672
 21
403.399963
  0
LINE
  8
0
  6
CENTER
 10
339.294006
 20
414.513245
 11
339.294006
 21
395.071838
  0
LINE
  8
0
  6
CENTER
 10
259.294006
 20
414.513245
 11
259.294006
 21
395.071838
  0
LINE
  8
0
  6
CENTER
 10
269.204895
 20
403.399963
 11
250.686325
 21
403.399963
  0
ARC
  8
0
  6
CONTINUOUS
 10
259.294006
 20
403.399963
 40
5.500000
 50
-7.598608
 51
239.465683
  0
LINE
  8
0
  6
CONTINUOUS
 10
275.294006
 20
387.399963
 11
275.294006
 21
319.399963
  0
LINE
  8
0
  6
CONTINUOUS
 10
323.294006
 20
387.399963
 11
323.294006
 21
319.399963
  0
LINE
  8
0
  6
CONTINUOUS
 10
364.213715
 20
394.105865
 11
369.462341
 21
413.694031
  0
LINE
  8
0
  6
CONTINUOUS
 10
364.717407
 20
408.251984
 11
364.361389
 21
394.657196
  0
ARC
  8
0
  6
CONTINUOUS
 10
367.716400
 20
408.173401
 40
3.000000
 50
102.198799
 51
178.499802
  0
ARC
  8
0
  6
CONTINUOUS
 10
366.448608
 20
414.037994
 40
3.000000
 50
282.198792
 51
345.000031
  0
ARC
  8
0
  6
CONTINUOUS
 10
367.716400
 20
299.173401
 40
3.000000
 50
181.500198
 51
257.801208
  0
LINE
  8
0
  6
CONTINUOUS
 10
364.717407
 20
299.094818
 11
364.361389
 21
312.689606
  0
ARC
  8
0
  6
CONTINUOUS
 10
366.448608
 20
293.308838
 40
3.000000
 50
15.000100
 51
77.801201
  0
LINE
  8
0
  6
CONTINUOUS
 10
374.365204
 20
289.399963
 11
381.794006
 21
289.399963
  0
LINE
  8
0
  6
CONTINUOUS
 10
369.608826
 20
293.105865
 11
364.286987
 21
312.967438
  0
ARC
  8
0
  6
CONTINUOUS
 10
359.384064
 20
395.399963
 40
5.000000
 50
270.000000
 51
345.000031
  0
ARC
  8
0
  6
CONTINUOUS
 10
359.530609
 20
311.399963
 40
5.000000
 50
14.999843
 51
90.000000
  0
LINE
  8
0
  6
CONTINUOUS
 10
282.294006
 20
253.399948
 11
313.294006
 21
253.399948
  0
LINE
  8
0
  6
CONTINUOUS
 10
313.294006
 20
298.399963
 11
313.294006
 21
253.399948
  0
LINE
  8
0
  6
CONTINUOUS
 10
285.294006
 20
298.399963
 11
285.294006
 21
293.399963
  0
LINE
  8
0
  6
CONTINUOUS
 10
314.294006
 20
298.399963
 11
284.294006
 21
298.399963
  0
LINE
  8
0
  6
CONTINUOUS
 10
284.294006
 20
300.399963
 11
284.294006
 21
298.399963
  0
LINE
  8
0
  6
CONTINUOUS
 10
314.294006
 20
300.399963
 11
314.294006
 21
298.399963
  0
LINE
  8
0
  6
CONTINUOUS
 10
282.294006
 20
290.399963
 11
250.308868
 21
290.399963
  0
LINE
  8
0
  6
CONTINUOUS
 10
285.877594
 20
293.399963
 11
282.294006
 21
293.399963
  0
LINE
  8
0
  6
CONTINUOUS
 10
285.877594
 20
293.399963
 11
285.877594
 21
253.399948
  0
LINE
  8
0
  6
CONTINUOUS
 10
282.294006
 20
253.399948
 11
282.294006
 21
293.399963
  0
LINE
  8
0
  6
CONTINUOUS
 10
299.294006
 20
416.399963
 11
250.308868
 21
416.399963
  0
LINE
  8
0
  6
CONTINUOUS
 10
381.794006
 20
417.399963
 11
374.291962
 21
417.399963
  0
ARC
  8
0
  6
CONTINUOUS
 10
374.291962
 20
412.399963
 40
5.000000
 50
90.000000
 51
165.000031
  0
ARC
  8
0
  6
CONTINUOUS
 10
374.438477
 20
294.399963
 40
5.000000
 50
194.999847
 51
270.000000
  0
LINE
  8
0
  6
CONTINUOUS
 10
361.794006
 20
353.399963
 11
361.199615
 21
319.347595
  0
LINE
  8
0
  6
CONTINUOUS
 10
361.794006
 20
353.399963
 11
361.199615
 21
387.452301
  0
ARC
  8
0
  6
CONTINUOUS
 10
358.200073
 20
319.399963
 40
3.000000
 50
270.000000
 51
359.000000
  0
ARC
  8
0
  6
CONTINUOUS
 10
358.200073
 20
387.399963
 40
3.000000
 50
1.000000
 51
90.000000
  0
LINE
  8
0
  6
CONTINUOUS
 10
2.668860
 20
30.179052
 11
22.179638
 21
33.931114
  0
ARC
  8
0
  6
CONTINUOUS
 10
62.424252
 20
98.555077
 40
64.000099
 50
-54.681290
 51
20.105476
  0
ARC
  8
0
  6
CONTINUOUS
 10
62.424252
 20
98.555077
 40
64.000099
 50
145.906479
 51
234.681290
  0
ARC
  8
0
  6
CONTINUOUS
 10
3.424250
 20
25.555079
 40
4.000000
 50
90.000000
 51
180.000000
  0
ARC
  8
0
  6
CONTINUOUS
 10
3.424250
 20
26.251017
 40
4.000000
 50
100.885529
 51
180.000000
  0
ARC
  8
0
  6
CONTINUOUS
 10
21.424250
 20
37.859142
 40
4.000000
 50
-79.114502
 51
0.000000
  0
ARC
  8
0
  6
CONTINUOUS
 10
21.424250
 20
33.555077
 40
4.000000
 50
-90.000000
 51
0.000000
  0
LINE
  8
0
  6
CONTINUOUS
 10
122.179642
 20
30.179052
 11
102.668861
 21
33.931114
  0
ARC
  8
0
  6
CONTINUOUS
 10
121.424248
 20
25.555079
 40
4.000000
 50
0.000000
 51
90.000000
  0
ARC
  8
0
  6
CONTINUOUS
 10
121.424248
 20
26.251017
 40
4.000000
 50
0.000000
 51
79.114471
  0
ARC
  8
0
  6
CONTINUOUS
 10
103.424248
 20
37.859142
 40
4.000000
 50
180.000000
 51
259.114502
  0
ARC
  8
0
  6
CONTINUOUS
 10
103.424248
 20
33.555077
 40
4.000000
 50
180.000000
 51
270.000000
  0
LINE
  8
0
  6
CONTINUOUS
 10
381.794006
 20
289.399963
 11
381.794006
 21
417.399963
  0
LINE
  8
0
  6
CONTINUOUS
 10
436.294006
 20
65.049080
 11
392.294006
 21
65.049080
  0
LINE
  8
0
  6
CONTINUOUS
 10
436.294006
 20
50.036079
 11
381.794006
 21
50.036079
  0
LINE
  8
0
  6
CONTINUOUS
 10
389.726013
 20
57.988079
 11
381.794006
 21
57.988079
  0
LINE
  8
0
  6
CONTINUOUS
 10
390.294006
 20
59.202812
 11
390.294006
 21
160.555206
  0
ARC
  8
0
  6
CONTINUOUS
 10
392.793945
 20
36.534500
 40
2.500000
 50
92.000000
 51
179.739227
  0
ARC
  8
0
  6
CONTINUOUS
 10
392.794006
 20
140.090607
 40
2.500000
 50
180.000000
 51
225.000000
  0
ARC
  8
0
  6
CONTINUOUS
 10
398.508514
 20
134.376099
 40
2.500000
 50
-135.000000
 51
-92.000000
  0
LINE
  8
0
  6
CONTINUOUS
 10
390.294006
 20
415.399963
 11
390.294006
 21
291.399963
  0
LINE
  8
0
  6
CONTINUOUS
 10
436.294006
 20
308.399963
 11
392.730377
 21
306.878662
  0
LINE
  8
0
  6
CONTINUOUS
 10
436.294006
 20
398.399963
 11
392.730377
 21
399.921234
  0
LINE
  8
0
  6
CONTINUOUS
 10
436.294006
 20
304.387939
 11
436.294006
 21
402.411957
  0
LINE
  8
0
  6
CONTINUOUS
 10
388.294006
 20
289.399963
 11
381.794006
 21
289.399963
  0
LINE
  8
0
  6
CONTINUOUS
 10
388.294006
 20
417.399963
 11
381.794006
 21
417.399963
  0
LINE
  8
0
  6
CONTINUOUS
 10
397.436981
 20
329.399963
 11
390.322021
 21
329.399963
  0
LINE
  8
0
  6
CONTINUOUS
 10
396.831848
 20
377.399963
 11
390.322021
 21
377.399963
  0
LINE
  8
0
  6
CONTINUOUS
 10
397.436981
 20
331.604462
 11
397.436981
 21
375.317017
  0
LINE
  8
0
  6
CONTINUOUS
 10
445.294006
 20
310.399963
 11
445.294006
 21
324.399963
  0
LINE
  8
0
  6
CONTINUOUS
 10
555.294006
 20
308.399963
 11
436.294006
 21
308.399963
  0
LINE
  8
0
  6
CONTINUOUS
 10
555.294006
 20
398.399963
 11
436.294006
 21
398.399963
  0
LINE
  8
0
  6
CONTINUOUS
 10
555.294006
 20
324.399963
 11
445.294006
 21
324.399963
  0
LINE
  8
0
  6
CONTINUOUS
 10
555.294006
 20
382.399963
 11
445.294006
 21
382.399963
  0
ARC
  8
0
  6
CONTINUOUS
 10
443.294006
 20
310.399933
 40
2.000000
 50
-90.000000
 51
0.000000
  0
ARC
  8
0
  6
CONTINUOUS
 10
443.294006
 20
396.399963
 40
2.000000
 50
0.000000
 51
90.000000
  0
LINE
  8
0
  6
CONTINUOUS
 10
436.294006
 20
308.399963
 11
436.294006
 21
398.399963
  0
ARC
  8
0
  6
CONTINUOUS
 10
388.294006
 20
291.399963
 40
2.000000
 50
-90.000000
 51
0.000000
  0
ARC
  8
0
  6
CONTINUOUS
 10
388.294006
 20
415.399963
 40
2.000000
 50
0.000000
 51
90.000000
  0
ARC
  8
0
  6
CONTINUOUS
 10
392.817627
 20
304.380188
 40
2.500000
 50
92.000000
 51
179.895706
  0
ARC
  8
0
  6
CONTINUOUS
 10
392.817627
 20
402.419708
 40
2.500000
 50
180.104294
 51
268.000000
  0
LINE
  8
0
  6
CONTINUOUS
 10
390.294006
 20
306.793610
 11
390.322021
 21
306.794586
  0
LINE
  8
0
  6
CONTINUOUS
 10
435.794312
 20
303.870514
 11
390.294006
 21
302.281586
  0
LINE
  8
0
  6
CONTINUOUS
 10
436.294006
 20
304.387939
 11
435.794312
 21
303.870514
  0
LINE
  8
0
  6
CONTINUOUS
 10
435.794312
 20
402.929413
 11
390.294006
 21
404.518311
  0
LINE
  8
0
  6
CONTINUOUS
 10
436.294006
 20
402.411957
 11
435.794312
 21
402.929413
  0
LINE
  8
0
  6
CONTINUOUS
 10
236.793991
 20
159.926697
 11
236.793991
 21
14.555078
  0
LINE
  8
0
  6
CONTINUOUS
 10
361.794006
 20
14.555078
 11
236.793991
 21
14.555078
  0
LINE
  8
0
  6
CENTER
 10
352.558136
 20
134.555084
 11
247.648132
 21
134.555084
  0
LINE
  8
0
  6
CENTER
 10
299.294006
 20
200.236877
 11
299.294006
 21
3.805078
  0
LINE
  8
0
  6
CONTINUOUS
 10
321.739594
 20
189.055038
 11
276.848389
 21
189.055038
  0
LINE
  8
0
  6
CONTINUOUS
 10
274.013611
 20
188.173737
 11
238.959198
 21
164.045319
  0
LINE
  8
0
  6
CONTINUOUS
 10
358.794006
 20
29.555079
 11
239.793991
 21
29.555079
  0
LINE
  8
0
  6
CONTINUOUS
 10
246.793991
 20
28.017580
 11
246.793991
 21
14.555078
  0
LINE
  8
0
  6
CONTINUOUS
 10
350.794006
 20
28.017580
 11
350.794006
 21
14.555078
  0
LINE
  8
0
  6
CENTER
 10
259.294006
 20
36.805077
 11
259.294006
 21
7.805078
  0
LINE
  8
0
  6
CENTER
 10
339.294006
 20
36.805077
 11
339.294006
 21
9.055078
  0
LINE
  8
0
  6
DASHED
 10
253.793991
 20
29.555079
 11
253.793991
 21
14.555078
  0
LINE
  8
0
  6
DASHED
 10
264.794006
 20
29.555079
 11
264.794006
 21
14.555078
  0
LINE
  8
0
  6
DASHED
 10
333.794006
 20
29.555079
 11
333.794006
 21
14.555078
  0
LINE
  8
0
  6
DASHED
 10
344.794006
 20
29.555079
 11
344.794006
 21
14.555078
  0
ARC
  8
0
  6
CONTINUOUS
 10
319.294006
 20
84.555077
 40
26.500000
 50
-90.000000
 51
9.470901
  0
ARC
  8
0
  6
CONTINUOUS
 10
279.294006
 20
84.555077
 40
26.500000
 50
170.529099
 51
270.000000
  0
LINE
  8
0
  6
CONTINUOUS
 10
345.432800
 20
88.915550
 11
336.776001
 21
140.807800
  0
LINE
  8
0
  6
CONTINUOUS
 10
261.811981
 20
140.807922
 11
253.155197
 21
88.915581
  0
LINE
  8
0
  6
CONTINUOUS
 10
319.294006
 20
58.055077
 11
279.294006
 21
58.055077
  0
ARC
  8
0
  6
CONTINUOUS
 10
241.793991
 20
159.926636
 40
5.000000
 50
124.539902
 51
180.000000
  0
ARC
  8
0
  6
CONTINUOUS
 10
276.848389
 20
184.055038
 40
5.000000
 50
90.000000
 51
124.539902
  0
ARC
  8
0
  6
CONTINUOUS
 10
321.705597
 20
184.055038
 40
5.000000
 50
88.961128
 51
90.000000
  0
LINE
  8
0
  6
CONTINUOUS
 10
361.794006
 20
14.555078
 11
361.794006
 21
46.955097
  0
ARC
  8
0
  6
CONTINUOUS
 10
319.294006
 20
84.555077
 40
24.000000
 50
-90.000000
 51
9.470790
  0
ARC
  8
0
  6
CONTINUOUS
 10
279.294006
 20
84.555077
 40
24.000000
 50
170.528992
 51
271.534393
  0
LINE
  8
0
  6
CONTINUOUS
 10
319.294006
 20
60.555077
 11
279.294006
 21
60.555077
  0
CIRCLE
  8
0
  6
CONTINUOUS
 10
299.294006
 20
134.555084
 40
33.500000
  0
ARC
  8
0
  6
CONTINUOUS
 10
299.294006
 20
134.555084
 40
38.000000
 50
9.471016
 51
170.529007
  0
ARC
  8
0
  6
CONTINUOUS
 10
299.294006
 20
134.555084
 40
35.500000
 50
-189.597305
 51
7.618591
  0
LINE
  8
0
  6
CONTINUOUS
 10
342.966797
 20
88.504173
 11
334.310211
 21
140.396484
  0
LINE
  8
0
  6
CONTINUOUS
 10
264.277985
 20
140.396515
 11
255.621201
 21
88.504234
  0
LINE
  8
0
  6
CONTINUOUS
 10
363.348358
 20
162.555176
 11
381.794006
 21
162.555176
  0
LINE
  8
0
  6
CONTINUOUS
 10
381.794006
 20
34.554981
 11
366.794006
 21
34.554981
  0
LINE
  8
0
  6
CONTINUOUS
 10
360.513458
 20
163.436523
 11
324.574402
 21
188.173706
  0
ARC
  8
0
  6
CONTINUOUS
 10
321.739594
 20
184.055038
 40
5.000000
 50
55.459671
 51
90.000000
  0
ARC
  8
0
  6
CONTINUOUS
 10
356.794006
 20
159.926682
 40
5.000000
 50
0.000000
 51
55.459560
  0
ARC
  8
0
  6
CONTINUOUS
 10
366.794006
 20
29.554962
 40
5.000000
 50
90.000000
 51
180.000000
  0
ARC
  8
0
  6
CONTINUOUS
 10
358.794006
 20
26.555099
 40
3.000000
 50
0.000000
 51
90.000000
  0
ARC
  8
0
  6
CONTINUOUS
 10
239.793991
 20
26.555079
 40
3.000000
 50
90.000000
 51
180.000000
  0
LINE
  8
0
  6
CONTINUOUS
 10
288.997589
 20
70.555077
 11
284.837189
 21
70.555077
  0
LINE
  8
0
  6
CONTINUOUS
 10
291.294006
 20
77.523819
 11
291.294006
 21
70.555077
  0
LINE
  8
0
  6
CONTINUOUS
 10
295.294006
 20
80.055077
 11
295.294006
 21
82.555077
  0
LINE
  8
0
  6
CONTINUOUS
 10
303.294006
 20
80.055077
 11
303.294006
 21
82.555077
  0
LINE
  8
0
  6
CONTINUOUS
 10
298.512787
 20
81.086327
 11
298.512787
 21
71.867577
  0
LINE
  8
0
  6
CONTINUOUS
 10
300.012787
 20
81.086327
 11
300.012787
 21
71.867577
  0
LINE
  8
0
  6
CONTINUOUS
 10
307.887787
 20
81.086327
 11
307.887787
 21
71.805077
  0
LINE
  8
0
  6
CONTINUOUS
 10
309.262787
 20
76.164459
 11
309.262787
 21
71.805077
  0
LINE
  8
0
  6
CONTINUOUS
 10
289.395996
 20
80.961327
 11
285.540985
 21
80.961327
  0
LINE
  8
0
  6
CONTINUOUS
 10
285.540985
 20
80.961327
 11
284.637787
 21
79.841331
  0
LINE
  8
0
  6
CONTINUOUS
 10
284.746399
 20
82.555077
 11
283.294006
 21
80.695320
  0
LINE
  8
0
  6
CONTINUOUS
 10
284.637787
 20
72.928001
 11
285.555389
 21
71.961319
  0
LINE
  8
0
  6
CONTINUOUS
 10
283.294006
 20
72.112236
 11
284.837189
 21
70.555077
  0
LINE
  8
0
  6
CONTINUOUS
 10
283.294006
 20
80.695320
 11
283.294006
 21
72.112236
  0
LINE
  8
0
  6
CONTINUOUS
 10
284.637787
 20
79.841331
 11
284.637787
 21
72.928001
  0
LINE
  8
0
  6
CONTINUOUS
 10
290.137787
 20
80.244225
 11
289.380798
 21
80.961327
  0
LINE
  8
0
  6
CONTINUOUS
 10
290.125793
 20
82.555077
 11
291.294006
 21
81.258591
  0
LINE
  8
0
  6
CONTINUOUS
 10
290.137787
 20
80.055077
 11
291.294006
 21
80.055077
  0
LINE
  8
0
  6
CONTINUOUS
 10
284.746399
 20
82.555077
 11
290.125793
 21
82.555077
  0
LINE
  8
0
  6
CONTINUOUS
 10
288.044006
 20
77.523819
 11
291.294006
 21
77.523819
  0
LINE
  8
0
  6
CONTINUOUS
 10
290.137787
 20
76.211319
 11
288.044006
 21
76.211319
  0
LINE
  8
0
  6
CONTINUOUS
 10
287.637787
 20
71.961319
 11
285.555389
 21
71.961319
  0
LINE
  8
0
  6
CONTINUOUS
 10
290.137787
 20
74.961319
 11
290.137787
 21
75.961319
  0
ARC
  8
0
  6
CONTINUOUS
 10
287.637787
 20
74.461319
 40
2.500000
 50
-89.999786
 51
0.000109
  0
LINE
  8
0
  6
CONTINUOUS
 10
290.137787
 20
71.511635
 11
290.137787
 21
70.555077
  0
LINE
  8
0
  6
CONTINUOUS
 10
291.294006
 20
81.258591
 11
291.294006
 21
80.055077
  0
LINE
  8
0
  6
CONTINUOUS
 10
290.137787
 20
76.211319
 11
290.137787
 21
74.461319
  0
LINE
  8
0
  6
CONTINUOUS
 10
288.044006
 20
77.523819
 11
288.044006
 21
76.211319
  0
LINE
  8
0
  6
CONTINUOUS
 10
290.137787
 20
70.555077
 11
291.294006
 21
70.555077
  0
LINE
  8
0
  6
CONTINUOUS
 10
290.137787
 20
71.511635
 11
288.997589
 21
70.555077
  0
LINE
  8
0
  6
CONTINUOUS
 10
300.012787
 20
71.867577
 11
300.512787
 21
71.867577
  0
LINE
  8
0
  6
CONTINUOUS
 10
297.919006
 20
71.867577
 11
297.919006
 21
70.555077
  0
LINE
  8
0
  6
CONTINUOUS
 10
300.512787
 20
71.867577
 11
300.512787
 21
70.555077
  0
LINE
  8
0
  6
CONTINUOUS
 10
302.459595
 20
80.055077
 11
303.294006
 21
80.055077
  0
LINE
  8
0
  6
CONTINUOUS
 10
295.294006
 20
80.055077
 11
296.182007
 21
80.055077
  0
LINE
  8
0
  6
CONTINUOUS
 10
295.294006
 20
82.555077
 11
303.294006
 21
82.555077
  0
LINE
  8
0
  6
CONTINUOUS
 10
297.919006
 20
70.555077
 11
300.512787
 21
70.555077
  0
LINE
  8
0
  6
CONTINUOUS
 10
297.919006
 20
71.867577
 11
298.512787
 21
71.867577
  0
ARC
  8
0
  6
CONTINUOUS
 10
312.091003
 20
79.351952
 40
3.203128
 50
-73.981873
 51
90.003510
  0
ARC
  8
0
  6
CONTINUOUS
 10
312.091003
 20
79.351952
 40
1.954124
 50
-82.585274
 51
62.411850
  0
LINE
  8
0
  6
CONTINUOUS
 10
307.294006
 20
82.555077
 11
312.091003
 21
82.555077
  0
LINE
  8
0
  6
CONTINUOUS
 10
312.342987
 20
77.414162
 11
309.262787
 21
77.414162
  0
LINE
  8
0
  6
CONTINUOUS
 10
307.294006
 20
82.555077
 11
307.294006
 21
81.086327
  0
LINE
  8
0
  6
CONTINUOUS
 10
309.262787
 20
81.086327
 11
309.262787
 21
77.414162
  0
LINE
  8
0
  6
CONTINUOUS
 10
312.974792
 20
76.273201
 11
314.957397
 21
71.805077
  0
LINE
  8
0
  6
CONTINUOUS
 10
311.823181
 20
76.164459
 11
313.699402
 21
71.805077
  0
LINE
  8
0
  6
CONTINUOUS
 10
307.294006
 20
71.805077
 11
307.887787
 21
71.805077
  0
LINE
  8
0
  6
CONTINUOUS
 10
309.262787
 20
71.805077
 11
309.809601
 21
71.805077
  0
LINE
  8
0
  6
CONTINUOUS
 10
309.809601
 20
70.555077
 11
307.294006
 21
70.555077
  0
LINE
  8
0
  6
CONTINUOUS
 10
313.450195
 20
71.805077
 11
313.699402
 21
71.805077
  0
LINE
  8
0
  6
CONTINUOUS
 10
314.957397
 20
71.805077
 11
315.294006
 21
71.805077
  0
LINE
  8
0
  6
CONTINUOUS
 10
313.450195
 20
70.555077
 11
315.294006
 21
70.555077
  0
LINE
  8
0
  6
CONTINUOUS
 10
315.294006
 20
71.805077
 11
315.294006
 21
70.555077
  0
LINE
  8
0
  6
CONTINUOUS
 10
313.450195
 20
71.805077
 11
313.450195
 21
70.555077
  0
LINE
  8
0
  6
CONTINUOUS
 10
309.809601
 20
71.805077
 11
309.809601
 21
70.555077
  0
LINE
  8
0
  6
CONTINUOUS
 10
307.294006
 20
71.805077
 11
307.294006
 21
70.555077
  0
LINE
  8
0
  6
CONTINUOUS
 10
296.611786
 20
81.086327
 11
296.182007
 21
80.055077
  0
LINE
  8
0
  6
CONTINUOUS
 10
302.097198
 20
81.086327
 11
302.459595
 21
80.055077
  0
LINE
  8
0
  6
CONTINUOUS
 10
300.012787
 20
81.086327
 11
302.097198
 21
81.086327
  0
LINE
  8
0
  6
CONTINUOUS
 10
298.512787
 20
81.086327
 11
296.611786
 21
81.086327
  0
LINE
  8
0
  6
CONTINUOUS
 10
309.262787
 20
76.164459
 11
311.823181
 21
76.164459
  0
LINE
  8
0
  6
CONTINUOUS
 10
307.294006
 20
81.086327
 11
307.887787
 21
81.086327
  0
LINE
  8
0
  6
CONTINUOUS
 10
309.262787
 20
81.086327
 11
312.995789
 21
81.083900
  0
LINE
  8
0
  6
CONTINUOUS
 10
290.137787
 20
80.244225
 11
290.137787
 21
80.055077
  0
ARC
  8
0
  6
CONTINUOUS
 10
299.294006
 20
112.555084
 40
73.000000
 50
47.590931
 51
132.409302
  0
ARC
  8
0
  6
CONTINUOUS
 10
299.294006
 20
112.555084
 40
73.000000
 50
227.591095
 51
312.409393
  0
LINE
  8
0
  6
CONTINUOUS
 10
358.294006
 20
144.304092
 11
358.294006
 21
80.806068
  0
LINE
  8
0
  6
CONTINUOUS
 10
240.293991
 20
144.304092
 11
240.293991
 21
80.806068
  0
ARC
  8
0
  6
CONTINUOUS
 10
328.294006
 20
144.304092
 40
30.000000
 50
0.000000
 51
47.590950
  0
ARC
  8
0
  6
CONTINUOUS
 10
328.294006
 20
80.806068
 40
30.000000
 50
-47.590061
 51
0.000000
  0
ARC
  8
0
  6
CONTINUOUS
 10
270.294006
 20
144.304092
 40
30.000000
 50
132.409500
 51
180.000000
  0
ARC
  8
0
  6
CONTINUOUS
 10
270.294006
 20
80.806068
 40
30.000000
 50
180.000000
 51
227.591400
  0
LINE
  8
0
  6
CONTINUOUS
 10
289.294006
 20
138.555084
 11
289.294006
 21
130.555084
  0
LINE
  8
0
  6
CONTINUOUS
 10
282.294006
 20
138.555084
 11
282.294006
 21
130.555084
  0
LINE
  8
0
  6
CONTINUOUS
 10
282.294006
 20
138.555084
 11
289.294006
 21
138.555084
  0
LINE
  8
0
  6
CONTINUOUS
 10
282.294006
 20
130.555084
 11
289.294006
 21
130.555084
  0
ARC
  8
0
  6
CONTINUOUS
 10
299.294006
 20
134.555084
 40
14.000000
 50
-163.398499
 51
163.398499
  0
LINE
  8
0
  6
CONTINUOUS
 10
279.294006
 20
34.185852
 11
279.294006
 21
29.555079
  0
LINE
  8
0
  6
CONTINUOUS
 10
280.735870
 20
34.555077
 11
317.852112
 21
34.555077
  0
LINE
  8
0
  6
CONTINUOUS
 10
278.393250
 20
33.429153
 11
276.194763
 21
30.681004
  0
ARC
  8
0
  6
CONTINUOUS
 10
273.852142
 20
32.555077
 40
3.000000
 50
270.000000
 51
321.340454
  0
ARC
  8
0
  6
CONTINUOUS
 10
280.735870
 20
31.555079
 40
3.000000
 50
90.000000
 51
141.340454
  0
LINE
  8
0
  6
CONTINUOUS
 10
319.294006
 20
34.185852
 11
319.294006
 21
29.555079
  0
LINE
  8
0
  6
CONTINUOUS
 10
320.194733
 20
33.429153
 11
322.393219
 21
30.681004
  0
ARC
  8
0
  6
CONTINUOUS
 10
324.735840
 20
32.555077
 40
3.000000
 50
-141.340454
 51
-90.000000
  0
ARC
  8
0
  6
CONTINUOUS
 10
317.852112
 20
31.555079
 40
3.000000
 50
38.659546
 51
90.000000
  0
LINE
  8
0
  6
CONTINUOUS
 10
363.294006
 20
150.155075
 11
363.294006
 21
46.955097
  0
LINE
  8
0
  6
CONTINUOUS
 10
363.294006
 20
150.155075
 11
361.794006
 21
150.155075
  0
LINE
  8
0
  6
CONTINUOUS
 10
363.294006
 20
46.955097
 11
361.794006
 21
46.955097
  0
ARC
  8
0
  6
CONTINUOUS
 10
179.340790
 20
98.555077
 40
191.053177
 50
-15.669100
 51
15.669100
  0
ARC
  8
0
  6
CONTINUOUS
 10
179.340790
 20
98.555077
 40
190.053177
 50
-1.478500
 51
1.451400
  0
LINE
  8
0
  6
CONTINUOUS
 10
367.294006
 20
103.555077
 11
368.298798
 21
103.555077
  0
LINE
  8
0
  6
CONTINUOUS
 10
364.794006
 20
101.055077
 11
364.794006
 21
96.055077
  0
ARC
  8
0
  6
CONTINUOUS
 10
368.298798
 20
104.553474
 40
1.000000
 50
-90.000000
 51
1.817900
  0
ARC
  8
0
  6
CONTINUOUS
 10
367.294006
 20
101.055077
 40
2.500000
 50
90.000000
 51
180.000000
  0
LINE
  8
0
  6
CONTINUOUS
 10
367.294006
 20
93.555077
 11
368.298798
 21
93.555077
  0
ARC
  8
0
  6
CONTINUOUS
 10
368.298798
 20
92.556679
 40
1.000000
 50
-1.817900
 51
90.000000
  0
ARC
  8
0
  6
CONTINUOUS
 10
367.294006
 20
96.055077
 40
2.500000
 50
180.000000
 51
270.000000
  0
LINE
  8
0
  6
CONTINUOUS
 10
361.794006
 20
150.155075
 11
361.794006
 21
159.926666
  0
ARC
  8
0
  6
CONTINUOUS
 10
363.348358
 20
167.555176
 40
5.000000
 50
235.460007
 51
270.000000
  0
LINE
  8
0
  6
CONTINUOUS
 10
564.794006
 20
308.399963
 11
555.294006
 21
308.399963
  0
LINE
  8
0
  6
CONTINUOUS
 10
555.294006
 20
324.399963
 11
564.794006
 21
324.399963
  0
LINE
  8
0
  6
CONTINUOUS
 10
564.794006
 20
398.399963
 11
555.294006
 21
398.399963
  0
LINE
  8
0
  6
CONTINUOUS
 10
555.294006
 20
398.399963
 11
555.294006
 21
360.265961
  0
LINE
  8
0
  6
CONTINUOUS
 10
555.294006
 20
382.399963
 11
564.794006
 21
382.399963
  0
LINE
  8
0
  6
CONTINUOUS
 10
561.794006
 20
359.399963
 11
561.794006
 21
347.399963
  0
LINE
  8
0
  6
CONTINUOUS
 10
554.794006
 20
359.399963
 11
554.794006
 21
347.399963
  0
LINE
  8
0
  6
CONTINUOUS
 10
560.794006
 20
346.399963
 11
555.794006
 21
346.399963
  0
LINE
  8
0
  6
CONTINUOUS
 10
555.794006
 20
360.399963
 11
560.794006
 21
360.399963
  0
ARC
  8
0
  6
CONTINUOUS
 10
555.794006
 20
347.399963
 40
1.000000
 50
180.000000
 51
270.000000
  0
ARC
  8
0
  6
CONTINUOUS
 10
560.794006
 20
347.399963
 40
1.000000
 50
-90.000000
 51
0.000000
  0
ARC
  8
0
  6
CONTINUOUS
 10
560.794006
 20
359.399963
 40
1.000000
 50
0.000000
 51
90.000000
  0
ARC
  8
0
  6
CONTINUOUS
 10
555.794006
 20
359.399963
 40
1.000000
 50
90.000000
 51
180.000000
  0
LINE
  8
0
  6
CONTINUOUS
 10
557.294006
 20
356.899963
 11
557.294006
 21
349.899963
  0
LINE
  8
0
  6
CONTINUOUS
 10
559.294006
 20
356.899963
 11
559.294006
 21
349.899963
  0
ARC
  8
0
  6
CONTINUOUS
 10
558.294006
 20
349.899963
 40
1.000000
 50
-90.000000
 51
0.000000
  0
ARC
  8
0
  6
CONTINUOUS
 10
558.294006
 20
349.899963
 40
1.000000
 50
180.000000
 51
270.000000
  0
ARC
  8
0
  6
CONTINUOUS
 10
558.294006
 20
356.899963
 40
1.000000
 50
0.000000
 51
90.000000
  0
ARC
  8
0
  6
CONTINUOUS
 10
558.294006
 20
356.899963
 40
1.000000
 50
90.000000
 51
180.000000
  0
LINE
  8
0
  6
CONTINUOUS
 10
555.294006
 20
346.533936
 11
555.294006
 21
308.399963
  0
LINE
  8
0
  6
CONTINUOUS
 10
564.794006
 20
306.399963
 11
564.794006
 21
400.399963
  0
LINE
  8
0
  6
CONTINUOUS
 10
564.794006
 20
324.399963
 11
608.769043
 21
324.399963
  0
LINE
  8
0
  6
CONTINUOUS
 10
564.794006
 20
382.399963
 11
608.769043
 21
382.399963
  0
LINE
  8
0
  6
CONTINUOUS
 10
607.294006
 20
306.399963
 11
564.794006
 21
306.399963
  0
LINE
  8
0
  6
CONTINUOUS
 10
607.294006
 20
400.399963
 11
564.794006
 21
400.399963
  0
ARC
  8
0
  6
CONTINUOUS
 10
607.294006
 20
311.399963
 40
5.000000
 50
-90.000000
 51
0.000000
  0
ARC
  8
0
  6
CONTINUOUS
 10
607.294006
 20
395.399963
 40
5.000000
 50
0.000000
 51
90.000000
  0
LINE
  8
0
  6
CONTINUOUS
 10
612.294006
 20
311.399963
 11
612.294006
 21
395.399963
  0
LINE
  8
0
  6
CONTINUOUS
 10
564.794006
 20
130.555084
 11
555.294006
 21
130.555084
  0
LINE
  8
0
  6
CONTINUOUS
 10
555.294006
 20
119.964378
 11
564.794006
 21
119.964378
  0
LINE
  8
0
  6
CONTINUOUS
 10
564.794006
 20
40.555077
 11
555.294006
 21
40.555077
  0
LINE
  8
0
  6
CONTINUOUS
 10
555.294006
 20
51.145786
 11
564.794006
 21
51.145786
  0
LINE
  8
0
  6
CONTINUOUS
 10
564.794006
 20
132.555084
 11
564.794006
 21
38.555077
  0
LINE
  8
0
  6
CONTINUOUS
 10
564.794006
 20
114.555077
 11
608.769043
 21
114.555077
  0
LINE
  8
0
  6
CONTINUOUS
 10
564.794006
 20
56.555077
 11
608.769043
 21
56.555077
  0
LINE
  8
0
  6
CONTINUOUS
 10
554.794006
 20
132.055084
 11
554.794006
 21
130.555084
  0
LINE
  8
0
  6
CONTINUOUS
 10
561.794006
 20
132.055084
 11
561.794006
 21
130.555084
  0
LINE
  8
0
  6
CONTINUOUS
 10
561.794006
 20
132.055084
 11
554.794006
 21
132.055084
  0
LINE
  8
0
  6
CONTINUOUS
 10
557.393982
 20
145.055084
 11
557.393982
 21
132.055084
  0
LINE
  8
0
  6
CONTINUOUS
 10
559.194031
 20
145.680084
 11
559.194031
 21
132.055084
  0
LINE
  8
0
  6
CONTINUOUS
 10
560.994019
 20
143.617584
 11
560.994019
 21
132.055084
  0
LINE
  8
0
  6
CONTINUOUS
 10
555.593994
 20
144.430084
 11
555.593994
 21
132.055084
  0
LINE
  8
0
  6
CONTINUOUS
 10
559.194031
 20
145.680084
 11
557.393982
 21
145.055084
  0
LINE
  8
0
  6
CONTINUOUS
 10
560.994019
 20
143.617584
 11
559.194031
 21
144.242584
  0
LINE
  8
0
  6
CONTINUOUS
 10
555.593994
 20
144.430084
 11
557.393005
 21
143.982376
  0
LINE
  8
0
  6
CONTINUOUS
 10
607.294006
 20
132.555084
 11
564.794006
 21
132.555084
  0
LINE
  8
0
  6
CONTINUOUS
 10
607.294006
 20
38.555077
 11
564.794006
 21
38.555077
  0
ARC
  8
0
  6
CONTINUOUS
 10
607.294006
 20
127.555077
 40
5.000000
 50
0.000000
 51
90.000000
  0
ARC
  8
0
  6
CONTINUOUS
 10
607.294006
 20
43.555077
 40
5.000000
 50
-90.000000
 51
0.000000
  0
LINE
  8
0
  6
CONTINUOUS
 10
612.294006
 20
127.555077
 11
612.294006
 21
43.555069
  0
LINE
  8
0
  6
CONTINUOUS
 10
555.294006
 20
40.555077
 11
555.294006
 21
130.555084
  0
LINE
  8
0
  6
CONTINUOUS
 10
445.294006
 20
382.399963
 11
445.294006
 21
396.399963
  0
TEXT
  8
0
 10
-8.000000
 20
-2.000000
 40
4.000000
 41
1.000000
  1
HLM-28L-600~900-S60
 50
0.000000
  0
ENDSEC
  0
EOF
