  0
SECTION
  2
HEADER
  9
$CLAYER
  8
1
  9
$LTSCALE
 40
3.0
  0
ENDSEC
  0
SECTION
  2
TABLES
  0
TABLE
  2
LTYPE
 70
     4
  0
LTYPE
  2
CONTINUOUS
  3
solid line
 70
    64
 72
    65
 73
     0
 40
0.0
  0
LTYPE
  2
DASHED
  3
__ __ __ __ __ __ __ __ __ __ __ __ __ __ __
 70
    64
 72
    65
 73
     2
 40
0.75
 49
0.5
 49
-0.25
  0
LTYPE
  2
CENTER
  3
____ _ ____ _ ____ _ ____ _ ____ _ ____ _ ____
 70
    64
 72
    65
 73
     4
 40
2.0
 49
1.25
 49
-0.25
 49
0.25
 49
-0.25
  0
LTYPE
  2
PHANTOM
  3
_____ _ _ _____ _ _ _____ _ _ _____ _ _ ____
 70
    64
 72
    65
 73
     6
 40
2.5
 49
1.25
 49
-0.25
 49
0.25
 49
-0.25
 49
0.25
 49
-0.25
  0
ENDTAB
  0
TABLE
  2
LAYER
 70
     1
  0
LAYER
  2
0
 70
    64
 62
     7
  6
CONTINUOUS
  0
ENDTAB
  0
TABLE
  2
STYLE
 70
     1
  0
STYLE
  2
STANDARD
 70
     0
 40
0.000000
 41
1.000000
 50
0.000000
 71
     0
 42
3.000000
  3
txt
  4
BIGFONT
  0
ENDTAB
  0
ENDSEC
  0
SECTION
  2
BLOCKS
  0
ENDSEC
  0
SECTION
  2
ENTITIES
  0
LINE
  8
0
  6
CONTINUOUS
 10
468.718994
 20
126.317581
 11
468.718994
 21
40.317558
  0
LINE
  8
0
  6
CONTINUOUS
 10
578.718994
 20
128.317581
 11
459.718994
 21
128.317581
  0
LINE
  8
0
  6
CONTINUOUS
 10
578.718994
 20
38.317577
 11
459.718994
 21
38.317577
  0
LINE
  8
0
  6
CONTINUOUS
 10
578.718994
 20
117.726875
 11
469.756683
 21
117.726875
  0
LINE
  8
0
  6
CONTINUOUS
 10
578.718994
 20
48.908279
 11
469.756683
 21
48.908279
  0
ARC
  8
0
  6
CONTINUOUS
 10
466.718994
 20
126.317596
 40
2.000000
 50
0.000000
 51
90.000000
  0
ARC
  8
0
  6
CONTINUOUS
 10
466.718994
 20
40.317577
 40
2.000000
 50
-90.000000
 51
0.000000
  0
LINE
  8
0
  6
CENTER
 10
486.694702
 20
96.317581
 11
361.468994
 21
96.317581
  0
LINE
  8
0
  6
CONTINUOUS
 10
405.218994
 20
96.317581
 11
405.218994
 21
32.317478
  0
LINE
  8
0
  6
CONTINUOUS
 10
405.218994
 20
96.317581
 11
405.218994
 21
160.317673
  0
LINE
  8
0
  6
CONTINUOUS
 10
112.264252
 20
43.317577
 11
112.264252
 21
47.296299
  0
LINE
  8
0
  6
CONTINUOUS
 10
22.264250
 20
43.317577
 11
22.264250
 21
47.296238
  0
LINE
  8
0
  6
CONTINUOUS
 10
27.264250
 20
38.317577
 11
30.264250
 21
38.317577
  0
LINE
  8
0
  6
CONTINUOUS
 10
107.264252
 20
38.317577
 11
104.264252
 21
38.317577
  0
ARC
  8
0
  6
CONTINUOUS
 10
27.264250
 20
43.317577
 40
5.000000
 50
180.000000
 51
270.000000
  0
ARC
  8
0
  6
CONTINUOUS
 10
107.264252
 20
43.317577
 40
5.000000
 50
-90.000000
 51
0.000000
  0
ARC
  8
0
  6
CONTINUOUS
 10
108.276649
 20
55.305618
 40
8.000000
 50
306.780975
 51
358.958740
  0
ARC
  8
0
  6
CONTINUOUS
 10
26.252050
 20
55.305359
 40
8.000000
 50
181.041107
 51
233.216995
  0
ARC
  8
0
  6
CONTINUOUS
 10
114.264252
 20
47.296318
 40
2.000000
 50
126.781197
 51
180.000000
  0
ARC
  8
0
  6
CONTINUOUS
 10
20.264250
 20
47.296238
 40
2.000000
 50
0.000000
 51
53.217121
  0
LINE
  8
0
  6
CENTER
 10
67.264252
 20
-5.011262
 11
67.264252
 21
208.236893
  0
LINE
  8
0
  6
CENTER
 10
-3.044500
 20
132.317581
 11
184.301254
 21
132.317581
  0
LINE
  8
0
  6
CONTINUOUS
 10
4.264250
 20
12.317578
 11
39.764252
 21
12.317578
  0
LINE
  8
0
  6
CONTINUOUS
 10
8.264250
 20
27.317577
 11
26.264250
 21
27.317577
  0
LINE
  8
0
  6
CONTINUOUS
 10
126.264252
 20
27.317577
 11
108.264252
 21
27.317577
  0
LINE
  8
0
  6
CONTINUOUS
 10
31.764250
 20
160.317581
 11
102.514252
 21
160.317581
  0
LINE
  8
0
  6
CONTINUOUS
 10
101.316650
 20
186.223465
 11
67.264252
 21
186.817581
  0
LINE
  8
0
  6
CONTINUOUS
 10
33.211849
 20
186.223053
 11
67.264252
 21
186.817581
  0
LINE
  8
0
  6
CONTINUOUS
 10
104.264252
 20
183.223923
 11
104.264252
 21
12.317558
  0
LINE
  8
0
  6
CONTINUOUS
 10
30.264250
 20
183.223511
 11
30.264250
 21
12.317578
  0
LINE
  8
0
  6
CONTINUOUS
 10
14.264250
 20
102.605309
 11
14.264250
 21
162.029816
  0
LINE
  8
0
  6
CONTINUOUS
 10
120.264252
 20
162.029831
 11
120.264252
 21
102.605316
  0
LINE
  8
0
  6
CONTINUOUS
 10
21.264250
 20
62.117996
 11
21.264250
 21
134.817581
  0
LINE
  8
0
  6
CONTINUOUS
 10
113.264252
 20
62.117996
 11
113.264252
 21
134.817581
  0
LINE
  8
0
  6
CONTINUOUS
 10
130.264252
 20
24.013515
 11
130.264252
 21
12.317578
  0
LINE
  8
0
  6
CONTINUOUS
 10
4.264250
 20
24.013515
 11
4.264250
 21
12.317578
  0
LINE
  8
0
  6
CENTER
 10
17.264250
 20
35.317577
 11
17.264250
 21
0.964178
  0
LINE
  8
0
  6
CENTER
 10
117.264252
 20
35.817577
 11
117.264252
 21
0.964178
  0
LINE
  8
0
  6
DASHED
 10
11.764250
 20
27.317577
 11
11.764250
 21
12.317578
  0
LINE
  8
0
  6
DASHED
 10
22.764250
 20
27.317577
 11
22.764250
 21
12.317578
  0
LINE
  8
0
  6
DASHED
 10
111.764252
 20
27.317577
 11
111.764252
 21
12.317578
  0
LINE
  8
0
  6
DASHED
 10
122.764252
 20
27.317577
 11
122.764252
 21
12.317578
  0
ARC
  8
0
  6
CONTINUOUS
 10
33.264252
 20
183.223541
 40
3.000000
 50
91.000526
 51
180.000000
  0
ARC
  8
0
  6
CONTINUOUS
 10
101.264252
 20
183.223892
 40
3.000000
 50
0.000000
 51
89.000580
  0
LINE
  8
0
  6
CONTINUOUS
 10
94.764252
 20
12.317578
 11
130.264252
 21
12.317578
  0
LINE
  8
0
  6
CONTINUOUS
 10
40.764252
 20
13.317578
 11
93.764252
 21
13.317578
  0
LINE
  8
0
  6
CONTINUOUS
 10
17.910450
 20
166.843094
 11
26.617849
 21
169.292053
  0
LINE
  8
0
  6
CONTINUOUS
 10
17.910450
 20
97.792061
 11
19.076450
 21
97.464127
  0
LINE
  8
0
  6
CONTINUOUS
 10
24.926050
 20
57.300419
 11
26.602449
 21
56.834740
  0
LINE
  8
0
  6
CONTINUOUS
 10
109.602448
 20
57.300419
 11
107.926048
 21
56.834740
  0
LINE
  8
0
  6
CONTINUOUS
 10
116.617851
 20
97.792061
 11
115.452049
 21
97.464134
  0
LINE
  8
0
  6
CONTINUOUS
 10
116.617851
 20
166.843094
 11
107.910652
 21
169.292053
  0
ARC
  8
0
  6
CONTINUOUS
 10
19.264250
 20
162.029861
 40
5.000000
 50
105.709000
 51
180.000000
  0
ARC
  8
0
  6
CONTINUOUS
 10
19.264250
 20
102.605347
 40
5.000000
 50
180.000000
 51
254.291702
  0
ARC
  8
0
  6
CONTINUOUS
 10
26.264250
 20
62.118038
 40
5.000000
 50
180.000000
 51
254.476196
  0
ARC
  8
0
  6
CONTINUOUS
 10
108.264252
 20
62.117996
 40
5.000000
 50
-74.475708
 51
0.000000
  0
ARC
  8
0
  6
CONTINUOUS
 10
115.264252
 20
102.605309
 40
5.000000
 50
-74.291199
 51
0.000000
  0
ARC
  8
0
  6
CONTINUOUS
 10
115.264252
 20
162.029816
 40
5.000000
 50
0.000000
 51
74.291527
  0
ARC
  8
0
  6
CONTINUOUS
 10
116.264252
 20
94.576195
 40
3.000000
 50
105.709000
 51
180.000000
  0
ARC
  8
0
  6
CONTINUOUS
 10
18.264250
 20
94.576164
 40
3.000000
 50
0.000000
 51
74.291397
  0
ARC
  8
0
  6
CONTINUOUS
 10
25.264250
 20
174.105316
 40
5.000000
 50
-74.291199
 51
0.000000
  0
ARC
  8
0
  6
CONTINUOUS
 10
109.264252
 20
174.105331
 40
5.000000
 50
180.000000
 51
254.291702
  0
ARC
  8
0
  6
CONTINUOUS
 10
109.264252
 20
52.017178
 40
5.000000
 50
105.524399
 51
180.000000
  0
ARC
  8
0
  6
CONTINUOUS
 10
25.264250
 20
52.017139
 40
5.000000
 50
0.000000
 51
74.475952
  0
LINE
  8
0
  6
CONTINUOUS
 10
94.764252
 20
12.317578
 11
93.764252
 21
13.317578
  0
LINE
  8
0
  6
CONTINUOUS
 10
39.764252
 20
12.317578
 11
40.764252
 21
13.317578
  0
LINE
  8
0
  6
CENTER
 10
-9.634500
 20
96.317574
 11
146.785507
 21
96.317574
  0
LINE
  8
0
  6
CONTINUOUS
 10
167.264252
 20
118.317581
 11
167.264252
 21
146.317581
  0
LINE
  8
0
  6
CONTINUOUS
 10
122.264252
 20
146.317581
 11
167.264252
 21
146.317581
  0
LINE
  8
0
  6
CONTINUOUS
 10
122.264252
 20
118.317581
 11
167.264252
 21
118.317581
  0
LINE
  8
0
  6
CONTINUOUS
 10
122.264252
 20
147.317581
 11
122.264252
 21
117.317581
  0
LINE
  8
0
  6
CONTINUOUS
 10
120.264252
 20
117.317581
 11
122.264252
 21
117.317581
  0
ARC
  8
0
  6
CONTINUOUS
 10
131.264252
 20
132.317581
 40
4.000000
 50
90.000000
 51
270.000000
  0
LINE
  8
0
  6
CONTINUOUS
 10
131.264252
 20
136.317581
 11
167.264252
 21
136.317581
  0
LINE
  8
0
  6
CONTINUOUS
 10
131.264252
 20
128.317581
 11
167.264252
 21
128.317581
  0
LINE
  8
0
  6
CONTINUOUS
 10
120.264252
 20
147.317581
 11
122.264252
 21
147.317581
  0
LINE
  8
0
  6
CONTINUOUS
 10
411.718994
 20
160.317673
 11
405.218994
 21
160.317673
  0
LINE
  8
0
  6
CONTINUOUS
 10
411.718994
 20
32.317478
 11
405.218994
 21
32.317478
  0
LINE
  8
0
  6
CONTINUOUS
 10
459.718994
 20
128.317581
 11
413.718994
 21
129.923935
  0
LINE
  8
0
  6
CONTINUOUS
 10
405.218994
 20
36.414394
 11
459.718994
 21
38.317577
  0
ARC
  8
0
  6
CONTINUOUS
 10
411.718964
 20
158.317703
 40
2.000000
 50
0.000000
 51
90.000000
  0
ARC
  8
0
  6
CONTINUOUS
 10
411.718994
 20
34.317478
 40
2.000000
 50
-90.000000
 51
-0.260773
  0
LINE
  8
0
  6
CENTER
 10
648.945007
 20
83.317581
 11
361.468994
 21
83.317581
  0
LINE
  8
0
  6
CONTINUOUS
 10
459.718994
 20
128.317581
 11
459.718994
 21
38.317577
  0
LINE
  8
0
  6
CONTINUOUS
 10
414.451233
 20
136.085342
 11
420.165741
 21
130.370834
  0
LINE
  8
0
  6
CONTINUOUS
 10
382.955627
 20
341.042542
 11
263.812927
 21
341.042542
  0
ARC
  8
0
  6
CONTINUOUS
 10
263.812927
 20
344.042542
 40
3.000000
 50
181.000000
 51
270.000000
  0
LINE
  8
0
  6
CONTINUOUS
 10
277.724731
 20
335.688812
 11
276.834290
 21
338.854797
  0
ARC
  8
0
  6
CONTINUOUS
 10
273.946350
 20
338.042542
 40
3.000000
 50
15.708648
 51
90.000000
  0
ARC
  8
0
  6
CONTINUOUS
 10
391.141388
 20
323.815979
 40
3.000000
 50
181.500198
 51
257.801208
  0
LINE
  8
0
  6
CONTINUOUS
 10
388.142395
 20
323.737427
 11
387.786407
 21
337.332214
  0
ARC
  8
0
  6
CONTINUOUS
 10
389.873596
 20
317.951447
 40
3.000000
 50
15.000100
 51
77.801201
  0
LINE
  8
0
  6
CENTER
 10
650.849976
 20
378.042542
 11
244.815125
 21
378.042542
  0
LINE
  8
0
  6
CONTINUOUS
 10
371.704132
 20
441.042542
 11
322.718994
 21
441.042542
  0
LINE
  8
0
  6
CONTINUOUS
 10
260.218994
 20
378.042542
 11
260.864838
 21
341.042542
  0
LINE
  8
0
  6
CONTINUOUS
 10
269.029083
 20
318.349884
 11
260.864838
 21
341.042542
  0
ARC
  8
0
  6
CONTINUOUS
 10
273.733856
 20
320.042542
 40
5.000000
 50
199.787491
 51
270.000000
  0
LINE
  8
0
  6
CONTINUOUS
 10
260.218994
 20
378.042542
 11
260.864838
 21
415.042542
  0
LINE
  8
0
  6
CONTINUOUS
 10
269.029083
 20
437.735199
 11
260.864838
 21
415.042542
  0
ARC
  8
0
  6
CONTINUOUS
 10
273.733856
 20
436.042542
 40
5.000000
 50
90.000000
 51
160.212509
  0
LINE
  8
0
  6
CONTINUOUS
 10
382.955627
 20
341.042542
 11
263.812927
 21
341.042542
  0
LINE
  8
0
  6
CENTER
 10
322.718994
 20
457.161255
 11
322.718994
 21
266.936340
  0
ARC
  8
0
  6
CONTINUOUS
 10
263.812927
 20
344.042542
 40
3.000000
 50
181.000000
 51
270.000000
  0
ARC
  8
0
  6
CONTINUOUS
 10
263.812927
 20
412.042542
 40
3.000000
 50
90.000000
 51
179.000000
  0
LINE
  8
0
  6
CONTINUOUS
 10
382.882385
 20
415.042542
 11
263.812927
 21
415.042542
  0
LINE
  8
0
  6
CONTINUOUS
 10
293.006744
 20
325.042542
 11
352.431244
 21
325.042542
  0
LINE
  8
0
  6
CONTINUOUS
 10
288.193481
 20
328.688812
 11
287.250244
 21
332.042542
  0
ARC
  8
0
  6
CONTINUOUS
 10
293.006744
 20
330.042542
 40
5.000000
 50
195.708633
 51
270.000000
  0
LINE
  8
0
  6
CONTINUOUS
 10
287.250244
 20
332.042542
 11
282.537994
 21
332.042542
  0
ARC
  8
0
  6
CONTINUOUS
 10
282.537994
 20
337.042542
 40
5.000000
 50
195.708633
 51
270.000000
  0
LINE
  8
0
  6
CONTINUOUS
 10
357.244507
 20
328.688812
 11
358.187744
 21
332.042542
  0
ARC
  8
0
  6
CONTINUOUS
 10
352.431244
 20
330.042542
 40
5.000000
 50
270.000000
 51
344.291351
  0
LINE
  8
0
  6
CONTINUOUS
 10
358.187744
 20
332.042542
 11
362.899994
 21
332.042542
  0
LINE
  8
0
  6
CONTINUOUS
 10
367.713257
 20
335.688812
 11
368.603699
 21
338.854797
  0
ARC
  8
0
  6
CONTINUOUS
 10
362.899994
 20
337.042542
 40
5.000000
 50
270.000000
 51
344.291351
  0
ARC
  8
0
  6
CONTINUOUS
 10
371.491638
 20
338.042542
 40
3.000000
 50
90.000000
 51
164.291367
  0
LINE
  8
0
  6
CONTINUOUS
 10
293.006744
 20
431.042542
 11
352.431244
 21
431.042542
  0
LINE
  8
0
  6
CONTINUOUS
 10
288.193481
 20
427.396271
 11
287.250244
 21
424.042542
  0
ARC
  8
0
  6
CONTINUOUS
 10
293.006744
 20
426.042542
 40
5.000000
 50
90.000000
 51
164.291367
  0
LINE
  8
0
  6
CONTINUOUS
 10
287.250244
 20
424.042542
 11
282.537994
 21
424.042542
  0
LINE
  8
0
  6
CONTINUOUS
 10
277.724731
 20
420.396271
 11
276.834290
 21
417.230316
  0
ARC
  8
0
  6
CONTINUOUS
 10
282.537994
 20
419.042542
 40
5.000000
 50
90.000000
 51
164.291367
  0
ARC
  8
0
  6
CONTINUOUS
 10
273.946350
 20
418.042542
 40
3.000000
 50
-90.000000
 51
-15.708638
  0
LINE
  8
0
  6
CONTINUOUS
 10
357.244507
 20
427.396271
 11
358.187744
 21
424.042542
  0
ARC
  8
0
  6
CONTINUOUS
 10
352.431244
 20
426.042542
 40
5.000000
 50
15.708638
 51
90.000000
  0
LINE
  8
0
  6
CONTINUOUS
 10
358.187744
 20
424.042542
 11
362.899994
 21
424.042542
  0
LINE
  8
0
  6
CONTINUOUS
 10
367.713257
 20
420.396271
 11
368.603699
 21
417.230316
  0
ARC
  8
0
  6
CONTINUOUS
 10
362.899994
 20
419.042542
 40
5.000000
 50
15.708638
 51
90.000000
  0
ARC
  8
0
  6
CONTINUOUS
 10
371.491638
 20
418.042542
 40
3.000000
 50
195.708633
 51
270.000000
  0
LINE
  8
0
  6
CONTINUOUS
 10
376.408905
 20
318.349884
 11
384.486725
 21
340.802338
  0
ARC
  8
0
  6
CONTINUOUS
 10
371.704132
 20
320.042542
 40
5.000000
 50
270.000000
 51
340.212524
  0
LINE
  8
0
  6
CONTINUOUS
 10
376.408905
 20
437.735199
 11
384.470886
 21
415.326782
  0
ARC
  8
0
  6
CONTINUOUS
 10
371.704132
 20
436.042542
 40
5.000000
 50
19.787489
 51
90.000000
  0
LINE
  8
0
  6
CONTINUOUS
 10
371.704132
 20
315.042542
 11
336.718994
 21
315.042542
  0
LINE
  8
0
  6
CENTER
 10
282.718994
 20
316.929260
 11
282.718994
 21
336.370667
  0
LINE
  8
0
  6
CENTER
 10
292.629883
 20
328.042542
 11
274.111328
 21
328.042542
  0
ARC
  8
0
  6
CONTINUOUS
 10
282.718994
 20
328.042542
 40
5.500000
 50
-239.465683
 51
7.598493
  0
ARC
  8
0
  6
CONTINUOUS
 10
362.718994
 20
328.042542
 40
5.500000
 50
-187.598602
 51
59.465683
  0
LINE
  8
0
  6
CENTER
 10
362.718994
 20
316.929260
 11
362.718994
 21
336.370667
  0
LINE
  8
0
  6
CENTER
 10
352.808105
 20
328.042542
 11
371.326660
 21
328.042542
  0
ARC
  8
0
  6
CONTINUOUS
 10
362.718994
 20
428.042542
 40
5.500000
 50
-59.465683
 51
187.598602
  0
LINE
  8
0
  6
CENTER
 10
352.808105
 20
428.042542
 11
371.326660
 21
428.042542
  0
LINE
  8
0
  6
CENTER
 10
362.718994
 20
439.155823
 11
362.718994
 21
419.714417
  0
LINE
  8
0
  6
CENTER
 10
282.718994
 20
439.155823
 11
282.718994
 21
419.714417
  0
LINE
  8
0
  6
CENTER
 10
292.629883
 20
428.042542
 11
274.111328
 21
428.042542
  0
ARC
  8
0
  6
CONTINUOUS
 10
282.718994
 20
428.042542
 40
5.500000
 50
-7.598608
 51
239.465683
  0
LINE
  8
0
  6
CONTINUOUS
 10
298.718994
 20
412.042542
 11
298.718994
 21
344.042542
  0
LINE
  8
0
  6
CONTINUOUS
 10
346.718994
 20
412.042542
 11
346.718994
 21
344.042542
  0
LINE
  8
0
  6
CONTINUOUS
 10
387.638702
 20
418.748444
 11
392.887329
 21
438.336639
  0
LINE
  8
0
  6
CONTINUOUS
 10
388.142395
 20
432.894592
 11
387.786407
 21
419.299774
  0
ARC
  8
0
  6
CONTINUOUS
 10
391.141388
 20
432.815979
 40
3.000000
 50
102.198799
 51
178.499802
  0
ARC
  8
0
  6
CONTINUOUS
 10
389.873596
 20
438.680573
 40
3.000000
 50
282.198792
 51
345.000031
  0
ARC
  8
0
  6
CONTINUOUS
 10
391.141388
 20
323.815979
 40
3.000000
 50
181.500198
 51
257.801208
  0
LINE
  8
0
  6
CONTINUOUS
 10
388.142395
 20
323.737427
 11
387.786407
 21
337.332214
  0
ARC
  8
0
  6
CONTINUOUS
 10
389.873596
 20
317.951447
 40
3.000000
 50
15.000100
 51
77.801201
  0
LINE
  8
0
  6
CONTINUOUS
 10
397.790192
 20
314.042542
 11
405.218994
 21
314.042542
  0
LINE
  8
0
  6
CONTINUOUS
 10
393.033844
 20
317.748474
 11
387.712006
 21
337.610046
  0
ARC
  8
0
  6
CONTINUOUS
 10
382.809082
 20
420.042542
 40
5.000000
 50
270.000000
 51
345.000031
  0
ARC
  8
0
  6
CONTINUOUS
 10
382.955627
 20
336.042542
 40
5.000000
 50
14.999843
 51
90.000000
  0
LINE
  8
0
  6
CONTINUOUS
 10
305.718994
 20
278.042542
 11
336.718994
 21
278.042542
  0
LINE
  8
0
  6
CONTINUOUS
 10
336.718994
 20
323.042542
 11
336.718994
 21
278.042542
  0
LINE
  8
0
  6
CONTINUOUS
 10
308.718994
 20
323.042542
 11
308.718994
 21
318.042542
  0
LINE
  8
0
  6
CONTINUOUS
 10
337.718994
 20
323.042542
 11
307.718994
 21
323.042542
  0
LINE
  8
0
  6
CONTINUOUS
 10
307.718994
 20
325.042542
 11
307.718994
 21
323.042542
  0
LINE
  8
0
  6
CONTINUOUS
 10
337.718994
 20
325.042542
 11
337.718994
 21
323.042542
  0
LINE
  8
0
  6
CONTINUOUS
 10
305.718994
 20
315.042542
 11
273.733856
 21
315.042542
  0
LINE
  8
0
  6
CONTINUOUS
 10
309.302582
 20
318.042542
 11
305.718994
 21
318.042542
  0
LINE
  8
0
  6
CONTINUOUS
 10
309.302582
 20
318.042542
 11
309.302582
 21
278.042542
  0
LINE
  8
0
  6
CONTINUOUS
 10
305.718994
 20
278.042542
 11
305.718994
 21
318.042542
  0
LINE
  8
0
  6
CONTINUOUS
 10
322.718994
 20
441.042542
 11
273.733856
 21
441.042542
  0
LINE
  8
0
  6
CONTINUOUS
 10
405.218994
 20
442.042542
 11
397.716949
 21
442.042542
  0
ARC
  8
0
  6
CONTINUOUS
 10
397.716949
 20
437.042542
 40
5.000000
 50
90.000000
 51
165.000031
  0
ARC
  8
0
  6
CONTINUOUS
 10
397.863464
 20
319.042542
 40
5.000000
 50
194.999847
 51
270.000000
  0
LINE
  8
0
  6
CONTINUOUS
 10
385.218994
 20
378.042542
 11
384.624603
 21
343.990204
  0
LINE
  8
0
  6
CONTINUOUS
 10
385.218994
 20
378.042542
 11
384.624603
 21
412.094910
  0
ARC
  8
0
  6
CONTINUOUS
 10
381.625061
 20
344.042542
 40
3.000000
 50
270.000000
 51
359.000000
  0
ARC
  8
0
  6
CONTINUOUS
 10
381.625061
 20
412.042542
 40
3.000000
 50
1.000000
 51
90.000000
  0
LINE
  8
0
  6
CONTINUOUS
 10
7.508860
 20
27.941553
 11
27.019636
 21
31.693615
  0
ARC
  8
0
  6
CONTINUOUS
 10
67.264252
 20
96.317581
 40
64.000099
 50
-54.681290
 51
20.105476
  0
ARC
  8
0
  6
CONTINUOUS
 10
67.264252
 20
96.317581
 40
64.000099
 50
145.906479
 51
234.681290
  0
ARC
  8
0
  6
CONTINUOUS
 10
8.264250
 20
23.317577
 40
4.000000
 50
90.000000
 51
180.000000
  0
ARC
  8
0
  6
CONTINUOUS
 10
8.264250
 20
24.013515
 40
4.000000
 50
100.885529
 51
180.000000
  0
ARC
  8
0
  6
CONTINUOUS
 10
26.264250
 20
35.621639
 40
4.000000
 50
-79.114502
 51
0.000000
  0
ARC
  8
0
  6
CONTINUOUS
 10
26.264250
 20
31.317577
 40
4.000000
 50
-90.000000
 51
0.000000
  0
LINE
  8
0
  6
CONTINUOUS
 10
127.019638
 20
27.941553
 11
107.508865
 21
31.693615
  0
ARC
  8
0
  6
CONTINUOUS
 10
126.264252
 20
23.317577
 40
4.000000
 50
0.000000
 51
90.000000
  0
ARC
  8
0
  6
CONTINUOUS
 10
126.264252
 20
24.013515
 40
4.000000
 50
0.000000
 51
79.114471
  0
ARC
  8
0
  6
CONTINUOUS
 10
108.264252
 20
35.621639
 40
4.000000
 50
180.000000
 51
259.114502
  0
ARC
  8
0
  6
CONTINUOUS
 10
108.264252
 20
31.317577
 40
4.000000
 50
180.000000
 51
270.000000
  0
LINE
  8
0
  6
CONTINUOUS
 10
405.218994
 20
314.042542
 11
405.218994
 21
442.042542
  0
LINE
  8
0
  6
CONTINUOUS
 10
459.718994
 20
62.811577
 11
415.718994
 21
62.811577
  0
LINE
  8
0
  6
CONTINUOUS
 10
459.718994
 20
47.798576
 11
405.218994
 21
47.798580
  0
LINE
  8
0
  6
CONTINUOUS
 10
413.151031
 20
55.750580
 11
405.218994
 21
55.750580
  0
LINE
  8
0
  6
CONTINUOUS
 10
413.718994
 20
56.965313
 11
413.718994
 21
158.317703
  0
ARC
  8
0
  6
CONTINUOUS
 10
416.218964
 20
34.297001
 40
2.500000
 50
92.000000
 51
179.739227
  0
ARC
  8
0
  6
CONTINUOUS
 10
416.218994
 20
137.853119
 40
2.500000
 50
180.000000
 51
225.000000
  0
ARC
  8
0
  6
CONTINUOUS
 10
421.933502
 20
132.138596
 40
2.500000
 50
-135.000000
 51
-92.000000
  0
LINE
  8
0
  6
CONTINUOUS
 10
413.718994
 20
440.042542
 11
413.718994
 21
316.042542
  0
LINE
  8
0
  6
CONTINUOUS
 10
459.718994
 20
333.042542
 11
416.155365
 21
331.521271
  0
LINE
  8
0
  6
CONTINUOUS
 10
459.718994
 20
423.042542
 11
416.155365
 21
424.563812
  0
LINE
  8
0
  6
CONTINUOUS
 10
459.718994
 20
329.030548
 11
459.718994
 21
427.054535
  0
LINE
  8
0
  6
CONTINUOUS
 10
411.718994
 20
314.042542
 11
405.218994
 21
314.042542
  0
LINE
  8
0
  6
CONTINUOUS
 10
411.718994
 20
442.042542
 11
405.218994
 21
442.042542
  0
LINE
  8
0
  6
CONTINUOUS
 10
420.862000
 20
354.042542
 11
413.747009
 21
354.042542
  0
LINE
  8
0
  6
CONTINUOUS
 10
420.256836
 20
402.042542
 11
413.747009
 21
402.042542
  0
LINE
  8
0
  6
CONTINUOUS
 10
420.862000
 20
356.247040
 11
420.862000
 21
399.959625
  0
LINE
  8
0
  6
CONTINUOUS
 10
468.718994
 20
335.042542
 11
468.718994
 21
349.042542
  0
LINE
  8
0
  6
CONTINUOUS
 10
578.718994
 20
333.042542
 11
459.718994
 21
333.042542
  0
LINE
  8
0
  6
CONTINUOUS
 10
578.718994
 20
423.042542
 11
459.718994
 21
423.042542
  0
LINE
  8
0
  6
CONTINUOUS
 10
578.718994
 20
349.042542
 11
468.718994
 21
349.042542
  0
LINE
  8
0
  6
CONTINUOUS
 10
578.718994
 20
407.042542
 11
468.718994
 21
407.042542
  0
ARC
  8
0
  6
CONTINUOUS
 10
466.718994
 20
335.042542
 40
2.000000
 50
-90.000000
 51
0.000000
  0
ARC
  8
0
  6
CONTINUOUS
 10
466.718994
 20
421.042542
 40
2.000000
 50
0.000000
 51
90.000000
  0
LINE
  8
0
  6
CONTINUOUS
 10
459.718994
 20
333.042542
 11
459.718994
 21
423.042542
  0
ARC
  8
0
  6
CONTINUOUS
 10
411.718994
 20
316.042542
 40
2.000000
 50
-90.000000
 51
0.000000
  0
ARC
  8
0
  6
CONTINUOUS
 10
411.718994
 20
440.042542
 40
2.000000
 50
0.000000
 51
90.000000
  0
ARC
  8
0
  6
CONTINUOUS
 10
416.242615
 20
329.022797
 40
2.500000
 50
92.000000
 51
179.895706
  0
ARC
  8
0
  6
CONTINUOUS
 10
416.242615
 20
427.062317
 40
2.500000
 50
180.104294
 51
268.000000
  0
LINE
  8
0
  6
CONTINUOUS
 10
413.718994
 20
331.436188
 11
413.747009
 21
331.437164
  0
LINE
  8
0
  6
CONTINUOUS
 10
459.219299
 20
328.513092
 11
413.718994
 21
326.924194
  0
LINE
  8
0
  6
CONTINUOUS
 10
459.718994
 20
329.030548
 11
459.219299
 21
328.513092
  0
LINE
  8
0
  6
CONTINUOUS
 10
459.219299
 20
427.571991
 11
413.718994
 21
429.160919
  0
LINE
  8
0
  6
CONTINUOUS
 10
459.718994
 20
427.054535
 11
459.219299
 21
427.571991
  0
LINE
  8
0
  6
CONTINUOUS
 10
260.218994
 20
157.689194
 11
260.218994
 21
12.317578
  0
LINE
  8
0
  6
CONTINUOUS
 10
385.218994
 20
12.317578
 11
260.218994
 21
12.317578
  0
LINE
  8
0
  6
CENTER
 10
365.651337
 20
132.317581
 11
280.678986
 21
132.317581
  0
LINE
  8
0
  6
CENTER
 10
322.718994
 20
203.817535
 11
322.718994
 21
1.567578
  0
LINE
  8
0
  6
CONTINUOUS
 10
345.164581
 20
186.817535
 11
300.273407
 21
186.817535
  0
LINE
  8
0
  6
CONTINUOUS
 10
297.438599
 20
185.936234
 11
262.384186
 21
161.807816
  0
LINE
  8
0
  6
CONTINUOUS
 10
382.218994
 20
27.317577
 11
263.218994
 21
27.317577
  0
LINE
  8
0
  6
CONTINUOUS
 10
270.218994
 20
25.780081
 11
270.218994
 21
12.317578
  0
LINE
  8
0
  6
CONTINUOUS
 10
374.218994
 20
25.780081
 11
374.218994
 21
12.317578
  0
LINE
  8
0
  6
CENTER
 10
282.718994
 20
34.567577
 11
282.718994
 21
5.567578
  0
LINE
  8
0
  6
CENTER
 10
362.718994
 20
34.567577
 11
362.718994
 21
6.817578
  0
LINE
  8
0
  6
DASHED
 10
277.218994
 20
27.317577
 11
277.218994
 21
12.317578
  0
LINE
  8
0
  6
DASHED
 10
288.218994
 20
27.317577
 11
288.218994
 21
12.317578
  0
LINE
  8
0
  6
DASHED
 10
357.218994
 20
27.317577
 11
357.218994
 21
12.317578
  0
LINE
  8
0
  6
DASHED
 10
368.218994
 20
27.317577
 11
368.218994
 21
12.317578
  0
ARC
  8
0
  6
CONTINUOUS
 10
342.718994
 20
82.317581
 40
26.500000
 50
-90.000000
 51
9.470901
  0
ARC
  8
0
  6
CONTINUOUS
 10
302.718994
 20
82.317581
 40
26.500000
 50
170.529099
 51
270.000000
  0
LINE
  8
0
  6
CONTINUOUS
 10
368.857788
 20
86.678055
 11
360.200989
 21
138.570297
  0
LINE
  8
0
  6
CONTINUOUS
 10
285.237000
 20
138.570419
 11
276.580200
 21
86.678085
  0
LINE
  8
0
  6
CONTINUOUS
 10
342.718994
 20
55.817577
 11
302.718994
 21
55.817577
  0
ARC
  8
0
  6
CONTINUOUS
 10
265.218994
 20
157.689133
 40
5.000000
 50
124.539902
 51
180.000000
  0
ARC
  8
0
  6
CONTINUOUS
 10
300.273407
 20
181.817535
 40
5.000000
 50
90.000000
 51
124.539902
  0
ARC
  8
0
  6
CONTINUOUS
 10
345.130585
 20
181.817535
 40
5.000000
 50
88.961128
 51
90.000000
  0
LINE
  8
0
  6
CONTINUOUS
 10
385.218994
 20
12.317578
 11
385.218994
 21
44.717598
  0
ARC
  8
0
  6
CONTINUOUS
 10
342.718994
 20
82.317581
 40
24.000000
 50
-90.000000
 51
9.470790
  0
ARC
  8
0
  6
CONTINUOUS
 10
302.718994
 20
82.317581
 40
24.000000
 50
170.528992
 51
271.534393
  0
LINE
  8
0
  6
CONTINUOUS
 10
342.718994
 20
58.317577
 11
302.718994
 21
58.317577
  0
CIRCLE
  8
0
  6
CONTINUOUS
 10
322.718994
 20
132.317581
 40
33.500000
  0
ARC
  8
0
  6
CONTINUOUS
 10
322.718994
 20
132.317581
 40
38.000000
 50
9.471016
 51
170.529007
  0
ARC
  8
0
  6
CONTINUOUS
 10
322.718994
 20
132.317581
 40
35.500000
 50
-189.597305
 51
7.618591
  0
LINE
  8
0
  6
CONTINUOUS
 10
366.391785
 20
86.266670
 11
357.735199
 21
138.158981
  0
LINE
  8
0
  6
CONTINUOUS
 10
287.703003
 20
138.159012
 11
279.046204
 21
86.266731
  0
LINE
  8
0
  6
CONTINUOUS
 10
386.773346
 20
160.317673
 11
405.218994
 21
160.317673
  0
LINE
  8
0
  6
CONTINUOUS
 10
405.218994
 20
32.317478
 11
390.218994
 21
32.317478
  0
LINE
  8
0
  6
CONTINUOUS
 10
383.938446
 20
161.199020
 11
347.999390
 21
185.936203
  0
ARC
  8
0
  6
CONTINUOUS
 10
345.164581
 20
181.817535
 40
5.000000
 50
55.459671
 51
90.000000
  0
ARC
  8
0
  6
CONTINUOUS
 10
380.218994
 20
157.689178
 40
5.000000
 50
0.000000
 51
55.459560
  0
ARC
  8
0
  6
CONTINUOUS
 10
390.218994
 20
27.317463
 40
5.000000
 50
90.000000
 51
180.000000
  0
ARC
  8
0
  6
CONTINUOUS
 10
382.218994
 20
24.317600
 40
3.000000
 50
0.000000
 51
90.000000
  0
ARC
  8
0
  6
CONTINUOUS
 10
263.218994
 20
24.317577
 40
3.000000
 50
90.000000
 51
180.000000
  0
LINE
  8
0
  6
CONTINUOUS
 10
312.422607
 20
68.317581
 11
308.262207
 21
68.317581
  0
LINE
  8
0
  6
CONTINUOUS
 10
314.718994
 20
75.286324
 11
314.718994
 21
68.317581
  0
LINE
  8
0
  6
CONTINUOUS
 10
318.718994
 20
77.817581
 11
318.718994
 21
80.317581
  0
LINE
  8
0
  6
CONTINUOUS
 10
326.718994
 20
77.817581
 11
326.718994
 21
80.317581
  0
LINE
  8
0
  6
CONTINUOUS
 10
321.937805
 20
78.848831
 11
321.937805
 21
69.630081
  0
LINE
  8
0
  6
CONTINUOUS
 10
323.437805
 20
78.848831
 11
323.437805
 21
69.630081
  0
LINE
  8
0
  6
CONTINUOUS
 10
331.312805
 20
78.848831
 11
331.312805
 21
69.567581
  0
LINE
  8
0
  6
CONTINUOUS
 10
332.687805
 20
73.926964
 11
332.687805
 21
69.567581
  0
LINE
  8
0
  6
CONTINUOUS
 10
312.820984
 20
78.723831
 11
308.966003
 21
78.723831
  0
LINE
  8
0
  6
CONTINUOUS
 10
308.966003
 20
78.723831
 11
308.062805
 21
77.603828
  0
LINE
  8
0
  6
CONTINUOUS
 10
308.171387
 20
80.317581
 11
306.718994
 21
78.457817
  0
LINE
  8
0
  6
CONTINUOUS
 10
308.062805
 20
70.690498
 11
308.980408
 21
69.723816
  0
LINE
  8
0
  6
CONTINUOUS
 10
306.718994
 20
69.874741
 11
308.262207
 21
68.317581
  0
LINE
  8
0
  6
CONTINUOUS
 10
306.718994
 20
78.457817
 11
306.718994
 21
69.874741
  0
LINE
  8
0
  6
CONTINUOUS
 10
308.062805
 20
77.603828
 11
308.062805
 21
70.690498
  0
LINE
  8
0
  6
CONTINUOUS
 10
313.562805
 20
78.006721
 11
312.805786
 21
78.723831
  0
LINE
  8
0
  6
CONTINUOUS
 10
313.550781
 20
80.317581
 11
314.718994
 21
79.021088
  0
LINE
  8
0
  6
CONTINUOUS
 10
313.562805
 20
77.817581
 11
314.718994
 21
77.817581
  0
LINE
  8
0
  6
CONTINUOUS
 10
308.171387
 20
80.317581
 11
313.550781
 21
80.317581
  0
LINE
  8
0
  6
CONTINUOUS
 10
311.468994
 20
75.286324
 11
314.718994
 21
75.286324
  0
LINE
  8
0
  6
CONTINUOUS
 10
313.562805
 20
73.973816
 11
311.468994
 21
73.973816
  0
LINE
  8
0
  6
CONTINUOUS
 10
311.062805
 20
69.723816
 11
308.980408
 21
69.723816
  0
LINE
  8
0
  6
CONTINUOUS
 10
313.562805
 20
72.723816
 11
313.562805
 21
73.723816
  0
ARC
  8
0
  6
CONTINUOUS
 10
311.062805
 20
72.223816
 40
2.500000
 50
-89.999786
 51
0.000109
  0
LINE
  8
0
  6
CONTINUOUS
 10
313.562805
 20
69.274139
 11
313.562805
 21
68.317581
  0
LINE
  8
0
  6
CONTINUOUS
 10
314.718994
 20
79.021088
 11
314.718994
 21
77.817581
  0
LINE
  8
0
  6
CONTINUOUS
 10
313.562805
 20
73.973816
 11
313.562805
 21
72.223816
  0
LINE
  8
0
  6
CONTINUOUS
 10
311.468994
 20
75.286324
 11
311.468994
 21
73.973816
  0
LINE
  8
0
  6
CONTINUOUS
 10
313.562805
 20
68.317581
 11
314.718994
 21
68.317581
  0
LINE
  8
0
  6
CONTINUOUS
 10
313.562805
 20
69.274139
 11
312.422607
 21
68.317581
  0
LINE
  8
0
  6
CONTINUOUS
 10
323.437805
 20
69.630081
 11
323.937805
 21
69.630081
  0
LINE
  8
0
  6
CONTINUOUS
 10
321.343994
 20
69.630081
 11
321.343994
 21
68.317581
  0
LINE
  8
0
  6
CONTINUOUS
 10
323.937805
 20
69.630081
 11
323.937805
 21
68.317581
  0
LINE
  8
0
  6
CONTINUOUS
 10
325.884583
 20
77.817581
 11
326.718994
 21
77.817581
  0
LINE
  8
0
  6
CONTINUOUS
 10
318.718994
 20
77.817581
 11
319.606995
 21
77.817581
  0
LINE
  8
0
  6
CONTINUOUS
 10
318.718994
 20
80.317581
 11
326.718994
 21
80.317581
  0
LINE
  8
0
  6
CONTINUOUS
 10
321.343994
 20
68.317581
 11
323.937805
 21
68.317581
  0
LINE
  8
0
  6
CONTINUOUS
 10
321.343994
 20
69.630081
 11
321.937805
 21
69.630081
  0
ARC
  8
0
  6
CONTINUOUS
 10
335.515991
 20
77.114456
 40
3.203128
 50
-73.981873
 51
90.003510
  0
ARC
  8
0
  6
CONTINUOUS
 10
335.515991
 20
77.114456
 40
1.954124
 50
-82.585274
 51
62.411850
  0
LINE
  8
0
  6
CONTINUOUS
 10
330.718994
 20
80.317581
 11
335.515991
 21
80.317581
  0
LINE
  8
0
  6
CONTINUOUS
 10
335.768005
 20
75.176659
 11
332.687805
 21
75.176659
  0
LINE
  8
0
  6
CONTINUOUS
 10
330.718994
 20
80.317581
 11
330.718994
 21
78.848831
  0
LINE
  8
0
  6
CONTINUOUS
 10
332.687805
 20
78.848831
 11
332.687805
 21
75.176659
  0
LINE
  8
0
  6
CONTINUOUS
 10
336.399811
 20
74.035698
 11
338.382385
 21
69.567581
  0
LINE
  8
0
  6
CONTINUOUS
 10
335.248199
 20
73.926964
 11
337.124390
 21
69.567581
  0
LINE
  8
0
  6
CONTINUOUS
 10
330.718994
 20
69.567581
 11
331.312805
 21
69.567581
  0
LINE
  8
0
  6
CONTINUOUS
 10
332.687805
 20
69.567581
 11
333.234589
 21
69.567581
  0
LINE
  8
0
  6
CONTINUOUS
 10
333.234589
 20
68.317581
 11
330.718994
 21
68.317581
  0
LINE
  8
0
  6
CONTINUOUS
 10
336.875183
 20
69.567581
 11
337.124390
 21
69.567581
  0
LINE
  8
0
  6
CONTINUOUS
 10
338.382385
 20
69.567581
 11
338.718994
 21
69.567581
  0
LINE
  8
0
  6
CONTINUOUS
 10
336.875183
 20
68.317581
 11
338.718994
 21
68.317581
  0
LINE
  8
0
  6
CONTINUOUS
 10
338.718994
 20
69.567581
 11
338.718994
 21
68.317581
  0
LINE
  8
0
  6
CONTINUOUS
 10
336.875183
 20
69.567581
 11
336.875183
 21
68.317581
  0
LINE
  8
0
  6
CONTINUOUS
 10
333.234589
 20
69.567581
 11
333.234589
 21
68.317581
  0
LINE
  8
0
  6
CONTINUOUS
 10
330.718994
 20
69.567581
 11
330.718994
 21
68.317581
  0
LINE
  8
0
  6
CONTINUOUS
 10
320.036804
 20
78.848831
 11
319.606995
 21
77.817581
  0
LINE
  8
0
  6
CONTINUOUS
 10
325.522186
 20
78.848831
 11
325.884583
 21
77.817581
  0
LINE
  8
0
  6
CONTINUOUS
 10
323.437805
 20
78.848831
 11
325.522186
 21
78.848831
  0
LINE
  8
0
  6
CONTINUOUS
 10
321.937805
 20
78.848831
 11
320.036804
 21
78.848831
  0
LINE
  8
0
  6
CONTINUOUS
 10
332.687805
 20
73.926964
 11
335.248199
 21
73.926964
  0
LINE
  8
0
  6
CONTINUOUS
 10
330.718994
 20
78.848831
 11
331.312805
 21
78.848831
  0
LINE
  8
0
  6
CONTINUOUS
 10
332.687805
 20
78.848831
 11
336.420807
 21
78.846397
  0
LINE
  8
0
  6
CONTINUOUS
 10
313.562805
 20
78.006721
 11
313.562805
 21
77.817581
  0
ARC
  8
0
  6
CONTINUOUS
 10
322.718994
 20
110.317581
 40
73.000000
 50
47.590931
 51
132.409302
  0
ARC
  8
0
  6
CONTINUOUS
 10
322.718994
 20
110.317581
 40
73.000000
 50
227.591095
 51
312.409393
  0
LINE
  8
0
  6
CONTINUOUS
 10
381.718994
 20
142.066605
 11
381.718994
 21
78.568565
  0
LINE
  8
0
  6
CONTINUOUS
 10
263.718994
 20
142.066605
 11
263.718994
 21
78.568565
  0
ARC
  8
0
  6
CONTINUOUS
 10
351.718994
 20
142.066605
 40
30.000000
 50
0.000000
 51
47.590950
  0
ARC
  8
0
  6
CONTINUOUS
 10
351.718994
 20
78.568565
 40
30.000000
 50
-47.590061
 51
0.000000
  0
ARC
  8
0
  6
CONTINUOUS
 10
293.718994
 20
142.066605
 40
30.000000
 50
132.409500
 51
180.000000
  0
ARC
  8
0
  6
CONTINUOUS
 10
293.718994
 20
78.568565
 40
30.000000
 50
180.000000
 51
227.591400
  0
LINE
  8
0
  6
CONTINUOUS
 10
312.718994
 20
136.317581
 11
312.718994
 21
128.317581
  0
LINE
  8
0
  6
CONTINUOUS
 10
305.718994
 20
136.317581
 11
305.718994
 21
128.317581
  0
LINE
  8
0
  6
CONTINUOUS
 10
305.718994
 20
136.317581
 11
312.718994
 21
136.317581
  0
LINE
  8
0
  6
CONTINUOUS
 10
305.718994
 20
128.317581
 11
312.718994
 21
128.317581
  0
ARC
  8
0
  6
CONTINUOUS
 10
322.718994
 20
132.317581
 40
14.000000
 50
-163.398499
 51
163.398499
  0
LINE
  8
0
  6
CONTINUOUS
 10
302.718994
 20
31.948353
 11
302.718994
 21
27.317577
  0
LINE
  8
0
  6
CONTINUOUS
 10
304.160889
 20
32.317577
 11
341.277100
 21
32.317577
  0
LINE
  8
0
  6
CONTINUOUS
 10
301.818268
 20
31.191652
 11
299.619751
 21
28.443504
  0
ARC
  8
0
  6
CONTINUOUS
 10
297.277161
 20
30.317577
 40
3.000000
 50
270.000000
 51
321.340454
  0
ARC
  8
0
  6
CONTINUOUS
 10
304.160889
 20
29.317577
 40
3.000000
 50
90.000000
 51
141.340454
  0
LINE
  8
0
  6
CONTINUOUS
 10
342.718994
 20
31.948353
 11
342.718994
 21
27.317577
  0
LINE
  8
0
  6
CONTINUOUS
 10
343.619720
 20
31.191652
 11
345.818237
 21
28.443504
  0
ARC
  8
0
  6
CONTINUOUS
 10
348.160828
 20
30.317577
 40
3.000000
 50
-141.340454
 51
-90.000000
  0
ARC
  8
0
  6
CONTINUOUS
 10
341.277100
 20
29.317577
 40
3.000000
 50
38.659546
 51
90.000000
  0
LINE
  8
0
  6
CONTINUOUS
 10
386.718994
 20
147.917572
 11
386.718994
 21
44.717598
  0
LINE
  8
0
  6
CONTINUOUS
 10
386.718994
 20
147.917572
 11
385.218994
 21
147.917572
  0
LINE
  8
0
  6
CONTINUOUS
 10
386.718994
 20
44.717598
 11
385.218994
 21
44.717598
  0
ARC
  8
0
  6
CONTINUOUS
 10
202.765793
 20
96.317581
 40
191.053177
 50
-15.669100
 51
15.669100
  0
ARC
  8
0
  6
CONTINUOUS
 10
202.765793
 20
96.317581
 40
190.053177
 50
-1.478500
 51
1.451400
  0
LINE
  8
0
  6
CONTINUOUS
 10
390.718994
 20
101.317581
 11
391.723785
 21
101.317581
  0
LINE
  8
0
  6
CONTINUOUS
 10
388.218994
 20
98.817581
 11
388.218994
 21
93.817581
  0
ARC
  8
0
  6
CONTINUOUS
 10
391.723785
 20
102.315979
 40
1.000000
 50
-90.000000
 51
1.817900
  0
ARC
  8
0
  6
CONTINUOUS
 10
390.718994
 20
98.817581
 40
2.500000
 50
90.000000
 51
180.000000
  0
LINE
  8
0
  6
CONTINUOUS
 10
390.718994
 20
91.317581
 11
391.723785
 21
91.317581
  0
ARC
  8
0
  6
CONTINUOUS
 10
391.723785
 20
90.319176
 40
1.000000
 50
-1.817900
 51
90.000000
  0
ARC
  8
0
  6
CONTINUOUS
 10
390.718994
 20
93.817581
 40
2.500000
 50
180.000000
 51
270.000000
  0
LINE
  8
0
  6
CONTINUOUS
 10
385.218994
 20
147.917572
 11
385.218994
 21
157.689163
  0
ARC
  8
0
  6
CONTINUOUS
 10
386.773346
 20
165.317673
 40
5.000000
 50
235.460007
 51
270.000000
  0
LINE
  8
0
  6
CONTINUOUS
 10
588.218994
 20
333.042542
 11
578.718994
 21
333.042542
  0
LINE
  8
0
  6
CONTINUOUS
 10
578.718994
 20
349.042542
 11
588.218994
 21
349.042542
  0
LINE
  8
0
  6
CONTINUOUS
 10
588.218994
 20
423.042542
 11
578.718994
 21
423.042542
  0
LINE
  8
0
  6
CONTINUOUS
 10
578.718994
 20
423.042542
 11
578.718994
 21
403.042572
  0
LINE
  8
0
  6
CONTINUOUS
 10
578.718994
 20
407.042542
 11
588.218994
 21
407.042542
  0
LINE
  8
0
  6
CONTINUOUS
 10
578.718994
 20
353.042572
 11
578.718994
 21
333.042542
  0
LINE
  8
0
  6
CONTINUOUS
 10
588.218994
 20
331.042542
 11
588.218994
 21
370.542572
  0
LINE
  8
0
  6
CONTINUOUS
 10
588.218994
 20
349.042542
 11
632.194031
 21
349.042542
  0
LINE
  8
0
  6
CONTINUOUS
 10
588.218994
 20
407.042542
 11
632.194031
 21
407.042542
  0
LINE
  8
0
  6
CONTINUOUS
 10
630.718994
 20
331.042542
 11
588.218994
 21
331.042542
  0
LINE
  8
0
  6
CONTINUOUS
 10
630.718994
 20
425.042542
 11
588.218994
 21
425.042542
  0
ARC
  8
0
  6
CONTINUOUS
 10
630.718994
 20
336.042542
 40
5.000000
 50
-90.000000
 51
0.000000
  0
ARC
  8
0
  6
CONTINUOUS
 10
630.718994
 20
420.042542
 40
5.000000
 50
0.000000
 51
90.000000
  0
LINE
  8
0
  6
CONTINUOUS
 10
635.718994
 20
336.042542
 11
635.718994
 21
420.042572
  0
LINE
  8
0
  6
CONTINUOUS
 10
588.218994
 20
128.317581
 11
578.718994
 21
128.317581
  0
LINE
  8
0
  6
CONTINUOUS
 10
578.718994
 20
117.726875
 11
588.218994
 21
117.726875
  0
LINE
  8
0
  6
CONTINUOUS
 10
588.218994
 20
38.317577
 11
578.718994
 21
38.317577
  0
LINE
  8
0
  6
CONTINUOUS
 10
578.718994
 20
48.908287
 11
588.218994
 21
48.908287
  0
LINE
  8
0
  6
CONTINUOUS
 10
588.218994
 20
130.317581
 11
588.218994
 21
36.317577
  0
LINE
  8
0
  6
CONTINUOUS
 10
588.218994
 20
112.317581
 11
632.194031
 21
112.317581
  0
LINE
  8
0
  6
CONTINUOUS
 10
588.218994
 20
54.317577
 11
632.194031
 21
54.317577
  0
LINE
  8
0
  6
CONTINUOUS
 10
630.718994
 20
130.317581
 11
588.218994
 21
130.317581
  0
LINE
  8
0
  6
CONTINUOUS
 10
630.718994
 20
36.317577
 11
588.218994
 21
36.317577
  0
ARC
  8
0
  6
CONTINUOUS
 10
630.718994
 20
125.317581
 40
5.000000
 50
0.000000
 51
90.000000
  0
ARC
  8
0
  6
CONTINUOUS
 10
630.718994
 20
41.317577
 40
5.000000
 50
-90.000000
 51
0.000000
  0
LINE
  8
0
  6
CONTINUOUS
 10
635.718994
 20
125.317581
 11
635.718994
 21
41.317570
  0
LINE
  8
0
  6
CONTINUOUS
 10
578.718994
 20
38.317577
 11
578.718994
 21
128.317581
  0
LINE
  8
0
  6
CONTINUOUS
 10
588.718994
 20
370.542572
 11
587.718994
 21
370.542572
  0
ARC
  8
0
  6
CONTINUOUS
 10
588.718994
 20
371.542572
 40
1.000000
 50
-90.000000
 51
0.000000
  0
LINE
  8
0
  6
CONTINUOUS
 10
593.218994
 20
374.042572
 11
593.218994
 21
382.042572
  0
LINE
  8
0
  6
CONTINUOUS
 10
593.218994
 20
374.042572
 11
589.718994
 21
372.542572
  0
LINE
  8
0
  6
CONTINUOUS
 10
593.218994
 20
382.042572
 11
589.718994
 21
383.542572
  0
LINE
  8
0
  6
CONTINUOUS
 10
589.718994
 20
371.542572
 11
589.718994
 21
384.542572
  0
LINE
  8
0
  6
CONTINUOUS
 10
588.718994
 20
385.542572
 11
587.718994
 21
385.542572
  0
ARC
  8
0
  6
CONTINUOUS
 10
588.718994
 20
384.542572
 40
1.000000
 50
0.000000
 51
90.000000
  0
LINE
  8
0
  6
CONTINUOUS
 10
587.718994
 20
401.042572
 11
587.718994
 21
355.042572
  0
LINE
  8
0
  6
CONTINUOUS
 10
585.718994
 20
353.042572
 11
587.718994
 21
355.042572
  0
LINE
  8
0
  6
CONTINUOUS
 10
585.718994
 20
353.042572
 11
539.718994
 21
353.042572
  0
LINE
  8
0
  6
CONTINUOUS
 10
545.218994
 20
357.542572
 11
545.218994
 21
353.042572
  0
ARC
  8
0
  6
CONTINUOUS
 10
542.218994
 20
357.542572
 40
3.000000
 50
0.000000
 51
90.000000
  0
LINE
  8
0
  6
CONTINUOUS
 10
542.218994
 20
360.542572
 11
537.718994
 21
360.542572
  0
CIRCLE
  8
0
  6
CONTINUOUS
 10
541.218994
 20
356.542572
 40
2.250000
  0
LINE
  8
0
  6
CONTINUOUS
 10
537.718994
 20
401.042572
 11
537.718994
 21
355.042572
  0
LINE
  8
0
  6
CONTINUOUS
 10
539.718994
 20
353.042572
 11
537.718994
 21
355.042572
  0
LINE
  8
0
  6
CONTINUOUS
 10
539.718994
 20
403.042572
 11
537.718994
 21
401.042572
  0
LINE
  8
0
  6
CONTINUOUS
 10
539.718994
 20
403.042572
 11
585.718994
 21
403.042572
  0
LINE
  8
0
  6
CONTINUOUS
 10
587.718994
 20
401.042572
 11
585.718994
 21
403.042572
  0
LINE
  8
0
  6
CONTINUOUS
 10
583.218994
 20
395.542572
 11
587.718994
 21
395.542572
  0
CIRCLE
  8
0
  6
CONTINUOUS
 10
584.218994
 20
399.542572
 40
2.250000
  0
ARC
  8
0
  6
CONTINUOUS
 10
583.218994
 20
398.542572
 40
3.000000
 50
180.000000
 51
270.000000
  0
LINE
  8
0
  6
CONTINUOUS
 10
580.218994
 20
398.542572
 11
580.218994
 21
403.042572
  0
LINE
  8
0
  6
CENTER
 10
562.718994
 20
410.508362
 11
562.718994
 21
346.376312
  0
LINE
  8
0
  6
CONTINUOUS
 10
585.304749
 20
354.042542
 11
586.718994
 21
355.456757
  0
LINE
  8
0
  6
CONTINUOUS
 10
586.718994
 20
395.542542
 11
586.718994
 21
355.456757
  0
LINE
  8
0
  6
CONTINUOUS
 10
545.218994
 20
354.042542
 11
585.304749
 21
354.042542
  0
LINE
  8
0
  6
CONTINUOUS
 10
538.718994
 20
360.542542
 11
538.718994
 21
400.628326
  0
LINE
  8
0
  6
CONTINUOUS
 10
580.218994
 20
402.042542
 11
540.133240
 21
402.042542
  0
LINE
  8
0
  6
CONTINUOUS
 10
540.133240
 20
402.042542
 11
538.718994
 21
400.628326
  0
LINE
  8
0
  6
CONTINUOUS
 10
588.218994
 20
385.542572
 11
588.218994
 21
425.042542
  0
LINE
  8
0
  6
CONTINUOUS
 10
586.218994
 20
129.817581
 11
539.718994
 21
129.817581
  0
LINE
  8
0
  6
CONTINUOUS
 10
537.718994
 20
159.817581
 11
537.718994
 21
131.817581
  0
LINE
  8
0
  6
CONTINUOUS
 10
587.718994
 20
159.817581
 11
587.718994
 21
131.817581
  0
LINE
  8
0
  6
CONTINUOUS
 10
589.718994
 20
141.817581
 11
537.718994
 21
141.817581
  0
LINE
  8
0
  6
CONTINUOUS
 10
539.718994
 20
129.817581
 11
537.718994
 21
131.817581
  0
LINE
  8
0
  6
CONTINUOUS
 10
587.718994
 20
131.817581
 11
585.718994
 21
129.817581
  0
LINE
  8
0
  6
CONTINUOUS
 10
587.718994
 20
131.817581
 11
537.718994
 21
131.817581
  0
LINE
  8
0
  6
CONTINUOUS
 10
586.718994
 20
160.817581
 11
538.718994
 21
160.817581
  0
LINE
  8
0
  6
CONTINUOUS
 10
538.718994
 20
160.817581
 11
537.718994
 21
159.817581
  0
LINE
  8
0
  6
CONTINUOUS
 10
586.718994
 20
160.817581
 11
587.718994
 21
159.817581
  0
LINE
  8
0
  6
CONTINUOUS
 10
587.718994
 20
159.817581
 11
537.718994
 21
159.817581
  0
LINE
  8
0
  6
CENTER
 10
595.662720
 20
151.317581
 11
583.587769
 21
151.317581
  0
LINE
  8
0
  6
CONTINUOUS
 10
589.718994
 20
157.817581
 11
589.718994
 21
141.817581
  0
LINE
  8
0
  6
CONTINUOUS
 10
588.718994
 20
158.817581
 11
587.718994
 21
158.817581
  0
ARC
  8
0
  6
CONTINUOUS
 10
588.718994
 20
157.817581
 40
1.000000
 50
0.000000
 51
90.000000
  0
LINE
  8
0
  6
CONTINUOUS
 10
593.218994
 20
155.317581
 11
593.218994
 21
147.317581
  0
LINE
  8
0
  6
CONTINUOUS
 10
593.218994
 20
155.317581
 11
589.718994
 21
156.817581
  0
LINE
  8
0
  6
CONTINUOUS
 10
593.218994
 20
147.317581
 11
589.718994
 21
145.817581
  0
LINE
  8
0
  6
CENTER
 10
562.718994
 20
125.123825
 11
562.718994
 21
166.205078
  0
LINE
  8
0
  6
CONTINUOUS
 10
586.218994
 20
129.817581
 11
586.218994
 21
128.317581
  0
LINE
  8
0
  6
CONTINUOUS
 10
540.218994
 20
129.817581
 11
540.218994
 21
128.317581
  0
LINE
  8
0
  6
CONTINUOUS
 10
468.718994
 20
407.042542
 11
468.718994
 21
421.042572
  0
TEXT
  8
0
 10
-9.000000
 20
-5.000000
 40
4.000000
 41
1.000000
  1
HLM-28L-300~450-S90T
 50
0.000000
  0
ENDSEC
  0
EOF
